  0
SECTION
  2
HEADER
  9
$ACADVER
  1
AC1009
  9
$INSBASE
 10
0.0
 20
0.0
 30
0.0
  9
$EXTMIN
 10
0.0
 20
-2.960436562073669
 30
0.0
  9
$EXTMAX
 10
120.9999999998433
 20
154.0
 30
0.0
  9
$LIMMIN
 10
0.0
 20
0.0
  9
$LIMMAX
 10
375.0
 20
270.0
  9
$ORTHOMODE
 70
     1
  9
$REGENMODE
 70
     1
  9
$FILLMODE
 70
     1
  9
$QTEXTMODE
 70
     0
  9
$MIRRTEXT
 70
     0
  9
$DRAGMODE
 70
     2
  9
$LTSCALE
 40
10.0
  9
$OSMODE
 70
  3071
  9
$ATTMODE
 70
     1
  9
$TEXTSIZE
 40
0.2
  9
$TRACEWID
 40
0.05
  9
$TEXTSTYLE
  7
STANDARD
  9
$CLAYER
  8
0
  9
$CELTYPE
  6
BYLAYER
  9
$CECOLOR
 62
   256
  9
$DIMSCALE
 40
1.0
  9
$DIMASZ
 40
3.0
  9
$DIMEXO
 40
2.0
  9
$DIMDLI
 40
0.38
  9
$DIMRND
 40
0.0
  9
$DIMDLE
 40
0.0
  9
$DIMEXE
 40
2.0
  9
$DIMTP
 40
0.0
  9
$DIMTM
 40
0.0
  9
$DIMTXT
 40
3.2000000000000002
  9
$DIMCEN
 40
0.0
  9
$DIMTSZ
 40
0.0
  9
$DIMTOL
 70
     0
  9
$DIMLIM
 70
     0
  9
$DIMTIH
 70
     0
  9
$DIMTOH
 70
     0
  9
$DIMSE1
 70
     0
  9
$DIMSE2
 70
     0
  9
$DIMTAD
 70
     1
  9
$DIMZIN
 70
     0
  9
$DIMBLK
  1

  9
$DIMASO
 70
     0
  9
$DIMSHO
 70
     0
  9
$DIMPOST
  1

  9
$DIMAPOST
  1

  9
$DIMALT
 70
     0
  9
$DIMALTD
 70
     2
  9
$DIMALTF
 40
25.399999999999999
  9
$DIMLFAC
 40
1.0
  9
$DIMTOFL
 70
     1
  9
$DIMTVP
 40
1.6000000000000001
  9
$DIMTIX
 70
     1
  9
$DIMSOXD
 70
     0
  9
$DIMSAH
 70
     0
  9
$DIMBLK1
  1

  9
$DIMBLK2
  1

  9
$DIMSTYLE
  2
STANDARD
  9
$DIMCLRD
 70
     0
  9
$DIMCLRE
 70
     0
  9
$DIMCLRT
 70
     0
  9
$DIMTFAC
 40
1.0
  9
$DIMGAP
 40
0.09
  9
$LUNITS
 70
     2
  9
$LUPREC
 70
     4
  9
$SKETCHINC
 40
0.1
  9
$FILLETRAD
 40
0.0
  9
$AUNITS
 70
     0
  9
$AUPREC
 70
     4
  9
$MENU
  1
E:\r13\win\SUPPORT\ACAD
  9
$ELEVATION
 40
0.0
  9
$PELEVATION
 40
0.0
  9
$THICKNESS
 40
0.0
  9
$LIMCHECK
 70
     0
  9
$BLIPMODE
 70
     0
  9
$CHAMFERA
 40
0.0
  9
$CHAMFERB
 40
0.0
  9
$SKPOLY
 70
     0
  9
$TDCREATE
 40
2449839.764722222
  9
$TDUPDATE
 40
2456597.6812652778
  9
$TDINDWG
 40
0.0293959606
  9
$TDUSRTIMER
 40
0.0293959606
  9
$USRTIMER
 70
     1
  9
$ANGBASE
 50
0.0
  9
$ANGDIR
 70
     0
  9
$PDMODE
 70
     0
  9
$PDSIZE
 40
0.0
  9
$PLINEWID
 40
0.0
  9
$COORDS
 70
     1
  9
$SPLFRAME
 70
     0
  9
$SPLINETYPE
 70
     6
  9
$SPLINESEGS
 70
     8
  9
$ATTDIA
 70
     0
  9
$ATTREQ
 70
     1
  9
$HANDLING
 70
     1
  9
$HANDSEED
  5
473
  9
$SURFTAB1
 70
     6
  9
$SURFTAB2
 70
     6
  9
$SURFTYPE
 70
     6
  9
$SURFU
 70
     6
  9
$SURFV
 70
     6
  9
$UCSNAME
  2

  9
$UCSORG
 10
0.0
 20
0.0
 30
0.0
  9
$UCSXDIR
 10
1.0
 20
0.0
 30
0.0
  9
$UCSYDIR
 10
0.0
 20
1.0
 30
0.0
  9
$PUCSNAME
  2

  9
$PUCSORG
 10
0.0
 20
0.0
 30
0.0
  9
$PUCSXDIR
 10
1.0
 20
0.0
 30
0.0
  9
$PUCSYDIR
 10
0.0
 20
1.0
 30
0.0
  9
$USERI1
 70
     0
  9
$USERI2
 70
     1
  9
$USERI3
 70
     0
  9
$USERI4
 70
     0
  9
$USERI5
 70
     0
  9
$USERR1
 40
0.0
  9
$USERR2
 40
0.0
  9
$USERR3
 40
0.0
  9
$USERR4
 40
0.0
  9
$USERR5
 40
0.0
  9
$WORLDVIEW
 70
     1
  9
$SHADEDGE
 70
     3
  9
$SHADEDIF
 70
    70
  9
$TILEMODE
 70
     1
  9
$MAXACTVP
 70
    16
  9
$PLIMCHECK
 70
     0
  9
$PEXTMIN
 10
1.0000000000000000E+020
 20
1.0000000000000000E+020
 30
1.0000000000000000E+020
  9
$PEXTMAX
 10
-1.0000000000000000E+020
 20
-1.0000000000000000E+020
 30
-1.0000000000000000E+020
  9
$PLIMMIN
 10
0.0
 20
0.0
  9
$PLIMMAX
 10
12.0
 20
9.0
  9
$UNITMODE
 70
     0
  9
$VISRETAIN
 70
     0
  9
$PLINEGEN
 70
     0
  9
$PSLTSCALE
 70
     0
  0
ENDSEC
  0
SECTION
  2
TABLES
  0
TABLE
  2
VPORT
 70
     1
  0
VPORT
  2
*ACTIVE
 70
     0
 10
0.0
 20
0.0
 11
1.0
 21
1.0
 12
195.0581083320873
 22
133.5127261426681
 13
0.0
 23
0.0
 14
10.0
 24
10.0
 15
10.0
 25
10.0
 16
0.0
 26
0.0
 36
1.0
 17
0.0
 27
0.0
 37
0.0
 40
275.42274993631997
 41
1.831871345029239
 42
50.0
 43
0.0
 44
0.0
 50
0.0
 51
0.0
 71
     0
 72
   500
 73
     1
 74
     0
 75
     0
 76
     0
 77
     0
 78
     2
  0
ENDTAB
  0
TABLE
  2
LTYPE
 70
     4
  0
LTYPE
  2
CONTINUOUS
 70
     0
  3
Solid Line
 72
    65
 73
     0
 40
0.0
  0
LTYPE
  2
CENTER
 70
     0
  3
____ _ ____ _ ____ _ ____ _ ____ _ ____ _ ____
 72
    65
 73
     4
 40
2.0
 49
1.25
 49
-0.25
 49
0.25
 49
-0.25
  0
LTYPE
  2
HIDDEN
 70
     0
  3
_ _ _ _ _ _ _ _ _ _ _ _ _ _ _ _ _ _ _ _ _ _ _
 72
    65
 73
     2
 40
0.375
 49
0.25
 49
-0.125
  0
LTYPE
  2
PHANTOM2
 70
     0
  3
___ _ _ ___ _ _ ___ _ _ ___ _ _
 72
    65
 73
     6
 40
1.25
 49
0.625
 49
-0.125
 49
0.125
 49
-0.125
 49
0.125
 49
-0.125
  0
ENDTAB
  0
TABLE
  2
LAYER
 70
     4
  0
LAYER
  2
0
 70
     0
 62
     7
  6
CONTINUOUS
  0
LAYER
  2
1
 70
     0
 62
     1
  6
CENTER
  0
LAYER
  2
3
 70
     0
 62
     3
  6
CONTINUOUS
  0
LAYER
  2
2
 70
     0
 62
     2
  6
HIDDEN
  0
ENDTAB
  0
TABLE
  2
STYLE
 70
     2
  0
STYLE
  2
STANDARD
 70
     0
 40
0.0
 41
1.0
 50
0.0
 71
     0
 42
0.2
  3
TXT
  4
BIGFONT
  0
STYLE
  2
STANDARD1
 70
     0
 40
0.0
 41
1.0
 50
0.0
 71
     0
 42
3.0
  3
txt
  4

  0
ENDTAB
  0
TABLE
  2
VIEW
 70
     1
  0
VIEW
  2
ALL
 70
     0
 40
270.0
 10
220.99159663865549
 20
135.0
 41
0.0
 11
0.0
 21
0.0
 31
1.0
 12
0.0
 22
0.0
 32
0.0
 42
0.0
 43
0.0
 44
0.0
 50
0.0
 71
     0
  0
ENDTAB
  0
TABLE
  2
UCS
 70
     0
  0
ENDTAB
  0
TABLE
  2
APPID
 70
     4
  0
APPID
  2
ACAD
 70
     0
  0
APPID
  2
ACAD_MLEADERVER
 70
     0
  0
APPID
  2
ACAD_EXEMPT_FROM_CAD_STANDARDS
 70
     0
  0
APPID
  2
ACAD_NAV_VCDISPLAY
 70
     0
  0
ENDTAB
  0
TABLE
  2
DIMSTYLE
 70
     1
  0
DIMSTYLE
  2
STANDARD
 70
     0
  3

  4

  5

  6

  7

 40
1.0
 41
0.18
 42
0.0625
 43
0.38
 44
0.18
 45
0.0
 46
0.0
 47
0.0
 48
0.0
140
0.18
141
0.09
142
0.0
143
25.399999999999999
144
1.0
145
0.0
146
1.0
147
0.09
 71
     0
 72
     0
 73
     1
 74
     1
 75
     0
 76
     0
 77
     0
 78
     0
170
     0
171
     2
172
     0
173
     0
174
     0
175
     0
176
     0
177
     0
178
     0
  0
ENDTAB
  0
ENDSEC
  0
SECTION
  2
BLOCKS
  0
BLOCK
  8
0
  2
$MODEL_SPACE
 70
     0
 10
0.0
 20
0.0
 30
0.0
  3
$MODEL_SPACE
  1

  0
ENDBLK
  5
159
  8
0
  0
BLOCK
 67
     1
  8
0
  2
$PAPER_SPACE
 70
     0
 10
0.0
 20
0.0
 30
0.0
  3
$PAPER_SPACE
  1

  0
ENDBLK
  5
157
 67
     1
  8
0
  0
ENDSEC
  0
SECTION
  2
ENTITIES
  0
LINE
  5
3A
  8
0
 10
37.298294077827279
 20
138.00000000000171
 30
0.0
 11
43.6491470389131
 21
127.00000000000171
 31
0.0
  0
LINE
  5
3B
  8
0
 10
43.649147038915089
 20
149.00000000000159
 30
0.0
 11
37.298294077829212
 21
138.00000000000171
 31
0.0
  0
LINE
  5
3C
  8
0
 10
56.350852961087831
 20
149.0
 30
0.0
 11
43.649147038916141
 21
149.0
 31
0.0
  0
LINE
  5
3D
  8
0
 10
62.701705922172778
 20
137.99999999999829
 30
0.0
 11
56.3508529610869
 21
148.99999999999821
 31
0.0
  0
LINE
  5
3E
  8
0
 10
56.350852961084911
 20
126.99999999999829
 30
0.0
 11
62.70170592217076
 21
137.99999999999829
 31
0.0
  0
LINE
  5
3F
  8
0
 10
43.649147038912162
 20
127.0
 30
0.0
 11
56.350852961083852
 21
127.0
 31
0.0
  0
CIRCLE
  5
40
  8
0
 10
50.0
 20
138.0
 30
0.0
 40
10.5
  0
LINE
  5
41
  8
1
 10
32.29829407782924
 20
138.0
 30
0.0
 11
67.70170592217076
 21
138.0
 31
0.0
  0
LINE
  5
42
  8
1
 10
50.0
 20
122.0
 30
0.0
 11
50.0
 21
154.0
 31
0.0
  0
LINE
  5
4F
  8
1
 10
50.0
 20
15.000000000000069
 30
0.0
 11
50.0
 21
92.999929365545981
 31
0.0
  0
LINE
  5
50
  8
0
 10
56.350852961221896
 20
39.271143145898989
 30
0.0
 11
56.350852961221896
 21
86.728856854117154
 31
0.0
  0
LINE
  5
51
  8
0
 10
44.0
 20
22.0
 30
0.0
 11
56.0
 21
22.0
 31
0.0
  0
LINE
  5
53
  8
0
 10
44.0
 20
22.0
 30
0.0
 11
46.0
 21
20.0
 31
0.0
  0
LINE
  5
54
  8
0
 10
44.0
 20
34.499999999999993
 30
0.0
 11
44.0
 21
22.0
 31
0.0
  0
LINE
  5
55
  8
0
 10
56.0
 20
22.0
 30
0.0
 11
56.0
 21
34.499999999999993
 31
0.0
  0
LINE
  5
56
  8
0
 10
54.0
 20
20.0
 30
0.0
 11
56.0
 21
22.0
 31
0.0
  0
LINE
  5
57
  8
0
 10
46.0
 20
20.0
 30
0.0
 11
54.0
 21
20.0
 31
0.0
  0
LINE
  5
58
  8
0
 10
56.0
 20
34.499999999999993
 30
0.0
 11
44.0
 21
34.499999999999993
 31
0.0
  0
LINE
  5
59
  8
0
 10
45.299999999988351
 20
37.59999999999998
 30
0.0
 11
45.299999999988351
 21
34.899183163462368
 31
0.0
  0
LINE
  5
5A
  8
0
 10
54.700000000011642
 20
37.599999999999142
 30
0.0
 11
54.700000000011642
 21
34.899999999999991
 31
0.0
  0
LINE
  5
5B
  8
0
 10
39.500000000039847
 20
37.999999999999993
 30
0.0
 11
60.500000000021139
 21
37.999999999999993
 31
0.0
  0
ARC
  5
5C
  8
0
 10
44.899999999988353
 20
34.899183163462368
 30
0.0
 40
0.4
 50
270.11712276234141
 51
0.0
  0
ARC
  5
5D
  8
0
 10
55.100000000011647
 20
34.899999999999991
 30
0.0
 40
0.4
 50
180.0000000000004
 51
270.0
  0
ARC
  5
5E
  8
0
 10
44.899999999988381
 20
37.59999999999998
 30
0.0
 40
0.4
 50
0.0
 51
90.0
  0
ARC
  5
5F
  8
0
 10
55.100000000011647
 20
37.599999999999142
 30
0.0
 40
0.4
 50
89.999999999879492
 51
180.0000000000004
  0
LINE
  5
60
  8
0
 10
54.700000000011642
 20
37.599999999999142
 30
0.0
 11
54.700000000011642
 21
34.899999999999991
 31
0.0
  0
LINE
  5
61
  8
0
 10
45.299999999988351
 20
34.899183163462368
 30
0.0
 11
45.299999999988351
 21
37.59999999999998
 31
0.0
  0
LINE
  5
62
  8
0
 10
62.70170592243133
 20
39.271143145966349
 30
0.0
 11
62.70170592243133
 21
86.728856854049795
 31
0.0
  0
LINE
  5
63
  8
0
 10
60.49999999999887
 20
88.000012361042565
 30
0.0
 11
39.500000000029111
 21
87.999987638978723
 31
0.0
  0
LINE
  5
64
  8
0
 10
60.49999999999887
 20
88.000012361042565
 30
0.0
 11
62.70170592243133
 21
86.728856854049795
 31
0.0
  0
ARC
  5
65
  8
0
 10
59.526279441768281
 20
81.867329578761215
 30
0.0
 40
5.8067013684522211
 50
63.151552247285672
 51
123.15155225807089
  0
ARC
  5
66
  8
0
 10
50.00000000000108
 20
65.864986612173851
 30
0.0
 40
21.80904433503958
 50
73.070025354754193
 51
106.9299746452517
  0
ARC
  5
67
  8
0
 10
59.526279441768281
 20
44.132670421254922
 30
0.0
 40
5.8067013684522211
 50
236.84844774192899
 51
296.84844775271432
  0
LINE
  5
68
  8
0
 10
60.49999999999887
 20
37.999987638973558
 30
0.0
 11
62.70170592243133
 21
39.271143145966349
 31
0.0
  0
ARC
  5
69
  8
0
 10
50.00000000000108
 20
60.135013387842292
 30
0.0
 40
21.80904433503958
 50
253.0700253547482
 51
286.92997464524581
  0
LINE
  5
6A
  8
0
 10
39.500000000001137
 20
37.999987638973558
 30
0.0
 11
37.29829407756867
 21
39.271143145966349
 31
0.0
  0
ARC
  5
6B
  8
0
 10
40.473720558231719
 20
44.132670421254922
 30
0.0
 40
5.8067013684522211
 50
243.15155224728571
 51
303.15155225807098
  0
ARC
  5
6C
  8
0
 10
40.473720558231719
 20
81.867329578761215
 30
0.0
 40
5.8067013684522211
 50
56.848447741929029
 51
116.84844775271431
  0
LINE
  5
6D
  8
0
 10
39.500000000001137
 20
88.000012361042565
 30
0.0
 11
37.29829407756867
 21
86.728856854049795
 31
0.0
  0
LINE
  5
6E
  8
0
 10
37.29829407756867
 20
39.271143145966349
 30
0.0
 11
37.29829407756867
 21
86.728856854049795
 31
0.0
  0
LINE
  5
6F
  8
0
 10
43.649147038778089
 20
39.271143145898989
 30
0.0
 11
43.649147038778068
 21
86.728856854117154
 31
0.0
  0
LINE
  5
70
  8
0
 10
120.49999999999891
 20
88.000012361042565
 30
0.0
 11
120.9999999998432
 21
87.711337226537594
 31
0.0
  0
LINE
  5
71
  8
0
 10
120.49999999999891
 20
88.000012361042565
 30
0.0
 11
99.500000000029146
 21
87.999987638978709
 31
0.0
  0
LINE
  5
72
  8
0
 10
120.9999999998432
 20
38.288662773478492
 30
0.0
 11
120.9999999998432
 21
87.711337226537594
 31
0.0
  0
LINE
  5
73
  8
0
 10
105.2999999999883
 20
34.899183163462368
 30
0.0
 11
105.2999999999883
 21
37.599999999999973
 31
0.0
  0
LINE
  5
74
  8
0
 10
114.7000000000116
 20
37.599999999999127
 30
0.0
 11
114.7000000000116
 21
34.89999999999997
 31
0.0
  0
ARC
  5
75
  8
0
 10
115.1000000000116
 20
37.599999999999127
 30
0.0
 40
0.4
 50
89.999999999879492
 51
180.0
  0
ARC
  5
76
  8
0
 10
104.8999999999884
 20
37.599999999999973
 30
0.0
 40
0.4
 50
0.0
 51
90.0
  0
ARC
  5
77
  8
0
 10
115.1000000000116
 20
34.89999999999997
 30
0.0
 40
0.4
 50
180.0
 51
270.0
  0
ARC
  5
78
  8
0
 10
104.8999999999883
 20
34.899183163462368
 30
0.0
 40
0.4
 50
270.11712276234141
 51
0.0
  0
LINE
  5
79
  8
0
 10
99.500000000039847
 20
37.999999999999972
 30
0.0
 11
120.5000000000211
 21
37.999999999999957
 31
0.0
  0
LINE
  5
7A
  8
0
 10
114.7000000000116
 20
37.599999999999127
 30
0.0
 11
114.7000000000116
 21
34.89999999999997
 31
0.0
  0
LINE
  5
7B
  8
0
 10
105.2999999999883
 20
37.599999999999973
 30
0.0
 11
105.2999999999883
 21
34.899183163462368
 31
0.0
  0
LINE
  5
7C
  8
0
 10
116.0
 20
34.499999999999957
 30
0.0
 11
104.0
 21
34.499999999999972
 31
0.0
  0
LINE
  5
7D
  8
0
 10
106.0
 20
19.999999999999972
 30
0.0
 11
114.0
 21
19.999999999999961
 31
0.0
  0
LINE
  5
7E
  8
0
 10
114.0
 20
19.999999999999961
 30
0.0
 11
116.0
 21
21.999999999999961
 31
0.0
  0
LINE
  5
7F
  8
0
 10
116.0
 20
21.999999999999961
 30
0.0
 11
116.0
 21
34.499999999999957
 31
0.0
  0
LINE
  5
80
  8
0
 10
104.0
 20
34.499999999999972
 30
0.0
 11
104.0
 21
21.999999999999972
 31
0.0
  0
LINE
  5
81
  8
0
 10
104.0
 20
21.999999999999972
 30
0.0
 11
106.0
 21
19.999999999999972
 31
0.0
  0
LINE
  5
83
  8
0
 10
104.0
 20
21.999999999999972
 30
0.0
 11
116.0
 21
21.999999999999961
 31
0.0
  0
LINE
  5
84
  8
0
 10
109.9999999999999
 20
39.271143145898989
 30
0.0
 11
110.0
 21
86.728856854117126
 31
0.0
  0
ARC
  5
86
  8
0
 10
115.4999999999216
 20
71.199100935443923
 30
0.0
 40
16.47493001176948
 50
70.497951069688639
 51
109.5020489303113
  0
ARC
  5
87
  8
0
 10
115.4999999999216
 20
54.800899064572157
 30
0.0
 40
16.47493001176948
 50
250.4979510696887
 51
289.50204893031128
  0
LINE
  5
88
  8
0
 10
120.49999999999881
 20
37.999987638973543
 30
0.0
 11
120.9999999998432
 21
38.288662773478492
 31
0.0
  0
LINE
  5
89
  8
0
 10
99.500000000001137
 20
37.99998763897355
 30
0.0
 11
99.000000000156774
 21
38.288662773478507
 31
0.0
  0
LINE
  5
8A
  8
0
 10
99.000000000156774
 20
38.288662773478507
 30
0.0
 11
99.000000000156803
 21
87.711337226537594
 31
0.0
  0
LINE
  5
8B
  8
0
 10
99.500000000001165
 20
88.000012361042565
 30
0.0
 11
99.000000000156803
 21
87.711337226537594
 31
0.0
  0
ARC
  5
8C
  8
0
 10
104.5000000000784
 20
54.800899064572178
 30
0.0
 40
16.47493001176948
 50
250.4979510696887
 51
289.50204893031128
  0
ARC
  5
8D
  8
0
 10
104.5000000000784
 20
71.199100935443923
 30
0.0
 40
16.47493001176948
 50
70.497951069688639
 51
109.5020489303113
  0
LINE
  5
8E
  8
1
 10
110.0
 20
14.999999999999959
 30
0.0
 11
110.0
 21
93.000000000014083
 31
0.0
  0
LINE
  5
308
  8
2
 10
54.999995866261827
 20
62.000000000010651
 30
0.0
 11
45.000004133766133
 21
62.000000000010651
 31
0.0
  0
LINE
  5
309
  8
2
 10
45.000004133766133
 20
62.000000000010651
 30
0.0
 11
45.000004133766133
 21
86.000000000010687
 31
0.0
  0
LINE
  5
30A
  8
2
 10
45.000004133766133
 20
62.000000000010651
 30
0.0
 11
50.000000000028031
 21
59.113251040677341
 31
0.0
  0
LINE
  5
30B
  8
2
 10
44.00000413376614
 20
68.000000000010658
 30
0.0
 11
44.00000413376614
 21
87.000000000010687
 31
0.0
  0
LINE
  5
30C
  8
2
 10
55.99999586626182
 20
68.000000000010658
 30
0.0
 11
44.00000413376614
 21
68.000000000010658
 31
0.0
  0
LINE
  5
30D
  8
2
 10
44.00000413376614
 20
68.000000000010658
 30
0.0
 11
45.000004133766133
 21
66.267949192441819
 31
0.0
  0
LINE
  5
30E
  8
2
 10
45.000004133766133
 20
86.000000000010687
 30
0.0
 11
43.00000413376614
 21
88.000000000010687
 31
0.0
  0
LINE
  5
30F
  8
2
 10
45.000004133766133
 20
86.000000000010687
 30
0.0
 11
54.999995866261827
 21
86.000000000010616
 31
0.0
  0
CIRCLE
  5
310
  8
3
 10
50.0
 20
137.999999999881
 30
0.0
 40
6.0
  0
CIRCLE
  5
311
  8
0
 10
50.0
 20
137.999999999881
 30
0.0
 40
5.0
  0
LINE
  5
312
  8
2
 10
54.999995866261827
 20
62.000000000010651
 30
0.0
 11
54.999995866261827
 21
86.000000000010687
 31
0.0
  0
LINE
  5
313
  8
2
 10
54.999995866261827
 20
62.000000000010651
 30
0.0
 11
49.999999999999943
 21
59.113251040677341
 31
0.0
  0
LINE
  5
314
  8
2
 10
55.99999586626182
 20
68.000000000010658
 30
0.0
 11
55.99999586626182
 21
87.000000000010687
 31
0.0
  0
LINE
  5
315
  8
2
 10
55.99999586626182
 20
68.000000000010658
 30
0.0
 11
54.999995866261827
 21
66.267949192441819
 31
0.0
  0
LINE
  5
316
  8
2
 10
54.999995866261827
 20
86.000000000010687
 30
0.0
 11
56.999995866261827
 21
88.000000000010687
 31
0.0
  0
LINE
  5
319
  8
2
 10
114.9999958662617
 20
62.000000000010651
 30
0.0
 11
105.0000041337661
 21
62.000000000010651
 31
0.0
  0
LINE
  5
31A
  8
2
 10
105.0000041337661
 20
62.000000000010651
 30
0.0
 11
105.0000041337661
 21
86.000000000010687
 31
0.0
  0
LINE
  5
31B
  8
2
 10
105.0000041337661
 20
62.000000000010651
 30
0.0
 11
110.0000000000279
 21
59.113251040677341
 31
0.0
  0
LINE
  5
31C
  8
2
 10
104.0000041337661
 20
68.000000000010658
 30
0.0
 11
104.0000041337661
 21
87.000000000010687
 31
0.0
  0
LINE
  5
31D
  8
2
 10
115.9999958662617
 20
68.000000000010658
 30
0.0
 11
104.0000041337661
 21
68.000000000010658
 31
0.0
  0
LINE
  5
31E
  8
2
 10
104.0000041337661
 20
68.000000000010658
 30
0.0
 11
105.0000041337661
 21
66.267949192441819
 31
0.0
  0
LINE
  5
31F
  8
2
 10
105.0000041337661
 20
86.000000000010687
 30
0.0
 11
103.0000041337661
 21
88.000000000010687
 31
0.0
  0
LINE
  5
320
  8
2
 10
105.0000041337661
 20
86.000000000010687
 30
0.0
 11
114.9999958662617
 21
86.000000000010616
 31
0.0
  0
LINE
  5
321
  8
2
 10
114.9999958662617
 20
62.000000000010651
 30
0.0
 11
114.9999958662617
 21
86.000000000010687
 31
0.0
  0
LINE
  5
322
  8
2
 10
114.9999958662617
 20
62.000000000010651
 30
0.0
 11
109.9999999999999
 21
59.113251040677341
 31
0.0
  0
LINE
  5
323
  8
2
 10
115.9999958662617
 20
68.000000000010658
 30
0.0
 11
115.9999958662617
 21
87.000000000010687
 31
0.0
  0
LINE
  5
324
  8
2
 10
115.9999958662617
 20
68.000000000010658
 30
0.0
 11
114.9999958662617
 21
66.267949192441819
 31
0.0
  0
LINE
  5
325
  8
2
 10
114.9999958662617
 20
86.000000000010687
 30
0.0
 11
116.9999958662617
 21
88.000000000010687
 31
0.0
  0
LINE
  5
32E
  8
3
 10
45.0
 20
21.000000000000011
 30
0.0
 11
45.0
 21
34.499999999999993
 31
0.0
  0
LINE
  5
32F
  8
3
 10
55.0
 20
21.000000000000011
 30
0.0
 11
55.0
 21
34.5
 31
0.0
  0
LINE
  5
330
  8
3
 10
105.0
 20
20.999999999999979
 30
0.0
 11
105.0
 21
34.49999999999995
 31
0.0
  0
LINE
  5
331
  8
3
 10
115.0
 20
20.999999999999972
 30
0.0
 11
115.0
 21
34.499999999999972
 31
0.0
  0
TEXT
  5
40E
  8
0
 62
     3
 10
0.0
 20
0.0
 30
0.0
 40
10.0
  1
BJ610-12050-SUS
  7
STANDARD1
  0
ENDSEC
  0
EOF
