  0
SECTION
  2
HEADER
  9
$ACADVER
  1
AC1009
  9
$INSBASE
 10
0.0
 20
0.0
 30
0.0
  9
$EXTMIN
 10
0.0
 20
-2.960436562073669
 30
0.0
  9
$EXTMAX
 10
183.49999999998991
 20
193.5
 30
0.0
  9
$LIMMIN
 10
0.0
 20
0.0
  9
$LIMMAX
 10
375.0
 20
270.0
  9
$ORTHOMODE
 70
     1
  9
$REGENMODE
 70
     1
  9
$FILLMODE
 70
     1
  9
$QTEXTMODE
 70
     0
  9
$MIRRTEXT
 70
     0
  9
$DRAGMODE
 70
     2
  9
$LTSCALE
 40
10.0
  9
$OSMODE
 70
  3071
  9
$ATTMODE
 70
     1
  9
$TEXTSIZE
 40
0.2
  9
$TRACEWID
 40
0.05
  9
$TEXTSTYLE
  7
STANDARD
  9
$CLAYER
  8
0
  9
$CELTYPE
  6
BYLAYER
  9
$CECOLOR
 62
   256
  9
$DIMSCALE
 40
1.0
  9
$DIMASZ
 40
3.0
  9
$DIMEXO
 40
2.0
  9
$DIMDLI
 40
0.38
  9
$DIMRND
 40
0.0
  9
$DIMDLE
 40
0.0
  9
$DIMEXE
 40
2.0
  9
$DIMTP
 40
0.0
  9
$DIMTM
 40
0.0
  9
$DIMTXT
 40
3.2000000000000002
  9
$DIMCEN
 40
0.0
  9
$DIMTSZ
 40
0.0
  9
$DIMTOL
 70
     0
  9
$DIMLIM
 70
     0
  9
$DIMTIH
 70
     0
  9
$DIMTOH
 70
     0
  9
$DIMSE1
 70
     0
  9
$DIMSE2
 70
     0
  9
$DIMTAD
 70
     1
  9
$DIMZIN
 70
     0
  9
$DIMBLK
  1

  9
$DIMASO
 70
     0
  9
$DIMSHO
 70
     0
  9
$DIMPOST
  1

  9
$DIMAPOST
  1

  9
$DIMALT
 70
     0
  9
$DIMALTD
 70
     2
  9
$DIMALTF
 40
25.399999999999999
  9
$DIMLFAC
 40
1.0
  9
$DIMTOFL
 70
     1
  9
$DIMTVP
 40
1.6000000000000001
  9
$DIMTIX
 70
     1
  9
$DIMSOXD
 70
     0
  9
$DIMSAH
 70
     0
  9
$DIMBLK1
  1

  9
$DIMBLK2
  1

  9
$DIMSTYLE
  2
STANDARD
  9
$DIMCLRD
 70
     0
  9
$DIMCLRE
 70
     0
  9
$DIMCLRT
 70
     0
  9
$DIMTFAC
 40
1.0
  9
$DIMGAP
 40
0.09
  9
$LUNITS
 70
     2
  9
$LUPREC
 70
     4
  9
$SKETCHINC
 40
0.1
  9
$FILLETRAD
 40
0.0
  9
$AUNITS
 70
     0
  9
$AUPREC
 70
     4
  9
$MENU
  1
E:\r13\win\SUPPORT\ACAD
  9
$ELEVATION
 40
0.0
  9
$PELEVATION
 40
0.0
  9
$THICKNESS
 40
0.0
  9
$LIMCHECK
 70
     0
  9
$BLIPMODE
 70
     0
  9
$CHAMFERA
 40
0.0
  9
$CHAMFERB
 40
0.0
  9
$SKPOLY
 70
     0
  9
$TDCREATE
 40
2449839.7647800921
  9
$TDUPDATE
 40
2456597.6814026972
  9
$TDINDWG
 40
0.0141706944
  9
$TDUSRTIMER
 40
0.0141706944
  9
$USRTIMER
 70
     1
  9
$ANGBASE
 50
0.0
  9
$ANGDIR
 70
     0
  9
$PDMODE
 70
     0
  9
$PDSIZE
 40
0.0
  9
$PLINEWID
 40
0.0
  9
$COORDS
 70
     1
  9
$SPLFRAME
 70
     0
  9
$SPLINETYPE
 70
     6
  9
$SPLINESEGS
 70
     8
  9
$ATTDIA
 70
     0
  9
$ATTREQ
 70
     1
  9
$HANDLING
 70
     1
  9
$HANDSEED
  5
48F
  9
$SURFTAB1
 70
     6
  9
$SURFTAB2
 70
     6
  9
$SURFTYPE
 70
     6
  9
$SURFU
 70
     6
  9
$SURFV
 70
     6
  9
$UCSNAME
  2

  9
$UCSORG
 10
0.0
 20
0.0
 30
0.0
  9
$UCSXDIR
 10
1.0
 20
0.0
 30
0.0
  9
$UCSYDIR
 10
0.0
 20
1.0
 30
0.0
  9
$PUCSNAME
  2

  9
$PUCSORG
 10
0.0
 20
0.0
 30
0.0
  9
$PUCSXDIR
 10
1.0
 20
0.0
 30
0.0
  9
$PUCSYDIR
 10
0.0
 20
1.0
 30
0.0
  9
$USERI1
 70
     0
  9
$USERI2
 70
     1
  9
$USERI3
 70
     0
  9
$USERI4
 70
     0
  9
$USERI5
 70
     0
  9
$USERR1
 40
0.0
  9
$USERR2
 40
0.0
  9
$USERR3
 40
0.0
  9
$USERR4
 40
0.0
  9
$USERR5
 40
0.0
  9
$WORLDVIEW
 70
     1
  9
$SHADEDGE
 70
     3
  9
$SHADEDIF
 70
    70
  9
$TILEMODE
 70
     1
  9
$MAXACTVP
 70
    16
  9
$PLIMCHECK
 70
     0
  9
$PEXTMIN
 10
1.0000000000000000E+020
 20
1.0000000000000000E+020
 30
1.0000000000000000E+020
  9
$PEXTMAX
 10
-1.0000000000000000E+020
 20
-1.0000000000000000E+020
 30
-1.0000000000000000E+020
  9
$PLIMMIN
 10
0.0
 20
0.0
  9
$PLIMMAX
 10
12.0
 20
9.0
  9
$UNITMODE
 70
     0
  9
$VISRETAIN
 70
     0
  9
$PLINEGEN
 70
     0
  9
$PSLTSCALE
 70
     0
  0
ENDSEC
  0
SECTION
  2
TABLES
  0
TABLE
  2
VPORT
 70
     1
  0
VPORT
  2
*ACTIVE
 70
     0
 10
0.0
 20
0.0
 11
1.0
 21
1.0
 12
195.0581083320873
 22
133.5127261426681
 13
0.0
 23
0.0
 14
10.0
 24
10.0
 15
10.0
 25
10.0
 16
0.0
 26
0.0
 36
1.0
 17
0.0
 27
0.0
 37
0.0
 40
275.42274993631997
 41
1.831871345029239
 42
50.0
 43
0.0
 44
0.0
 50
0.0
 51
0.0
 71
     0
 72
   500
 73
     1
 74
     0
 75
     0
 76
     0
 77
     0
 78
     2
  0
ENDTAB
  0
TABLE
  2
LTYPE
 70
     4
  0
LTYPE
  2
CONTINUOUS
 70
     0
  3
Solid Line
 72
    65
 73
     0
 40
0.0
  0
LTYPE
  2
CENTER
 70
     0
  3
____ _ ____ _ ____ _ ____ _ ____ _ ____ _ ____
 72
    65
 73
     4
 40
2.0
 49
1.25
 49
-0.25
 49
0.25
 49
-0.25
  0
LTYPE
  2
HIDDEN
 70
     0
  3
_ _ _ _ _ _ _ _ _ _ _ _ _ _ _ _ _ _ _ _ _ _ _
 72
    65
 73
     2
 40
0.375
 49
0.25
 49
-0.125
  0
LTYPE
  2
PHANTOM2
 70
     0
  3
___ _ _ ___ _ _ ___ _ _ ___ _ _
 72
    65
 73
     6
 40
1.25
 49
0.625
 49
-0.125
 49
0.125
 49
-0.125
 49
0.125
 49
-0.125
  0
ENDTAB
  0
TABLE
  2
LAYER
 70
     4
  0
LAYER
  2
0
 70
     0
 62
     7
  6
CONTINUOUS
  0
LAYER
  2
1
 70
     0
 62
     1
  6
CENTER
  0
LAYER
  2
3
 70
     0
 62
     3
  6
CONTINUOUS
  0
LAYER
  2
2
 70
     0
 62
     2
  6
HIDDEN
  0
ENDTAB
  0
TABLE
  2
STYLE
 70
     2
  0
STYLE
  2
STANDARD
 70
     0
 40
0.0
 41
1.0
 50
0.0
 71
     0
 42
0.2
  3
TXT
  4
BIGFONT
  0
STYLE
  2
STANDARD1
 70
     0
 40
0.0
 41
1.0
 50
0.0
 71
     0
 42
3.0
  3
txt
  4

  0
ENDTAB
  0
TABLE
  2
VIEW
 70
     1
  0
VIEW
  2
ALL
 70
     0
 40
270.0
 10
220.99159663865549
 20
135.0
 41
0.0
 11
0.0
 21
0.0
 31
1.0
 12
0.0
 22
0.0
 32
0.0
 42
0.0
 43
0.0
 44
0.0
 50
0.0
 71
     0
  0
ENDTAB
  0
TABLE
  2
UCS
 70
     0
  0
ENDTAB
  0
TABLE
  2
APPID
 70
     4
  0
APPID
  2
ACAD
 70
     0
  0
APPID
  2
ACAD_MLEADERVER
 70
     0
  0
APPID
  2
ACAD_EXEMPT_FROM_CAD_STANDARDS
 70
     0
  0
APPID
  2
ACAD_NAV_VCDISPLAY
 70
     0
  0
ENDTAB
  0
TABLE
  2
DIMSTYLE
 70
     1
  0
DIMSTYLE
  2
STANDARD
 70
     0
  3

  4

  5

  6

  7

 40
1.0
 41
0.18
 42
0.0625
 43
0.38
 44
0.18
 45
0.0
 46
0.0
 47
0.0
 48
0.0
140
0.18
141
0.09
142
0.0
143
25.399999999999999
144
1.0
145
0.0
146
1.0
147
0.09
 71
     0
 72
     0
 73
     1
 74
     1
 75
     0
 76
     0
 77
     0
 78
     0
170
     0
171
     2
172
     0
173
     0
174
     0
175
     0
176
     0
177
     0
178
     0
  0
ENDTAB
  0
ENDSEC
  0
SECTION
  2
BLOCKS
  0
BLOCK
  8
0
  2
$MODEL_SPACE
 70
     0
 10
0.0
 20
0.0
 30
0.0
  3
$MODEL_SPACE
  1

  0
ENDBLK
  5
157
  8
0
  0
BLOCK
 67
     1
  8
0
  2
$PAPER_SPACE
 70
     0
 10
0.0
 20
0.0
 30
0.0
  3
$PAPER_SPACE
  1

  0
ENDBLK
  5
155
 67
     1
  8
0
  0
ENDSEC
  0
SECTION
  2
ENTITIES
  0
LINE
  5
43
  8
1
 10
79.411542731948487
 20
175.0
 30
0.0
 11
120.588457268168
 21
175.0
 31
0.0
  0
LINE
  5
44
  8
1
 10
99.999999999999986
 20
156.49999999999989
 30
0.0
 11
99.999999999999986
 21
193.5
 31
0.0
  0
CIRCLE
  5
45
  8
0
 10
99.999999999999986
 20
175.0
 30
0.0
 40
6.9175000000000004
  0
CIRCLE
  5
46
  8
3
 10
99.999999999999986
 20
175.0
 30
0.0
 40
8.0
  0
CIRCLE
  5
47
  8
0
 10
100.0000000000571
 20
175.0
 30
0.0
 40
13.0
  0
LINE
  5
48
  8
0
 10
107.794228634117
 20
188.49999999999989
 30
0.0
 11
115.588457268177
 21
175.0
 31
0.0
  0
LINE
  5
49
  8
0
 10
115.588457268177
 20
175.0
 30
0.0
 11
107.7942286341171
 21
161.5
 31
0.0
  0
LINE
  5
4A
  8
0
 10
107.794228634117
 20
161.5
 30
0.0
 11
92.205771365997236
 21
161.5
 31
0.0
  0
LINE
  5
4B
  8
0
 10
92.20577136599718
 20
161.5
 30
0.0
 11
84.41154273193726
 21
174.99999999999989
 31
0.0
  0
LINE
  5
4C
  8
0
 10
84.411542731937217
 20
175.0
 30
0.0
 11
92.205771365997151
 21
188.49999999999989
 31
0.0
  0
LINE
  5
4D
  8
0
 10
92.20577136599718
 20
188.49999999999989
 30
0.0
 11
107.794228634117
 21
188.49999999999989
 31
0.0
  0
LINE
  5
4E
  8
0
 10
92.0
 20
70.999999999999972
 30
0.0
 11
108.0
 21
70.999999999999972
 31
0.0
  0
LINE
  5
4F
  8
0
 10
92.0
 20
51.999999999999993
 30
0.0
 11
108.0
 21
51.999999999999993
 31
0.0
  0
LINE
  5
50
  8
0
 10
94.0
 20
50.0
 30
0.0
 11
106.0
 21
50.0
 31
0.0
  0
LINE
  5
51
  8
0
 10
106.0
 20
50.0
 30
0.0
 11
108.0
 21
51.999999999999993
 31
0.0
  0
LINE
  5
52
  8
0
 10
108.0
 20
51.999999999999993
 30
0.0
 11
108.0
 21
70.999999999999972
 31
0.0
  0
LINE
  5
53
  8
0
 10
106.6045029114018
 20
71.399999999999963
 30
0.0
 11
106.6045029114018
 21
74.600000000000634
 31
0.0
  0
LINE
  5
54
  8
3
 10
106.91750000001051
 20
50.91750000001047
 30
0.0
 11
106.91750000001051
 21
70.999999999999972
 31
0.0
  0
ARC
  5
55
  8
0
 10
107.0045029114018
 20
74.600000000000634
 30
0.0
 40
0.4
 50
90.0
 51
180.0
  0
ARC
  5
56
  8
0
 10
107.0045029114018
 20
71.399999999999963
 30
0.0
 40
0.4
 50
180.0
 51
270.0
  0
LINE
  5
57
  8
1
 10
100.0
 20
44.999999999999993
 30
0.0
 11
100.0
 21
129.99999999999989
 31
0.0
  0
LINE
  5
58
  8
0
 10
87.000000000010061
 20
75.0
 30
0.0
 11
112.9999999999899
 21
74.999999999999972
 31
0.0
  0
ARC
  5
59
  8
0
 10
92.995497088598142
 20
71.399999999999963
 30
0.0
 40
0.4
 50
270.0
 51
0.0
  0
ARC
  5
5A
  8
0
 10
92.995497088598142
 20
74.600000000000634
 30
0.0
 40
0.4
 50
0.0
 51
90.0
  0
LINE
  5
5B
  8
3
 10
93.082499999989523
 20
50.91750000001047
 30
0.0
 11
93.082499999989523
 21
70.999999999999972
 31
0.0
  0
LINE
  5
5C
  8
0
 10
93.395497088598177
 20
71.399999999999963
 30
0.0
 11
93.395497088598177
 21
74.600000000000634
 31
0.0
  0
LINE
  5
5D
  8
0
 10
92.0
 20
51.999999999999993
 30
0.0
 11
92.0
 21
70.999999999999972
 31
0.0
  0
LINE
  5
5E
  8
0
 10
94.0
 20
50.0
 30
0.0
 11
92.0
 21
51.999999999999993
 31
0.0
  0
LINE
  5
5F
  8
0
 10
115.588457268168
 20
123.5055534994321
 30
0.0
 11
115.588457268168
 21
76.494446500568415
 31
0.0
  0
LINE
  5
60
  8
0
 10
107.7942286341282
 20
123.5055534994993
 30
0.0
 11
107.7942286341282
 21
76.494446500501198
 31
0.0
  0
LINE
  5
61
  8
0
 10
92.205771365988795
 20
123.5055534994993
 30
0.0
 11
92.205771365988767
 21
76.494446500501198
 31
0.0
  0
LINE
  5
62
  8
0
 10
84.41154273194843
 20
76.494446500501198
 30
0.0
 11
84.411542731948444
 21
123.5055534994993
 31
0.0
  0
LINE
  5
63
  8
0
 10
115.588457268168
 20
76.494446500568415
 30
0.0
 11
112.9999999999911
 21
75.000000000000654
 31
0.0
  0
LINE
  5
64
  8
0
 10
87.000000000008868
 20
75.000000000000654
 30
0.0
 11
84.41154273194843
 21
76.494446500501198
 31
0.0
  0
LINE
  5
67
  8
0
 10
87.000000000008924
 20
124.9999999999999
 30
0.0
 11
84.41154273194843
 21
123.5055534994993
 31
0.0
  0
LINE
  5
68
  8
0
 10
112.9999999999911
 20
124.9999999999999
 30
0.0
 11
87.000000000008924
 21
124.9999999999999
 31
0.0
  0
LINE
  5
69
  8
0
 10
115.588457268168
 20
123.5055534994321
 30
0.0
 11
112.9999999999911
 21
124.9999999999999
 31
0.0
  0
ARC
  5
6A
  8
0
 10
100.00000000005841
 20
98.917096231682279
 30
0.0
 40
25.794228633723499
 50
72.41204622574638
 51
107.58795377425319
  0
ARC
  5
6B
  8
0
 10
111.69134295113849
 20
117.81060344481929
 30
0.0
 40
6.900721420586442
 50
64.38424746894438
 51
124.3842474687309
  0
ARC
  5
6C
  8
0
 10
88.308657048861448
 20
117.81060344481929
 30
0.0
 40
6.900721420586442
 50
55.615752531269038
 51
115.61575253105561
  0
ARC
  5
6D
  8
0
 10
88.308657048861448
 20
82.189396555181176
 30
0.0
 40
6.900721420586442
 50
244.38424746894441
 51
304.38424746873102
  0
ARC
  5
6E
  8
0
 10
111.69134295113849
 20
82.189396555181176
 30
0.0
 40
6.900721420586442
 50
235.6157525312689
 51
295.61575253105559
  0
ARC
  5
6F
  8
0
 10
100.00000000005841
 20
101.0829037683182
 30
0.0
 40
25.794228633723499
 50
252.41204622574679
 51
287.58795377425361
  0
ARC
  5
70
  8
0
 10
163.250000000005
 20
105.214931969444
 30
0.0
 40
19.496392895961751
 50
69.743841999246001
 51
110.2561580007535
  0
ARC
  5
71
  8
0
 10
163.250000000005
 20
94.785068030555664
 30
0.0
 40
19.496392895961751
 50
249.74384199924651
 51
290.25615800075389
  0
LINE
  5
72
  8
0
 10
156.5000000000102
 20
124.7113248654057
 30
0.0
 11
156.50000000001151
 21
75.288675134593916
 31
0.0
  0
LINE
  5
73
  8
0
 10
156.50000000001009
 20
124.7113248654057
 30
0.0
 11
157.0000000000089
 21
124.9999999999998
 31
0.0
  0
LINE
  5
74
  8
0
 10
156.50000000001151
 20
75.288675134593944
 30
0.0
 11
157.0000000000089
 21
75.000000000000597
 31
0.0
  0
ARC
  5
75
  8
0
 10
176.749999999995
 20
94.785068030555664
 30
0.0
 40
19.496392895961751
 50
249.743841999246
 51
290.25615800075349
  0
ARC
  5
76
  8
0
 10
176.749999999995
 20
105.214931969444
 30
0.0
 40
19.496392895961751
 50
69.743841999246413
 51
110.256158000754
  0
LINE
  5
77
  8
0
 10
183.49999999998849
 20
75.288675134593944
 30
0.0
 11
182.9999999999911
 21
75.000000000000597
 31
0.0
  0
LINE
  5
78
  8
0
 10
183.49999999998991
 20
124.7113248654057
 30
0.0
 11
182.9999999999911
 21
124.9999999999998
 31
0.0
  0
LINE
  5
79
  8
0
 10
161.99999999999989
 20
70.999999999999915
 30
0.0
 11
178.0
 21
70.999999999999915
 31
0.0
  0
LINE
  5
7A
  8
0
 10
161.99999999999989
 20
51.99999999999995
 30
0.0
 11
178.0
 21
51.999999999999929
 31
0.0
  0
LINE
  5
7B
  8
0
 10
163.99999999999989
 20
49.99999999999995
 30
0.0
 11
175.99999999999989
 21
49.999999999999929
 31
0.0
  0
LINE
  5
7C
  8
0
 10
175.99999999999989
 20
49.999999999999929
 30
0.0
 11
178.0
 21
51.999999999999929
 31
0.0
  0
LINE
  5
7D
  8
0
 10
178.0
 20
51.999999999999929
 30
0.0
 11
178.0
 21
70.999999999999915
 31
0.0
  0
LINE
  5
7E
  8
0
 10
176.6045029114018
 20
71.39999999999992
 30
0.0
 11
176.6045029114018
 21
74.600000000000591
 31
0.0
  0
LINE
  5
7F
  8
3
 10
176.91750000001039
 20
50.917500000010421
 30
0.0
 11
176.91750000001039
 21
70.999999999999915
 31
0.0
  0
ARC
  5
80
  8
0
 10
177.0045029114018
 20
74.600000000000591
 30
0.0
 40
0.4
 50
90.0
 51
180.0
  0
ARC
  5
81
  8
0
 10
177.0045029114018
 20
71.39999999999992
 30
0.0
 40
0.4
 50
180.0
 51
270.0
  0
LINE
  5
82
  8
1
 10
170.0
 20
44.999999999999993
 30
0.0
 11
170.0
 21
129.99999999999989
 31
0.0
  0
LINE
  5
83
  8
0
 10
157.00000000001
 20
74.999999999999943
 30
0.0
 11
182.9999999999898
 21
74.999999999999915
 31
0.0
  0
ARC
  5
84
  8
0
 10
162.99549708859811
 20
71.39999999999992
 30
0.0
 40
0.4
 50
270.0
 51
0.0
  0
ARC
  5
85
  8
0
 10
162.99549708859811
 20
74.600000000000591
 30
0.0
 40
0.4
 50
0.0
 51
90.0
  0
LINE
  5
86
  8
3
 10
163.08249999998949
 20
50.917500000010421
 30
0.0
 11
163.08249999998949
 21
70.999999999999915
 31
0.0
  0
LINE
  5
87
  8
0
 10
163.39549708859809
 20
71.39999999999992
 30
0.0
 11
163.39549708859809
 21
74.600000000000591
 31
0.0
  0
LINE
  5
88
  8
0
 10
161.99999999999989
 20
51.99999999999995
 30
0.0
 11
161.99999999999989
 21
70.999999999999915
 31
0.0
  0
LINE
  5
89
  8
0
 10
163.99999999999989
 20
49.99999999999995
 30
0.0
 11
161.99999999999989
 21
51.99999999999995
 31
0.0
  0
LINE
  5
8A
  8
0
 10
183.49999999998991
 20
124.7113248654057
 30
0.0
 11
183.49999999998849
 21
75.288675134593916
 31
0.0
  0
LINE
  5
8B
  8
0
 10
170.0
 20
123.5055534994993
 30
0.0
 11
170.0
 21
76.494446500501141
 31
0.0
  0
LINE
  5
8C
  8
0
 10
182.9999999999911
 20
124.9999999999998
 30
0.0
 11
157.0000000000089
 21
124.9999999999998
 31
0.0
  0
LINE
  5
377
  8
2
 10
108.0
 20
94.999999999999943
 30
0.0
 11
92.000000000000014
 21
94.999999999999943
 31
0.0
  0
LINE
  5
378
  8
2
 10
93.082499999999953
 20
122.9999999999999
 30
0.0
 11
93.082499999999953
 21
89.749999999999943
 31
0.0
  0
LINE
  5
379
  8
2
 10
92.000000000000014
 20
124.0824999999999
 30
0.0
 11
92.000000000000014
 21
94.999999999999943
 31
0.0
  0
LINE
  5
37A
  8
2
 10
106.9175000000001
 20
89.749999999999943
 30
0.0
 11
93.082499999999953
 21
89.749999999999943
 31
0.0
  0
LINE
  5
37B
  8
2
 10
93.082499999999953
 20
89.749999999999943
 30
0.0
 11
100.0
 21
85.756179512880692
 31
0.0
  0
LINE
  5
37C
  8
2
 10
93.082499999999953
 20
122.9999999999999
 30
0.0
 11
91.082499999999953
 21
124.9999999999999
 31
0.0
  0
LINE
  5
37D
  8
2
 10
93.082499999999953
 20
123.0
 30
0.0
 11
106.9175000000001
 21
123.0
 31
0.0
  0
LINE
  5
37E
  8
2
 10
92.000000000000014
 20
94.999999999999943
 30
0.0
 11
93.082499999999953
 21
94.375018333602199
 31
0.0
  0
LINE
  5
37F
  8
2
 10
106.9175000000001
 20
122.9999999999999
 30
0.0
 11
106.9175000000001
 21
89.749999999999943
 31
0.0
  0
LINE
  5
380
  8
2
 10
108.0
 20
124.0824999999999
 30
0.0
 11
108.0
 21
94.999999999999943
 31
0.0
  0
LINE
  5
381
  8
2
 10
106.9175000000001
 20
89.749999999999943
 30
0.0
 11
100.0
 21
85.756179512880692
 31
0.0
  0
LINE
  5
382
  8
2
 10
106.9175000000001
 20
122.9999999999999
 30
0.0
 11
108.9175000000001
 21
124.9999999999999
 31
0.0
  0
LINE
  5
383
  8
2
 10
108.0
 20
94.999999999999943
 30
0.0
 11
106.9175000000001
 21
94.375018333602199
 31
0.0
  0
LINE
  5
384
  8
2
 10
178.00000000000011
 20
94.999999999999915
 30
0.0
 11
162.00000000000011
 21
94.999999999999915
 31
0.0
  0
LINE
  5
385
  8
2
 10
163.08250000000001
 20
122.9999999999999
 30
0.0
 11
163.08250000000001
 21
89.749999999999915
 31
0.0
  0
LINE
  5
386
  8
2
 10
162.00000000000011
 20
124.0824999999999
 30
0.0
 11
162.00000000000011
 21
94.999999999999915
 31
0.0
  0
LINE
  5
387
  8
2
 10
176.9175000000001
 20
89.749999999999915
 30
0.0
 11
163.08250000000001
 21
89.749999999999915
 31
0.0
  0
LINE
  5
388
  8
2
 10
163.08250000000001
 20
89.749999999999915
 30
0.0
 11
170.00000000000011
 21
85.756179512880664
 31
0.0
  0
LINE
  5
389
  8
2
 10
163.08250000000001
 20
122.9999999999999
 30
0.0
 11
161.08250000000001
 21
124.9999999999999
 31
0.0
  0
LINE
  5
38A
  8
2
 10
163.08250000000001
 20
122.9999999999999
 30
0.0
 11
176.9175000000001
 21
123.0
 31
0.0
  0
LINE
  5
38B
  8
2
 10
162.00000000000011
 20
94.999999999999915
 30
0.0
 11
163.08250000000001
 21
94.375018333602185
 31
0.0
  0
LINE
  5
38C
  8
2
 10
176.9175000000001
 20
122.9999999999999
 30
0.0
 11
176.9175000000001
 21
89.749999999999915
 31
0.0
  0
LINE
  5
38D
  8
2
 10
178.00000000000011
 20
124.0824999999999
 30
0.0
 11
178.00000000000011
 21
94.999999999999915
 31
0.0
  0
LINE
  5
38E
  8
2
 10
176.9175000000001
 20
89.749999999999915
 30
0.0
 11
170.00000000000011
 21
85.756179512880664
 31
0.0
  0
LINE
  5
38F
  8
2
 10
176.9175000000001
 20
122.9999999999999
 30
0.0
 11
178.9175000000001
 21
124.9999999999999
 31
0.0
  0
LINE
  5
390
  8
2
 10
178.00000000000011
 20
94.999999999999915
 30
0.0
 11
176.9175000000001
 21
94.375018333602185
 31
0.0
  0
TEXT
  5
42A
  8
0
 62
     3
 10
0.0
 20
0.0
 30
0.0
 40
10.0
  1
BJ610-16050
  7
STANDARD1
  0
ENDSEC
  0
EOF
