  0
SECTION
  2
HEADER
  9
$ACADVER
  1
AC1009
  9
$INSBASE
 10
0.0
 20
0.0
 30
0.0
  9
$EXTMIN
 10
0.0
 20
-2.960436562073669
 30
0.0
  9
$EXTMAX
 10
143.9764052672424
 20
238.1063574972334
 30
0.0
  9
$LIMMIN
 10
0.0
 20
0.0
  9
$LIMMAX
 10
375.0
 20
270.0
  9
$ORTHOMODE
 70
     1
  9
$REGENMODE
 70
     1
  9
$FILLMODE
 70
     1
  9
$QTEXTMODE
 70
     0
  9
$MIRRTEXT
 70
     0
  9
$DRAGMODE
 70
     2
  9
$LTSCALE
 40
10.0
  9
$OSMODE
 70
  3071
  9
$ATTMODE
 70
     1
  9
$TEXTSIZE
 40
0.2
  9
$TRACEWID
 40
0.05
  9
$TEXTSTYLE
  7
STANDARD
  9
$CLAYER
  8
0
  9
$CELTYPE
  6
BYLAYER
  9
$CECOLOR
 62
   256
  9
$DIMSCALE
 40
1.0
  9
$DIMASZ
 40
3.0
  9
$DIMEXO
 40
2.0
  9
$DIMDLI
 40
0.38
  9
$DIMRND
 40
0.0
  9
$DIMDLE
 40
0.0
  9
$DIMEXE
 40
2.0
  9
$DIMTP
 40
0.0
  9
$DIMTM
 40
0.0
  9
$DIMTXT
 40
3.2000000000000002
  9
$DIMCEN
 40
0.0
  9
$DIMTSZ
 40
0.0
  9
$DIMTOL
 70
     0
  9
$DIMLIM
 70
     0
  9
$DIMTIH
 70
     0
  9
$DIMTOH
 70
     0
  9
$DIMSE1
 70
     0
  9
$DIMSE2
 70
     0
  9
$DIMTAD
 70
     1
  9
$DIMZIN
 70
     0
  9
$DIMBLK
  1

  9
$DIMASO
 70
     0
  9
$DIMSHO
 70
     0
  9
$DIMPOST
  1

  9
$DIMAPOST
  1

  9
$DIMALT
 70
     0
  9
$DIMALTD
 70
     2
  9
$DIMALTF
 40
25.399999999999999
  9
$DIMLFAC
 40
1.0
  9
$DIMTOFL
 70
     1
  9
$DIMTVP
 40
1.6000000000000001
  9
$DIMTIX
 70
     1
  9
$DIMSOXD
 70
     0
  9
$DIMSAH
 70
     0
  9
$DIMBLK1
  1

  9
$DIMBLK2
  1

  9
$DIMSTYLE
  2
STANDARD
  9
$DIMCLRD
 70
     0
  9
$DIMCLRE
 70
     0
  9
$DIMCLRT
 70
     0
  9
$DIMTFAC
 40
1.0
  9
$DIMGAP
 40
0.09
  9
$LUNITS
 70
     2
  9
$LUPREC
 70
     4
  9
$SKETCHINC
 40
0.1
  9
$FILLETRAD
 40
0.0
  9
$AUNITS
 70
     0
  9
$AUPREC
 70
     4
  9
$MENU
  1
E:\r13\win\SUPPORT\ACAD
  9
$ELEVATION
 40
0.0
  9
$PELEVATION
 40
0.0
  9
$THICKNESS
 40
0.0
  9
$LIMCHECK
 70
     0
  9
$BLIPMODE
 70
     0
  9
$CHAMFERA
 40
0.0
  9
$CHAMFERB
 40
0.0
  9
$SKPOLY
 70
     0
  9
$TDCREATE
 40
2449839.764699074
  9
$TDUPDATE
 40
2456602.6154121882
  9
$TDINDWG
 40
0.0582398727
  9
$TDUSRTIMER
 40
2456598.4068074068
  9
$USRTIMER
 70
     1
  9
$ANGBASE
 50
0.0
  9
$ANGDIR
 70
     0
  9
$PDMODE
 70
     0
  9
$PDSIZE
 40
0.0
  9
$PLINEWID
 40
0.0
  9
$COORDS
 70
     1
  9
$SPLFRAME
 70
     0
  9
$SPLINETYPE
 70
     6
  9
$SPLINESEGS
 70
     8
  9
$ATTDIA
 70
     0
  9
$ATTREQ
 70
     1
  9
$HANDLING
 70
     1
  9
$HANDSEED
  5
1782
  9
$SURFTAB1
 70
     6
  9
$SURFTAB2
 70
     6
  9
$SURFTYPE
 70
     6
  9
$SURFU
 70
     6
  9
$SURFV
 70
     6
  9
$UCSNAME
  2

  9
$UCSORG
 10
0.0
 20
0.0
 30
0.0
  9
$UCSXDIR
 10
1.0
 20
0.0
 30
0.0
  9
$UCSYDIR
 10
0.0
 20
1.0
 30
0.0
  9
$PUCSNAME
  2

  9
$PUCSORG
 10
0.0
 20
0.0
 30
0.0
  9
$PUCSXDIR
 10
1.0
 20
0.0
 30
0.0
  9
$PUCSYDIR
 10
0.0
 20
1.0
 30
0.0
  9
$USERI1
 70
     0
  9
$USERI2
 70
     1
  9
$USERI3
 70
     0
  9
$USERI4
 70
     0
  9
$USERI5
 70
     0
  9
$USERR1
 40
0.0
  9
$USERR2
 40
0.0
  9
$USERR3
 40
0.0
  9
$USERR4
 40
0.0
  9
$USERR5
 40
0.0
  9
$WORLDVIEW
 70
     1
  9
$SHADEDGE
 70
     3
  9
$SHADEDIF
 70
    70
  9
$TILEMODE
 70
     1
  9
$MAXACTVP
 70
    16
  9
$PLIMCHECK
 70
     0
  9
$PEXTMIN
 10
1.0000000000000000E+020
 20
1.0000000000000000E+020
 30
1.0000000000000000E+020
  9
$PEXTMAX
 10
-1.0000000000000000E+020
 20
-1.0000000000000000E+020
 30
-1.0000000000000000E+020
  9
$PLIMMIN
 10
0.0
 20
0.0
  9
$PLIMMAX
 10
12.0
 20
9.0
  9
$UNITMODE
 70
     0
  9
$VISRETAIN
 70
     0
  9
$PLINEGEN
 70
     0
  9
$PSLTSCALE
 70
     0
  0
ENDSEC
  0
SECTION
  2
TABLES
  0
TABLE
  2
VPORT
 70
     1
  0
VPORT
  2
*ACTIVE
 70
     0
 10
0.0
 20
0.0
 11
1.0
 21
1.0
 12
195.0581083320873
 22
133.5127261426681
 13
0.0
 23
0.0
 14
10.0
 24
10.0
 15
10.0
 25
10.0
 16
0.0
 26
0.0
 36
1.0
 17
0.0
 27
0.0
 37
0.0
 40
275.42274993631997
 41
1.831871345029239
 42
50.0
 43
0.0
 44
0.0
 50
0.0
 51
0.0
 71
     0
 72
   500
 73
     1
 74
     0
 75
     0
 76
     0
 77
     0
 78
     2
  0
ENDTAB
  0
TABLE
  2
LTYPE
 70
     4
  0
LTYPE
  2
CONTINUOUS
 70
     0
  3
Solid Line
 72
    65
 73
     0
 40
0.0
  0
LTYPE
  2
CENTER
 70
     0
  3
____ _ ____ _ ____ _ ____ _ ____ _ ____ _ ____
 72
    65
 73
     4
 40
2.0
 49
1.25
 49
-0.25
 49
0.25
 49
-0.25
  0
LTYPE
  2
HIDDEN
 70
     0
  3
_ _ _ _ _ _ _ _ _ _ _ _ _ _ _ _ _ _ _ _ _ _ _
 72
    65
 73
     2
 40
0.375
 49
0.25
 49
-0.125
  0
LTYPE
  2
PHANTOM2
 70
     0
  3
___ _ _ ___ _ _ ___ _ _ ___ _ _
 72
    65
 73
     6
 40
1.25
 49
0.625
 49
-0.125
 49
0.125
 49
-0.125
 49
0.125
 49
-0.125
  0
ENDTAB
  0
TABLE
  2
LAYER
 70
     5
  0
LAYER
  2
0
 70
     0
 62
     7
  6
CONTINUOUS
  0
LAYER
  2
1
 70
     0
 62
     1
  6
CENTER
  0
LAYER
  2
2
 70
     0
 62
     2
  6
HIDDEN
  0
LAYER
  2
3
 70
     0
 62
     3
  6
CONTINUOUS
  0
LAYER
  2
DEFPOINTS
 70
     0
 62
     7
  6
CONTINUOUS
  0
ENDTAB
  0
TABLE
  2
STYLE
 70
     2
  0
STYLE
  2
STANDARD
 70
     0
 40
0.0
 41
1.0
 50
0.0
 71
     0
 42
0.2
  3
TXT
  4
BIGFONT
  0
STYLE
  2
STANDARD1
 70
     0
 40
0.0
 41
1.0
 50
0.0
 71
     0
 42
3.0
  3
txt
  4

  0
ENDTAB
  0
TABLE
  2
VIEW
 70
     1
  0
VIEW
  2
ALL
 70
     0
 40
270.0
 10
220.99159663865549
 20
135.0
 41
0.0
 11
0.0
 21
0.0
 31
1.0
 12
0.0
 22
0.0
 32
0.0
 42
0.0
 43
0.0
 44
0.0
 50
0.0
 71
     0
  0
ENDTAB
  0
TABLE
  2
UCS
 70
     0
  0
ENDTAB
  0
TABLE
  2
APPID
 70
     3
  0
APPID
  2
ACAD
 70
     0
  0
APPID
  2
ACAD_MLEADERVER
 70
     0
  0
APPID
  2
ACAD_NAV_VCDISPLAY
 70
     0
  0
ENDTAB
  0
TABLE
  2
DIMSTYLE
 70
     1
  0
DIMSTYLE
  2
STANDARD
 70
     0
  3

  4

  5

  6

  7

 40
1.0
 41
0.18
 42
0.0625
 43
0.38
 44
0.18
 45
0.0
 46
0.0
 47
0.0
 48
0.0
140
0.18
141
0.09
142
0.0
143
25.399999999999999
144
1.0
145
0.0
146
1.0
147
0.09
 71
     0
 72
     0
 73
     1
 74
     1
 75
     0
 76
     0
 77
     0
 78
     0
170
     0
171
     2
172
     0
173
     0
174
     0
175
     0
176
     0
177
     0
178
     0
  0
ENDTAB
  0
ENDSEC
  0
SECTION
  2
BLOCKS
  0
BLOCK
  8
0
  2
$MODEL_SPACE
 70
     0
 10
0.0
 20
0.0
 30
0.0
  3
$MODEL_SPACE
  1

  0
ENDBLK
  5
159
  8
0
  0
BLOCK
 67
     1
  8
0
  2
$PAPER_SPACE
 70
     0
 10
0.0
 20
0.0
 30
0.0
  3
$PAPER_SPACE
  1

  0
ENDBLK
  5
157
 67
     1
  8
0
  0
ENDSEC
  0
SECTION
  2
ENTITIES
  0
CIRCLE
  5
129A
  8
0
 10
51.548386981980428
 20
218.09960024592769
 30
0.0
 40
14.520508075688751
  0
CIRCLE
  5
129B
  8
0
 10
51.548386981980428
 20
218.09960024592769
 30
0.0
 40
11.24999999999998
  0
CIRCLE
  5
129C
  8
0
 10
51.548386981980428
 20
218.09960024592769
 30
0.0
 40
8.7499999999999858
  0
CIRCLE
  5
12A3
  8
3
 10
51.548386981980428
 20
218.09960024592769
 30
0.0
 40
9.9999997764825821
  0
LINE
  5
12A6
  8
0
 10
66.068895057669152
 20
58.871217371218158
 30
0.0
 11
68.868895057669164
 21
60.487798124949052
 31
0.0
  0
LINE
  5
12A7
  8
0
 10
68.868895057669192
 20
157.25463661748719
 30
0.0
 11
66.068895057669181
 21
158.87121737121811
 31
0.0
  0
LINE
  5
12A8
  8
0
 10
41.548386981980428
 20
31.371217371218219
 30
0.0
 11
44.048386981980428
 21
28.871217371218219
 31
0.0
  0
LINE
  5
12A9
  8
0
 10
59.048386981980372
 20
28.871217371218162
 30
0.0
 11
61.548386981980372
 21
31.371217371218162
 31
0.0
  0
LINE
  5
12AA
  8
0
 10
61.548386981980372
 20
31.371217371218162
 30
0.0
 11
61.548386981980372
 21
53.871217371218158
 31
0.0
  0
LINE
  5
12AB
  8
0
 10
41.548386981980428
 20
53.871217371218222
 30
0.0
 11
41.548386981980428
 21
31.371217371218219
 31
0.0
  0
ARC
  5
12AC
  8
0
 10
42.24838698198041
 20
54.671217371218127
 30
0.0
 40
0.8000000000000113
 50
270.0
 51
0.0
  0
ARC
  5
12AD
  8
0
 10
60.848386981980411
 20
54.671217371218127
 30
0.0
 40
0.8000000000000113
 50
180.00000000000099
 51
270.0
  0
ARC
  5
12AE
  8
0
 10
42.24838698198041
 20
58.071217371218111
 30
0.0
 40
0.8000000000000113
 50
0.0
 51
90.0
  0
ARC
  5
12AF
  8
0
 10
60.848386981980411
 20
58.071217371218111
 30
0.0
 40
0.8000000000000113
 50
90.0
 51
180.00000000000099
  0
LINE
  5
12B0
  8
0
 10
60.0483869819804
 20
54.67121737121812
 30
0.0
 11
60.0483869819804
 21
58.071217371218097
 31
0.0
  0
LINE
  5
12B1
  8
0
 10
43.048386981980393
 20
58.071217371218147
 30
0.0
 11
43.048386981980393
 21
54.671217371218177
 31
0.0
  0
LINE
  5
12B4
  8
0
 10
34.227878906291551
 20
60.487798124949222
 30
0.0
 11
37.027878906291647
 21
58.871217371218222
 31
0.0
  0
LINE
  5
12B5
  8
0
 10
37.027878906291512
 20
58.871217371218279
 30
0.0
 11
66.068895057669152
 21
58.871217371218158
 31
0.0
  0
LINE
  5
12B7
  8
0
 10
60.208641019824817
 20
157.25463661748731
 30
0.0
 11
60.208641019824768
 21
60.487798124949109
 31
0.0
  0
LINE
  5
12BB
  8
0
 10
68.868895057669192
 20
157.25463661748719
 30
0.0
 11
68.868895057669164
 21
60.487798124949052
 31
0.0
  0
LINE
  5
12BC
  8
0
 10
37.027878906291562
 20
158.87121737121811
 30
0.0
 11
66.068895057669181
 21
158.87121737121811
 31
0.0
  0
LINE
  5
12BD
  8
0
 10
37.027878906291683
 20
158.87121737121811
 30
0.0
 11
34.227878906291579
 21
157.25463661748719
 31
0.0
  0
LINE
  5
12BF
  8
2
 10
40.2983869819804
 20
158.87121737121811
 30
0.0
 11
42.798386981980428
 21
156.37121737121819
 31
0.0
  0
LINE
  5
12C0
  8
2
 10
60.298386981980428
 20
156.37121737121811
 30
0.0
 11
42.798386981980428
 21
156.37121737121819
 31
0.0
  0
LINE
  5
12C2
  8
0
 10
59.048386981980372
 20
28.871217371218162
 30
0.0
 11
44.0483869819804
 21
28.871217371218219
 31
0.0
  0
LINE
  5
12C3
  8
0
 10
61.548386981980372
 20
31.371217371218162
 30
0.0
 11
41.548386981980428
 21
31.371217371218219
 31
0.0
  0
LINE
  5
12C4
  8
0
 10
61.548386981980372
 20
53.871217371218158
 30
0.0
 11
41.548386981980428
 21
53.871217371218222
 31
0.0
  0
LINE
  5
12C6
  8
2
 10
60.298386981980279
 20
108.87121737121809
 30
0.0
 11
42.798386981980428
 21
108.87121737121819
 31
0.0
  0
LINE
  5
12C7
  8
2
 10
42.798386981980428
 20
108.87121737121819
 30
0.0
 11
51.5483869819804
 21
103.613686954727
 31
0.0
  0
LINE
  5
12C8
  8
2
 10
42.798386981980428
 20
156.37121737121819
 30
0.0
 11
42.798386981980428
 21
108.87121737121819
 31
0.0
  0
LINE
  5
12C9
  8
0
 10
34.227878906291579
 20
157.25463661748719
 30
0.0
 11
34.227878906291551
 21
60.487798124949222
 31
0.0
  0
LINE
  5
12CC
  8
0
 10
43.048386981980393
 20
54.671217371218177
 30
0.0
 11
60.0483869819804
 21
54.67121737121812
 31
0.0
  0
LINE
  5
12CE
  8
0
 10
60.048386981980372
 20
58.071217371218097
 30
0.0
 11
43.048386981980421
 21
58.071217371218317
 31
0.0
  0
LINE
  5
12E2
  8
3
 10
60.298387019233303
 20
30.12121684967752
 30
0.0
 11
60.298387019233303
 21
53.871217482976867
 31
0.0
  0
LINE
  5
12E3
  8
3
 10
42.798386944727497
 20
53.871217482976931
 30
0.0
 11
42.798386944727497
 21
30.12121684967758
 31
0.0
  0
LINE
  5
12E4
  8
2
 10
41.548387205497839
 20
157.62121558307879
 30
0.0
 11
41.548387205497818
 21
118.8712169241834
 31
0.0
  0
LINE
  5
12E7
  8
2
 10
41.548387205497818
 20
118.8712169241834
 30
0.0
 11
61.54838675846301
 21
118.8712169241832
 31
0.0
  0
LINE
  5
1303
  8
0
 10
143.9764052672424
 20
158.5943825796428
 30
0.0
 11
143.49691334293109
 21
158.87121737121811
 31
0.0
  0
LINE
  5
1304
  8
0
 10
114.4558971915536
 20
158.87121737121819
 30
0.0
 11
113.9764052672425
 21
158.59438257964291
 31
0.0
  0
LINE
  5
1305
  8
0
 10
113.9764052672423
 20
59.148052162793533
 30
0.0
 11
114.4558971915535
 21
58.871217371218158
 31
0.0
  0
LINE
  5
1306
  8
0
 10
143.49691334293101
 20
58.871217371218052
 30
0.0
 11
143.97640526724231
 21
59.148052162793469
 31
0.0
  0
LINE
  5
1307
  8
0
 10
138.97640526724209
 20
31.371217371218108
 30
0.0
 11
138.9764052672422
 21
53.871217371218108
 31
0.0
  0
LINE
  5
1308
  8
0
 10
118.9764052672422
 20
53.871217371218158
 30
0.0
 11
118.9764052672422
 21
31.371217371218162
 31
0.0
  0
LINE
  5
1309
  8
0
 10
118.9764052672422
 20
31.371217371218162
 30
0.0
 11
121.4764052672421
 21
28.871217371218162
 31
0.0
  0
LINE
  5
130A
  8
0
 10
136.4764052672422
 20
28.871217371218108
 30
0.0
 11
138.97640526724209
 21
31.371217371218108
 31
0.0
  0
ARC
  5
130B
  8
0
 10
119.6764052672422
 20
58.071217371218147
 30
0.0
 40
0.8000000000000113
 50
0.0
 51
89.999999999997968
  0
ARC
  5
130C
  8
0
 10
138.27640526724221
 20
58.071217371218097
 30
0.0
 40
0.8000000000000113
 50
90.0
 51
180.00000000000099
  0
ARC
  5
130D
  8
0
 10
119.6764052672422
 20
54.671217371218177
 30
0.0
 40
0.799999999999983
 50
270.0
 51
0.0
  0
ARC
  5
130E
  8
0
 10
138.27640526724221
 20
54.67121737121812
 30
0.0
 40
0.8000000000000113
 50
179.99999999999841
 51
270.0
  0
LINE
  5
130F
  8
0
 10
137.4764052672422
 20
54.67121737121812
 30
0.0
 11
137.47640526724231
 21
58.071217371218097
 31
0.0
  0
LINE
  5
1310
  8
0
 10
120.4764052672423
 20
58.071217371218147
 30
0.0
 11
120.4764052672422
 21
54.671217371218177
 31
0.0
  0
LINE
  5
1315
  8
0
 10
114.4558971915536
 20
158.87121737121819
 30
0.0
 11
143.49691334293109
 21
158.87121737121811
 31
0.0
  0
LINE
  5
131A
  8
0
 10
114.4558971915535
 20
58.871217371218158
 30
0.0
 11
143.49691334293101
 21
58.871217371218052
 31
0.0
  0
LINE
  5
131B
  8
0
 10
128.9764052672424
 20
157.25463661748719
 30
0.0
 11
128.97640526724209
 21
60.487798124949052
 31
0.0
  0
LINE
  5
131C
  8
0
 10
143.9764052672424
 20
158.5943825796428
 30
0.0
 11
143.97640526724231
 21
59.148052162793441
 31
0.0
  0
LINE
  5
131D
  8
0
 10
113.9764052672424
 20
158.5943825796428
 30
0.0
 11
113.9764052672422
 21
59.148052162793562
 31
0.0
  0
LINE
  5
131E
  8
0
 10
138.9764052672422
 20
31.371217371218162
 30
0.0
 11
118.9764052672422
 21
31.371217371218162
 31
0.0
  0
LINE
  5
1320
  8
0
 10
138.9764052672422
 20
53.871217371218158
 30
0.0
 11
118.9764052672422
 21
53.871217371218158
 31
0.0
  0
LINE
  5
1322
  8
0
 10
136.47640526724231
 20
28.871217371218162
 30
0.0
 11
121.4764052672421
 21
28.871217371218162
 31
0.0
  0
LINE
  5
1324
  8
0
 10
137.47640526724231
 20
58.071217371218097
 30
0.0
 11
120.4764052672423
 21
58.071217371218147
 31
0.0
  0
LINE
  5
1325
  8
0
 10
120.4764052672422
 20
54.671217371218177
 30
0.0
 11
137.4764052672422
 21
54.67121737121812
 31
0.0
  0
LINE
  5
1326
  8
3
 10
137.72640530449499
 20
30.12121684967747
 30
0.0
 11
137.72640530449499
 21
53.871217482976817
 31
0.0
  0
LINE
  5
1327
  8
3
 10
120.2264052299892
 20
53.871217482976867
 30
0.0
 11
120.2264052299892
 21
30.12121684967752
 31
0.0
  0
LINE
  5
1430
  8
2
 10
60.298386981980428
 20
108.87121737121819
 30
0.0
 11
51.54838698198045
 21
103.613686954727
 31
0.0
  0
LINE
  5
1431
  8
2
 10
60.298386981980428
 20
156.37121737121819
 30
0.0
 11
60.298386981980428
 21
108.87121737121819
 31
0.0
  0
LINE
  5
1432
  8
2
 10
61.54838675846301
 20
157.62121558307879
 30
0.0
 11
61.548386758463039
 21
118.8712169241834
 31
0.0
  0
LINE
  5
1433
  8
2
 10
62.79838698198045
 20
158.87121737121811
 30
0.0
 11
60.298386981980428
 21
156.37121737121819
 31
0.0
  0
LINE
  5
1434
  8
0
 10
42.895930277400417
 20
233.11310562330519
 30
0.0
 11
60.208641019826871
 21
233.09960024592411
 31
0.0
  0
LINE
  5
1435
  8
0
 10
60.208641019826871
 20
233.09960024592411
 30
0.0
 11
68.868895057669221
 21
218.0996002459278
 31
0.0
  0
LINE
  5
1436
  8
0
 10
68.868895057669221
 20
218.0996002459278
 30
0.0
 11
60.208641019824789
 21
203.09960024592769
 31
0.0
  0
LINE
  5
1437
  8
0
 10
60.208641019824789
 20
203.09960024592769
 30
0.0
 11
42.888132944136061
 21
203.09960024592769
 31
0.0
  0
LINE
  5
1438
  8
0
 10
42.888132944136061
 20
203.09960024592769
 30
0.0
 11
34.227878906291643
 21
218.09960024592769
 31
0.0
  0
LINE
  5
1439
  8
0
 10
34.227878906291643
 20
218.09960024592769
 30
0.0
 11
42.888132944135968
 21
233.09960024592769
 31
0.0
  0
LINE
  5
143B
  8
0
 10
42.888132944136089
 20
157.25463661748731
 30
0.0
 11
42.888132944136139
 21
60.487798124949109
 31
0.0
  0
POLYLINE
  5
143C
  8
0
 66
     1
 10
0.0
 20
0.0
 30
0.0
 70
     2
  0
VERTEX
  5
143E
  8
0
 10
42.888132944136089
 20
157.25463661748731
 30
0.0
 42
-0.0383898054359415
  0
VERTEX
  5
1443
  8
0
 10
47.166751464188224
 20
158.25746576930391
 30
0.0
 42
-0.0383898054359424
 70
     1
  0
VERTEX
  5
143F
  8
0
 10
51.548386981980428
 20
158.59438257964291
 30
0.0
 42
-0.0383898054359413
  0
VERTEX
  5
1442
  8
0
 10
55.93002249977269
 20
158.2574657693041
 30
0.0
 42
-0.0383898054359408
 70
     1
  0
VERTEX
  5
1440
  8
0
 10
60.208641019824789
 20
157.25463661748751
 30
0.0
  0
SEQEND
  5
1441
  8
0
  0
POLYLINE
  5
143D
  8
0
 66
     1
 10
0.0
 20
0.0
 30
0.0
 70
     2
  0
VERTEX
  5
1444
  8
0
 10
60.208641019826807
 20
157.25463661748719
 30
0.0
 42
-0.0047415912347261
  0
VERTEX
  5
1459
  8
0
 10
60.492478963231747
 20
157.4155049833102
 30
0.0
 42
-0.0082176849656446
 70
     1
  0
VERTEX
  5
1445
  8
0
 10
60.658610957149023
 20
157.50405435167741
 30
0.0
 42
-0.0002236372038231
  0
VERTEX
  5
145A
  8
0
 10
60.996909835671993
 20
157.67710064489199
 30
0.0
 42
-0.0039641761786681
 70
     1
  0
VERTEX
  5
1446
  8
0
 10
61.016076208774763
 20
157.68670293516371
 30
0.0
 42
-0.0047589371259185
  0
VERTEX
  5
145B
  8
0
 10
61.189993410645123
 20
157.770071644105
 30
0.0
 42
-0.0037244268478873
 70
     1
  0
VERTEX
  5
1447
  8
0
 10
61.413991824426802
 20
157.87281068564491
 30
0.0
 42
-0.0055358774124965
  0
VERTEX
  5
145C
  8
0
 10
61.517384370920382
 20
157.9179342318894
 30
0.0
 42
-0.0024641844825721
 70
     1
  0
VERTEX
  5
1448
  8
0
 10
61.751245775532588
 20
158.01557425480499
 30
0.0
 42
-0.0130949652589156
  0
VERTEX
  5
145D
  8
0
 10
62.105752372773622
 20
158.1507931812715
 30
0.0
 42
-0.0113200935171757
 70
     1
  0
VERTEX
  5
1449
  8
0
 10
62.522969623771928
 20
158.2870049339096
 30
0.0
 42
-0.0107233582240661
  0
VERTEX
  5
145E
  8
0
 10
62.839722023407717
 20
158.3751743003443
 30
0.0
 42
-0.0112796464522112
 70
     1
  0
VERTEX
  5
144A
  8
0
 10
63.144252380268853
 20
158.4456683071528
 30
0.0
 42
-0.0075302415168407
  0
VERTEX
  5
145F
  8
0
 10
63.395460365385468
 20
158.49394389653111
 30
0.0
 42
-0.0088865758841721
 70
     1
  0
VERTEX
  5
144B
  8
0
 10
63.60956005523542
 20
158.52784224484139
 30
0.0
 42
-0.0110835566997873
  0
VERTEX
  5
1460
  8
0
 10
63.919696276775433
 20
158.5643221418994
 30
0.0
 42
-0.0110840693227796
 70
     1
  0
VERTEX
  5
144C
  8
0
 10
64.23113011801496
 20
158.5870202445098
 30
0.0
 42
-0.0066654924018162
  0
VERTEX
  5
1461
  8
0
 10
64.35999224256841
 20
158.59182334477151
 30
0.0
 42
-0.0048066087548746
 70
     1
  0
VERTEX
  5
144D
  8
0
 10
64.538791817170335
 20
158.59438249820329
 30
0.0
 42
-0.0195785155579266
  0
VERTEX
  5
1462
  8
0
 10
65.028303440777222
 20
158.57751059124121
 30
0.0
 42
-0.0201843550533407
 70
     1
  0
VERTEX
  5
144E
  8
0
 10
65.500333384668949
 20
158.52347994307041
 30
0.0
 42
-0.002883175749303
  0
VERTEX
  5
1463
  8
0
 10
65.69514598293074
 20
158.49202160182051
 30
0.0
 42
-0.0069194712885975
 70
     1
  0
VERTEX
  5
144F
  8
0
 10
65.776050300838762
 20
158.47732429928919
 30
0.0
 42
-0.0050926732040776
  0
VERTEX
  5
1464
  8
0
 10
66.008961296607708
 20
158.4292064774605
 30
0.0
 42
-0.0070905127613064
 70
     1
  0
VERTEX
  5
1450
  8
0
 10
66.175359127601638
 20
158.39058008332071
 30
0.0
 42
-0.0045116527120288
  0
VERTEX
  5
1465
  8
0
 10
66.321144820210179
 20
158.35315338741461
 30
0.0
 42
-0.0047404936297087
 70
     1
  0
VERTEX
  5
1451
  8
0
 10
66.459210364678796
 20
158.31497216150271
 30
0.0
 42
-0.0058917899791405
  0
VERTEX
  5
1466
  8
0
 10
66.641633453623513
 20
158.26032300407661
 30
0.0
 42
-0.0054863847558822
 70
     1
  0
VERTEX
  5
1452
  8
0
 10
66.836149326790945
 20
158.197193543195
 30
0.0
 42
-0.0052386510194215
  0
VERTEX
  5
1467
  8
0
 10
66.994381288687805
 20
158.14206146683901
 30
0.0
 42
-0.0047411984934696
 70
     1
  0
VERTEX
  5
1453
  8
0
 10
67.167963675452256
 20
158.07766794650061
 30
0.0
 42
-0.0066270728309029
  0
VERTEX
  5
1468
  8
0
 10
67.416020796118687
 20
157.97917493558711
 30
0.0
 42
-0.0069564227147977
 70
     1
  0
VERTEX
  5
1454
  8
0
 10
67.649698847593243
 20
157.87896019988841
 30
0.0
 42
-0.0031885640288672
  0
VERTEX
  5
1469
  8
0
 10
67.815263000627169
 20
157.8039441160839
 30
0.0
 42
-0.0036816205763781
 70
     1
  0
VERTEX
  5
1455
  8
0
 10
67.957748448034835
 20
157.73701019820939
 30
0.0
 42
-0.0043235450348126
  0
VERTEX
  5
146B
  8
0
 10
67.974796093923146
 20
157.72866618083151
 30
0.0
 42
-0.0002061345467186
 70
     1
  0
VERTEX
  5
1456
  8
0
 10
68.330753191897827
 20
157.55042683047651
 30
0.0
 42
-0.0094826280569789
  0
VERTEX
  5
146A
  8
0
 10
68.536443582887046
 20
157.4423964629699
 30
0.0
 42
-0.0057699403395936
 70
     1
  0
VERTEX
  5
1457
  8
0
 10
68.868895057669192
 20
157.25463661748719
 30
0.0
  0
SEQEND
  5
1458
  8
0
  0
POLYLINE
  5
146C
  8
0
 66
     1
 10
0.0
 20
0.0
 30
0.0
 70
     2
  0
VERTEX
  5
146D
  8
0
 10
42.888132944134043
 20
157.25463661748719
 30
0.0
 42
0.0047415912347261
  0
VERTEX
  5
146E
  8
0
 10
42.60429500072911
 20
157.4155049833102
 30
0.0
 42
0.0082176849656446
 70
     1
  0
VERTEX
  5
146F
  8
0
 10
42.438163006811827
 20
157.50405435167741
 30
0.0
 42
0.0002236372038231
  0
VERTEX
  5
1470
  8
0
 10
42.09986412828885
 20
157.67710064489199
 30
0.0
 42
0.0039641761786681
 70
     1
  0
VERTEX
  5
1471
  8
0
 10
42.080697755186087
 20
157.68670293516371
 30
0.0
 42
0.0047589371259185
  0
VERTEX
  5
1472
  8
0
 10
41.906780553315741
 20
157.770071644105
 30
0.0
 42
0.0037244268478873
 70
     1
  0
VERTEX
  5
1473
  8
0
 10
41.682782139534062
 20
157.87281068564491
 30
0.0
 42
0.0055358774124965
  0
VERTEX
  5
1474
  8
0
 10
41.579389593040467
 20
157.9179342318894
 30
0.0
 42
0.0024641844825721
 70
     1
  0
VERTEX
  5
1475
  8
0
 10
41.345528188428261
 20
158.01557425480499
 30
0.0
 42
0.0130949652589156
  0
VERTEX
  5
1476
  8
0
 10
40.991021591187227
 20
158.1507931812715
 30
0.0
 42
0.0113200935171757
 70
     1
  0
VERTEX
  5
1477
  8
0
 10
40.573804340188929
 20
158.2870049339096
 30
0.0
 42
0.0107233582240661
  0
VERTEX
  5
1478
  8
0
 10
40.25705194055314
 20
158.3751743003443
 30
0.0
 42
0.0112796464522112
 70
     1
  0
VERTEX
  5
1479
  8
0
 10
39.952521583692011
 20
158.4456683071528
 30
0.0
 42
0.0075302415168407
  0
VERTEX
  5
147A
  8
0
 10
39.701313598575382
 20
158.49394389653111
 30
0.0
 42
0.0088865758841721
 70
     1
  0
VERTEX
  5
147B
  8
0
 10
39.487213908725437
 20
158.52784224484139
 30
0.0
 42
0.0110835566997873
  0
VERTEX
  5
147C
  8
0
 10
39.177077687185431
 20
158.5643221418994
 30
0.0
 42
0.0110840693227796
 70
     1
  0
VERTEX
  5
147D
  8
0
 10
38.865643845945897
 20
158.5870202445098
 30
0.0
 42
0.0066654924018162
  0
VERTEX
  5
147E
  8
0
 10
38.736781721392447
 20
158.59182334477151
 30
0.0
 42
0.0048066087548746
 70
     1
  0
VERTEX
  5
147F
  8
0
 10
38.557982146790522
 20
158.59438249820329
 30
0.0
 42
0.0195785155579266
  0
VERTEX
  5
1480
  8
0
 10
38.068470523183642
 20
158.57751059124121
 30
0.0
 42
0.0201843550533407
 70
     1
  0
VERTEX
  5
1481
  8
0
 10
37.596440579291908
 20
158.52347994307041
 30
0.0
 42
0.002883175749303
  0
VERTEX
  5
1482
  8
0
 10
37.401627981030117
 20
158.49202160182051
 30
0.0
 42
0.0069194712885975
 70
     1
  0
VERTEX
  5
1483
  8
0
 10
37.320723663122088
 20
158.47732429928919
 30
0.0
 42
0.0050926732040776
  0
VERTEX
  5
1484
  8
0
 10
37.087812667353148
 20
158.4292064774605
 30
0.0
 42
0.0070905127613064
 70
     1
  0
VERTEX
  5
1485
  8
0
 10
36.921414836359219
 20
158.39058008332071
 30
0.0
 42
0.0045116527120288
  0
VERTEX
  5
1486
  8
0
 10
36.775629143750677
 20
158.35315338741461
 30
0.0
 42
0.0047404936297087
 70
     1
  0
VERTEX
  5
1487
  8
0
 10
36.637563599282061
 20
158.31497216150271
 30
0.0
 42
0.0058917899791405
  0
VERTEX
  5
1488
  8
0
 10
36.455140510337337
 20
158.26032300407661
 30
0.0
 42
0.0054863847558822
 70
     1
  0
VERTEX
  5
1489
  8
0
 10
36.260624637169911
 20
158.197193543195
 30
0.0
 42
0.0052386510194215
  0
VERTEX
  5
148A
  8
0
 10
36.102392675273052
 20
158.14206146683901
 30
0.0
 42
0.0047411984934696
 70
     1
  0
VERTEX
  5
148B
  8
0
 10
35.9288102885086
 20
158.07766794650061
 30
0.0
 42
0.0066270728309029
  0
VERTEX
  5
148C
  8
0
 10
35.68075316784217
 20
157.97917493558711
 30
0.0
 42
0.0069564227147977
 70
     1
  0
VERTEX
  5
148D
  8
0
 10
35.447075116367621
 20
157.87896019988841
 30
0.0
 42
0.0031885640288672
  0
VERTEX
  5
148E
  8
0
 10
35.281510963333687
 20
157.8039441160839
 30
0.0
 42
0.0036816205763781
 70
     1
  0
VERTEX
  5
148F
  8
0
 10
35.139025515926029
 20
157.73701019820939
 30
0.0
 42
0.0043235450348126
  0
VERTEX
  5
1490
  8
0
 10
35.121977870037711
 20
157.72866618083151
 30
0.0
 42
0.0002061345467186
 70
     1
  0
VERTEX
  5
1491
  8
0
 10
34.76602077206303
 20
157.55042683047651
 30
0.0
 42
0.0094826280569789
  0
VERTEX
  5
1492
  8
0
 10
34.560330381073811
 20
157.4423964629699
 30
0.0
 42
0.0057699403395936
 70
     1
  0
VERTEX
  5
1493
  8
0
 10
34.227878906291657
 20
157.25463661748719
 30
0.0
  0
SEQEND
  5
1494
  8
0
  0
POLYLINE
  5
1495
  8
0
 66
     1
 10
0.0
 20
0.0
 30
0.0
 70
     2
  0
VERTEX
  5
1496
  8
0
 10
42.888132944134043
 20
60.487798124949052
 30
0.0
 42
-0.0047415912347261
  0
VERTEX
  5
1497
  8
0
 10
42.60429500072911
 20
60.326929759126067
 30
0.0
 42
-0.0082176849656446
 70
     1
  0
VERTEX
  5
1498
  8
0
 10
42.438163006811827
 20
60.238380390758799
 30
0.0
 42
-0.0002236372038231
  0
VERTEX
  5
1499
  8
0
 10
42.09986412828885
 20
60.06533409754428
 30
0.0
 42
-0.0039641761786681
 70
     1
  0
VERTEX
  5
149A
  8
0
 10
42.080697755186087
 20
60.055731807272593
 30
0.0
 42
-0.0047589371259185
  0
VERTEX
  5
149B
  8
0
 10
41.906780553315741
 20
59.972363098331243
 30
0.0
 42
-0.0037244268478873
 70
     1
  0
VERTEX
  5
149C
  8
0
 10
41.682782139534062
 20
59.869624056791352
 30
0.0
 42
-0.0055358774124965
  0
VERTEX
  5
149D
  8
0
 10
41.579389593040467
 20
59.824500510546912
 30
0.0
 42
-0.0024641844825721
 70
     1
  0
VERTEX
  5
149E
  8
0
 10
41.345528188428261
 20
59.726860487631221
 30
0.0
 42
-0.0130949652589156
  0
VERTEX
  5
149F
  8
0
 10
40.991021591187227
 20
59.591641561164749
 30
0.0
 42
-0.0113200935171757
 70
     1
  0
VERTEX
  5
14A0
  8
0
 10
40.573804340188929
 20
59.455429808526659
 30
0.0
 42
-0.0107233582240661
  0
VERTEX
  5
14A1
  8
0
 10
40.25705194055314
 20
59.36726044209194
 30
0.0
 42
-0.0112796464522112
 70
     1
  0
VERTEX
  5
14A2
  8
0
 10
39.952521583692011
 20
59.29676643528343
 30
0.0
 42
-0.0075302415168407
  0
VERTEX
  5
14A3
  8
0
 10
39.701313598575382
 20
59.24849084590516
 30
0.0
 42
-0.0088865758841721
 70
     1
  0
VERTEX
  5
14A4
  8
0
 10
39.487213908725437
 20
59.2145924975949
 30
0.0
 42
-0.0110835566997873
  0
VERTEX
  5
14A5
  8
0
 10
39.177077687185431
 20
59.178112600536878
 30
0.0
 42
-0.0110840693227796
 70
     1
  0
VERTEX
  5
14A6
  8
0
 10
38.865643845945897
 20
59.155414497926451
 30
0.0
 42
-0.0066654924018162
  0
VERTEX
  5
14A7
  8
0
 10
38.736781721392447
 20
59.150611397664697
 30
0.0
 42
-0.0048066087548746
 70
     1
  0
VERTEX
  5
14A8
  8
0
 10
38.557982146790522
 20
59.1480522442329
 30
0.0
 42
-0.0195785155579266
  0
VERTEX
  5
14A9
  8
0
 10
38.068470523183642
 20
59.164924151195031
 30
0.0
 42
-0.0201843550533407
 70
     1
  0
VERTEX
  5
14AA
  8
0
 10
37.596440579291908
 20
59.218954799365832
 30
0.0
 42
-0.002883175749303
  0
VERTEX
  5
14AB
  8
0
 10
37.401627981030117
 20
59.250413140615763
 30
0.0
 42
-0.0069194712885975
 70
     1
  0
VERTEX
  5
14AC
  8
0
 10
37.320723663122088
 20
59.265110443147051
 30
0.0
 42
-0.0050926732040776
  0
VERTEX
  5
14AD
  8
0
 10
37.087812667353148
 20
59.313228264975749
 30
0.0
 42
-0.0070905127613064
 70
     1
  0
VERTEX
  5
14AE
  8
0
 10
36.921414836359219
 20
59.351854659115553
 30
0.0
 42
-0.0045116527120288
  0
VERTEX
  5
14AF
  8
0
 10
36.775629143750677
 20
59.38928135502163
 30
0.0
 42
-0.0047404936297087
 70
     1
  0
VERTEX
  5
14B0
  8
0
 10
36.637563599282061
 20
59.427462580933522
 30
0.0
 42
-0.0058917899791405
  0
VERTEX
  5
14B1
  8
0
 10
36.455140510337337
 20
59.482111738359613
 30
0.0
 42
-0.0054863847558822
 70
     1
  0
VERTEX
  5
14B2
  8
0
 10
36.260624637169911
 20
59.545241199241232
 30
0.0
 42
-0.0052386510194215
  0
VERTEX
  5
14B3
  8
0
 10
36.102392675273052
 20
59.600373275597292
 30
0.0
 42
-0.0047411984934696
 70
     1
  0
VERTEX
  5
14B4
  8
0
 10
35.9288102885086
 20
59.664766795935613
 30
0.0
 42
-0.0066270728309029
  0
VERTEX
  5
14B5
  8
0
 10
35.68075316784217
 20
59.763259806849128
 30
0.0
 42
-0.0069564227147977
 70
     1
  0
VERTEX
  5
14B6
  8
0
 10
35.447075116367621
 20
59.863474542547792
 30
0.0
 42
-0.0031885640288672
  0
VERTEX
  5
14B7
  8
0
 10
35.281510963333687
 20
59.93849062635234
 30
0.0
 42
-0.0036816205763781
 70
     1
  0
VERTEX
  5
14B8
  8
0
 10
35.139025515926029
 20
60.00542454422682
 30
0.0
 42
-0.0043235450348126
  0
VERTEX
  5
14B9
  8
0
 10
35.121977870037711
 20
60.013768561604763
 30
0.0
 42
-0.0002061345467186
 70
     1
  0
VERTEX
  5
14BA
  8
0
 10
34.76602077206303
 20
60.192007911959763
 30
0.0
 42
-0.0094826280569789
  0
VERTEX
  5
14BB
  8
0
 10
34.560330381073811
 20
60.300038279466378
 30
0.0
 42
-0.0057699403395936
 70
     1
  0
VERTEX
  5
14BC
  8
0
 10
34.227878906291657
 20
60.487798124949052
 30
0.0
  0
SEQEND
  5
14BD
  8
0
  0
POLYLINE
  5
14BE
  8
0
 66
     1
 10
0.0
 20
0.0
 30
0.0
 70
     2
  0
VERTEX
  5
14BF
  8
0
 10
42.888132944136089
 20
60.487798124948988
 30
0.0
 42
0.0383898054359415
  0
VERTEX
  5
14C0
  8
0
 10
47.166751464188224
 20
59.484968973132332
 30
0.0
 42
0.0383898054359424
 70
     1
  0
VERTEX
  5
14C1
  8
0
 10
51.548386981980428
 20
59.148052162793391
 30
0.0
 42
0.0383898054359413
  0
VERTEX
  5
14C2
  8
0
 10
55.93002249977269
 20
59.484968973132212
 30
0.0
 42
0.0383898054359408
 70
     1
  0
VERTEX
  5
14C3
  8
0
 10
60.208641019824789
 20
60.487798124948739
 30
0.0
  0
SEQEND
  5
14C4
  8
0
  0
POLYLINE
  5
14C5
  8
0
 66
     1
 10
0.0
 20
0.0
 30
0.0
 70
     2
  0
VERTEX
  5
14C6
  8
0
 10
60.208641019826807
 20
60.487798124949052
 30
0.0
 42
0.0047415912347261
  0
VERTEX
  5
14C7
  8
0
 10
60.492478963231747
 20
60.326929759126067
 30
0.0
 42
0.0082176849656446
 70
     1
  0
VERTEX
  5
14C8
  8
0
 10
60.658610957149023
 20
60.238380390758799
 30
0.0
 42
0.0002236372038231
  0
VERTEX
  5
14C9
  8
0
 10
60.996909835671993
 20
60.06533409754428
 30
0.0
 42
0.0039641761786681
 70
     1
  0
VERTEX
  5
14CA
  8
0
 10
61.016076208774763
 20
60.055731807272593
 30
0.0
 42
0.0047589371259185
  0
VERTEX
  5
14CB
  8
0
 10
61.189993410645123
 20
59.972363098331243
 30
0.0
 42
0.0037244268478873
 70
     1
  0
VERTEX
  5
14CC
  8
0
 10
61.413991824426802
 20
59.869624056791352
 30
0.0
 42
0.0055358774124965
  0
VERTEX
  5
14CD
  8
0
 10
61.517384370920382
 20
59.824500510546912
 30
0.0
 42
0.0024641844825721
 70
     1
  0
VERTEX
  5
14CE
  8
0
 10
61.751245775532588
 20
59.726860487631221
 30
0.0
 42
0.0130949652589156
  0
VERTEX
  5
14CF
  8
0
 10
62.105752372773622
 20
59.591641561164749
 30
0.0
 42
0.0113200935171757
 70
     1
  0
VERTEX
  5
14D0
  8
0
 10
62.522969623771928
 20
59.455429808526659
 30
0.0
 42
0.0107233582240661
  0
VERTEX
  5
14D1
  8
0
 10
62.839722023407717
 20
59.36726044209194
 30
0.0
 42
0.0112796464522112
 70
     1
  0
VERTEX
  5
14D2
  8
0
 10
63.144252380268853
 20
59.29676643528343
 30
0.0
 42
0.0075302415168407
  0
VERTEX
  5
14D3
  8
0
 10
63.395460365385468
 20
59.24849084590516
 30
0.0
 42
0.0088865758841721
 70
     1
  0
VERTEX
  5
14D4
  8
0
 10
63.60956005523542
 20
59.2145924975949
 30
0.0
 42
0.0110835566997873
  0
VERTEX
  5
14D5
  8
0
 10
63.919696276775433
 20
59.178112600536878
 30
0.0
 42
0.0110840693227796
 70
     1
  0
VERTEX
  5
14D6
  8
0
 10
64.23113011801496
 20
59.155414497926451
 30
0.0
 42
0.0066654924018162
  0
VERTEX
  5
14D7
  8
0
 10
64.35999224256841
 20
59.150611397664697
 30
0.0
 42
0.0048066087548746
 70
     1
  0
VERTEX
  5
14D8
  8
0
 10
64.538791817170335
 20
59.1480522442329
 30
0.0
 42
0.0195785155579266
  0
VERTEX
  5
14D9
  8
0
 10
65.028303440777222
 20
59.164924151195031
 30
0.0
 42
0.0201843550533407
 70
     1
  0
VERTEX
  5
14DA
  8
0
 10
65.500333384668949
 20
59.218954799365832
 30
0.0
 42
0.002883175749303
  0
VERTEX
  5
14DB
  8
0
 10
65.69514598293074
 20
59.250413140615763
 30
0.0
 42
0.0069194712885975
 70
     1
  0
VERTEX
  5
14DC
  8
0
 10
65.776050300838762
 20
59.265110443147051
 30
0.0
 42
0.0050926732040776
  0
VERTEX
  5
14DD
  8
0
 10
66.008961296607708
 20
59.313228264975749
 30
0.0
 42
0.0070905127613064
 70
     1
  0
VERTEX
  5
14DE
  8
0
 10
66.175359127601638
 20
59.351854659115553
 30
0.0
 42
0.0045116527120288
  0
VERTEX
  5
14DF
  8
0
 10
66.321144820210179
 20
59.38928135502163
 30
0.0
 42
0.0047404936297087
 70
     1
  0
VERTEX
  5
14E0
  8
0
 10
66.459210364678796
 20
59.427462580933522
 30
0.0
 42
0.0058917899791405
  0
VERTEX
  5
14E1
  8
0
 10
66.641633453623513
 20
59.482111738359613
 30
0.0
 42
0.0054863847558822
 70
     1
  0
VERTEX
  5
14E2
  8
0
 10
66.836149326790945
 20
59.545241199241232
 30
0.0
 42
0.0052386510194215
  0
VERTEX
  5
14E3
  8
0
 10
66.994381288687805
 20
59.600373275597292
 30
0.0
 42
0.0047411984934696
 70
     1
  0
VERTEX
  5
14E4
  8
0
 10
67.167963675452256
 20
59.664766795935613
 30
0.0
 42
0.0066270728309029
  0
VERTEX
  5
14E5
  8
0
 10
67.416020796118687
 20
59.763259806849128
 30
0.0
 42
0.0069564227147977
 70
     1
  0
VERTEX
  5
14E6
  8
0
 10
67.649698847593243
 20
59.863474542547792
 30
0.0
 42
0.0031885640288672
  0
VERTEX
  5
14E7
  8
0
 10
67.815263000627169
 20
59.93849062635234
 30
0.0
 42
0.0036816205763781
 70
     1
  0
VERTEX
  5
14E8
  8
0
 10
67.957748448034835
 20
60.00542454422682
 30
0.0
 42
0.0043235450348126
  0
VERTEX
  5
14E9
  8
0
 10
67.974796093923146
 20
60.013768561604763
 30
0.0
 42
0.0002061345467186
 70
     1
  0
VERTEX
  5
14EA
  8
0
 10
68.330753191897827
 20
60.192007911959763
 30
0.0
 42
0.0094826280569789
  0
VERTEX
  5
14EB
  8
0
 10
68.536443582887046
 20
60.300038279466378
 30
0.0
 42
0.0057699403395936
 70
     1
  0
VERTEX
  5
14EC
  8
0
 10
68.868895057669192
 20
60.487798124949052
 30
0.0
  0
SEQEND
  5
14ED
  8
0
  0
POLYLINE
  5
14EE
  8
0
 66
     1
 10
0.0
 20
0.0
 30
0.0
 70
     2
  0
VERTEX
  5
14EF
  8
0
 10
113.9764052672421
 20
60.487798124948988
 30
0.0
 42
0.0442207920503742
  0
VERTEX
  5
14F4
  8
0
 10
117.6670378760132
 20
59.485620020004497
 30
0.0
 42
0.044220792050375
 70
     1
  0
VERTEX
  5
14F0
  8
0
 10
121.47639188994771
 20
59.148052243881828
 30
0.0
 42
0.0442209467342132
  0
VERTEX
  5
14F3
  8
0
 10
125.28575948963351
 20
59.485617667618278
 30
0.0
 42
0.0442209467342124
 70
     1
  0
VERTEX
  5
14F1
  8
0
 10
128.97640526724231
 20
60.487798124948888
 30
0.0
  0
SEQEND
  5
14F2
  8
0
  0
POLYLINE
  5
14F5
  8
0
 66
     1
 10
0.0
 20
0.0
 30
0.0
 70
     2
  0
VERTEX
  5
14F6
  8
0
 10
143.97640526724231
 20
60.487798124948988
 30
0.0
 42
-0.0442207920503742
  0
VERTEX
  5
14F7
  8
0
 10
140.2857726584713
 20
59.485620020004497
 30
0.0
 42
-0.044220792050375
 70
     1
  0
VERTEX
  5
14F8
  8
0
 10
136.47641864453669
 20
59.148052243881828
 30
0.0
 42
-0.0442209467342132
  0
VERTEX
  5
14F9
  8
0
 10
132.66705104485089
 20
59.485617667618278
 30
0.0
 42
-0.0442209467342124
 70
     1
  0
VERTEX
  5
14FA
  8
0
 10
128.97640526724209
 20
60.487798124948888
 30
0.0
  0
SEQEND
  5
14FB
  8
0
  0
POLYLINE
  5
14FC
  8
0
 66
     1
 10
0.0
 20
0.0
 30
0.0
 70
     2
  0
VERTEX
  5
14FD
  8
0
 10
143.97640526724231
 20
157.25463661748739
 30
0.0
 42
0.0442207920503742
  0
VERTEX
  5
14FE
  8
0
 10
140.2857726584713
 20
158.2568147224319
 30
0.0
 42
0.044220792050375
 70
     1
  0
VERTEX
  5
14FF
  8
0
 10
136.47641864453669
 20
158.59438249855449
 30
0.0
 42
0.0442209467342132
  0
VERTEX
  5
1500
  8
0
 10
132.66705104485089
 20
158.25681707481809
 30
0.0
 42
0.0442209467342124
 70
     1
  0
VERTEX
  5
1501
  8
0
 10
128.97640526724209
 20
157.25463661748751
 30
0.0
  0
SEQEND
  5
1502
  8
0
  0
POLYLINE
  5
1503
  8
0
 66
     1
 10
0.0
 20
0.0
 30
0.0
 70
     2
  0
VERTEX
  5
1504
  8
0
 10
113.9764052672421
 20
157.25463661748739
 30
0.0
 42
-0.0442207920503742
  0
VERTEX
  5
1505
  8
0
 10
117.6670378760132
 20
158.2568147224319
 30
0.0
 42
-0.044220792050375
 70
     1
  0
VERTEX
  5
1506
  8
0
 10
121.47639188994771
 20
158.59438249855449
 30
0.0
 42
-0.0442209467342132
  0
VERTEX
  5
1507
  8
0
 10
125.28575948963351
 20
158.25681707481809
 30
0.0
 42
-0.0442209467342124
 70
     1
  0
VERTEX
  5
1508
  8
0
 10
128.97640526724231
 20
157.25463661748751
 30
0.0
  0
SEQEND
  5
1509
  8
0
  0
LINE
  5
150A
  8
1
 10
51.548386981980372
 20
238.1063574972334
 30
0.0
 11
51.548386981980372
 21
198.09960024592769
 31
0.0
  0
LINE
  5
150B
  8
1
 10
73.868895057669107
 20
218.09960024592769
 30
0.0
 11
29.22787890629164
 21
218.09960024592769
 31
0.0
  0
LINE
  5
150C
  8
1
 10
128.9764052672424
 20
163.87121737121811
 30
0.0
 11
128.9764052672424
 21
23.871217371218179
 31
0.0
  0
LINE
  5
1517
  8
1
 10
51.548386981980372
 20
163.87121737121811
 30
0.0
 11
51.548386981980372
 21
23.871217371218179
 31
0.0
  0
LINE
  5
151E
  8
2
 10
140.22640526724251
 20
158.87121737121811
 30
0.0
 11
137.7264052672424
 21
156.37121737121819
 31
0.0
  0
LINE
  5
151F
  8
2
 10
138.97640504372501
 20
157.62121558307879
 30
0.0
 11
138.97640504372509
 21
118.8712169241834
 31
0.0
  0
LINE
  5
1520
  8
2
 10
137.7264052672424
 20
156.37121737121819
 30
0.0
 11
137.7264052672424
 21
108.87121737121819
 31
0.0
  0
LINE
  5
1521
  8
2
 10
137.7264052672424
 20
108.87121737121819
 30
0.0
 11
128.97640526724251
 21
103.613686954727
 31
0.0
  0
LINE
  5
1522
  8
2
 10
118.9764054907598
 20
118.8712169241834
 30
0.0
 11
138.97640504372501
 21
118.8712169241832
 31
0.0
  0
LINE
  5
1523
  8
2
 10
118.9764054907598
 20
157.62121558307879
 30
0.0
 11
118.9764054907598
 21
118.8712169241834
 31
0.0
  0
LINE
  5
1524
  8
2
 10
120.2264052672424
 20
156.37121737121819
 30
0.0
 11
120.2264052672424
 21
108.87121737121819
 31
0.0
  0
LINE
  5
1525
  8
2
 10
120.2264052672424
 20
108.87121737121819
 30
0.0
 11
128.9764052672424
 21
103.613686954727
 31
0.0
  0
LINE
  5
1526
  8
2
 10
137.72640526724231
 20
108.87121737121809
 30
0.0
 11
120.2264052672424
 21
108.87121737121819
 31
0.0
  0
LINE
  5
1527
  8
2
 10
137.7264052672424
 20
156.37121737121811
 30
0.0
 11
120.2264052672424
 21
156.37121737121819
 31
0.0
  0
LINE
  5
1528
  8
2
 10
117.7264052672424
 20
158.87121737121811
 30
0.0
 11
120.2264052672424
 21
156.37121737121819
 31
0.0
  0
TEXT
  5
16E2
  8
0
 62
     3
 10
0.0
 20
0.0
 30
0.0
 40
10.0
  1
BJ610-20100
  7
STANDARD1
  0
ENDSEC
  0
EOF
