  0
SECTION
  2
HEADER
  9
$ACADVER
  1
AC1009
  9
$INSBASE
 10
0.0
 20
0.0
 30
0.0
  9
$EXTMIN
 10
0.0
 20
-1.4802182810368341
 30
0.0
  9
$EXTMAX
 10
131.55880842450119
 20
122.5000000000002
 30
0.0
  9
$LIMMIN
 10
0.0
 20
0.0
  9
$LIMMAX
 10
187.5
 20
135.0
  9
$ORTHOMODE
 70
     1
  9
$REGENMODE
 70
     1
  9
$FILLMODE
 70
     1
  9
$QTEXTMODE
 70
     0
  9
$MIRRTEXT
 70
     0
  9
$DRAGMODE
 70
     2
  9
$LTSCALE
 40
5.0
  9
$OSMODE
 70
  3071
  9
$ATTMODE
 70
     1
  9
$TEXTSIZE
 40
0.2
  9
$TRACEWID
 40
0.05
  9
$TEXTSTYLE
  7
STANDARD
  9
$CLAYER
  8
3
  9
$CELTYPE
  6
BYLAYER
  9
$CECOLOR
 62
   256
  9
$DIMSCALE
 40
0.5
  9
$DIMASZ
 40
3.0
  9
$DIMEXO
 40
2.0
  9
$DIMDLI
 40
0.38
  9
$DIMRND
 40
0.0
  9
$DIMDLE
 40
0.0
  9
$DIMEXE
 40
2.0
  9
$DIMTP
 40
0.0
  9
$DIMTM
 40
0.0
  9
$DIMTXT
 40
3.2000000000000002
  9
$DIMCEN
 40
0.0
  9
$DIMTSZ
 40
0.0
  9
$DIMTOL
 70
     0
  9
$DIMLIM
 70
     0
  9
$DIMTIH
 70
     0
  9
$DIMTOH
 70
     0
  9
$DIMSE1
 70
     0
  9
$DIMSE2
 70
     0
  9
$DIMTAD
 70
     1
  9
$DIMZIN
 70
     0
  9
$DIMBLK
  1

  9
$DIMASO
 70
     0
  9
$DIMSHO
 70
     0
  9
$DIMPOST
  1

  9
$DIMAPOST
  1

  9
$DIMALT
 70
     0
  9
$DIMALTD
 70
     2
  9
$DIMALTF
 40
25.399999999999999
  9
$DIMLFAC
 40
1.0
  9
$DIMTOFL
 70
     1
  9
$DIMTVP
 40
1.6000000000000001
  9
$DIMTIX
 70
     1
  9
$DIMSOXD
 70
     0
  9
$DIMSAH
 70
     0
  9
$DIMBLK1
  1

  9
$DIMBLK2
  1

  9
$DIMSTYLE
  2
STANDARD
  9
$DIMCLRD
 70
     0
  9
$DIMCLRE
 70
     0
  9
$DIMCLRT
 70
     0
  9
$DIMTFAC
 40
1.0
  9
$DIMGAP
 40
0.09
  9
$LUNITS
 70
     2
  9
$LUPREC
 70
     4
  9
$SKETCHINC
 40
0.1
  9
$FILLETRAD
 40
0.0
  9
$AUNITS
 70
     0
  9
$AUPREC
 70
     4
  9
$MENU
  1
E:\r13\win\SUPPORT\ACAD
  9
$ELEVATION
 40
0.0
  9
$PELEVATION
 40
0.0
  9
$THICKNESS
 40
0.0
  9
$LIMCHECK
 70
     0
  9
$BLIPMODE
 70
     0
  9
$CHAMFERA
 40
0.0
  9
$CHAMFERB
 40
0.0
  9
$SKPOLY
 70
     0
  9
$TDCREATE
 40
2449839.7678587958
  9
$TDUPDATE
 40
2456597.6900921762
  9
$TDINDWG
 40
0.0004392245
  9
$TDUSRTIMER
 40
0.0004392245
  9
$USRTIMER
 70
     1
  9
$ANGBASE
 50
0.0
  9
$ANGDIR
 70
     0
  9
$PDMODE
 70
     0
  9
$PDSIZE
 40
0.0
  9
$PLINEWID
 40
0.0
  9
$COORDS
 70
     1
  9
$SPLFRAME
 70
     0
  9
$SPLINETYPE
 70
     6
  9
$SPLINESEGS
 70
     8
  9
$ATTDIA
 70
     0
  9
$ATTREQ
 70
     1
  9
$HANDLING
 70
     1
  9
$HANDSEED
  5
286
  9
$SURFTAB1
 70
     6
  9
$SURFTAB2
 70
     6
  9
$SURFTYPE
 70
     6
  9
$SURFU
 70
     6
  9
$SURFV
 70
     6
  9
$UCSNAME
  2

  9
$UCSORG
 10
0.0
 20
0.0
 30
0.0
  9
$UCSXDIR
 10
1.0
 20
0.0
 30
0.0
  9
$UCSYDIR
 10
0.0
 20
1.0
 30
0.0
  9
$PUCSNAME
  2

  9
$PUCSORG
 10
0.0
 20
0.0
 30
0.0
  9
$PUCSXDIR
 10
1.0
 20
0.0
 30
0.0
  9
$PUCSYDIR
 10
0.0
 20
1.0
 30
0.0
  9
$USERI1
 70
     3
  9
$USERI2
 70
     1
  9
$USERI3
 70
     1
  9
$USERI4
 70
     0
  9
$USERI5
 70
     0
  9
$USERR1
 40
0.0
  9
$USERR2
 40
0.0
  9
$USERR3
 40
0.0
  9
$USERR4
 40
0.0
  9
$USERR5
 40
0.0
  9
$WORLDVIEW
 70
     1
  9
$SHADEDGE
 70
     3
  9
$SHADEDIF
 70
    70
  9
$TILEMODE
 70
     1
  9
$MAXACTVP
 70
    16
  9
$PLIMCHECK
 70
     0
  9
$PEXTMIN
 10
1.0000000000000000E+020
 20
1.0000000000000000E+020
 30
1.0000000000000000E+020
  9
$PEXTMAX
 10
-1.0000000000000000E+020
 20
-1.0000000000000000E+020
 30
-1.0000000000000000E+020
  9
$PLIMMIN
 10
0.0
 20
0.0
  9
$PLIMMAX
 10
12.0
 20
9.0
  9
$UNITMODE
 70
     0
  9
$VISRETAIN
 70
     0
  9
$PLINEGEN
 70
     0
  9
$PSLTSCALE
 70
     0
  0
ENDSEC
  0
SECTION
  2
TABLES
  0
TABLE
  2
VPORT
 70
     1
  0
VPORT
  2
*ACTIVE
 70
     0
 10
0.0
 20
0.0
 11
1.0
 21
1.0
 12
97.52905416604365
 22
66.75636307133405
 13
0.0
 23
0.0
 14
5.0
 24
5.0
 15
5.0
 25
5.0
 16
0.0
 26
0.0
 36
1.0
 17
0.0
 27
0.0
 37
0.0
 40
137.71137496815999
 41
1.831871345029239
 42
50.0
 43
0.0
 44
0.0
 50
0.0
 51
0.0
 71
     0
 72
   500
 73
     1
 74
     0
 75
     0
 76
     0
 77
     0
 78
     2
  0
ENDTAB
  0
TABLE
  2
LTYPE
 70
     3
  0
LTYPE
  2
CONTINUOUS
 70
     0
  3
Solid Line
 72
    65
 73
     0
 40
0.0
  0
LTYPE
  2
CENTER
 70
     0
  3
____ _ ____ _ ____ _ ____ _ ____ _ ____ _ ____
 72
    65
 73
     4
 40
2.0
 49
1.25
 49
-0.25
 49
0.25
 49
-0.25
  0
LTYPE
  2
PHANTOM2
 70
     0
  3
___ _ _ ___ _ _ ___ _ _ ___ _ _
 72
    65
 73
     6
 40
1.25
 49
0.625
 49
-0.125
 49
0.125
 49
-0.125
 49
0.125
 49
-0.125
  0
ENDTAB
  0
TABLE
  2
LAYER
 70
     3
  0
LAYER
  2
0
 70
     0
 62
     7
  6
CONTINUOUS
  0
LAYER
  2
1
 70
     0
 62
     1
  6
CENTER
  0
LAYER
  2
3
 70
     0
 62
     3
  6
CONTINUOUS
  0
ENDTAB
  0
TABLE
  2
STYLE
 70
     2
  0
STYLE
  2
STANDARD
 70
     0
 40
0.0
 41
1.0
 50
0.0
 71
     0
 42
0.2
  3
TXT
  4
BIGFONT
  0
STYLE
  2
STANDARD1
 70
     0
 40
0.0
 41
1.0
 50
0.0
 71
     0
 42
3.0
  3
txt
  4

  0
ENDTAB
  0
TABLE
  2
VIEW
 70
     1
  0
VIEW
  2
ALL
 70
     0
 40
179.5384664489153
 10
135.0
 20
89.769233224457665
 41
0.0
 11
0.0
 21
0.0
 31
1.0
 12
0.0
 22
0.0
 32
0.0
 42
0.0
 43
0.0
 44
0.0
 50
0.0
 71
     0
  0
ENDTAB
  0
TABLE
  2
UCS
 70
     0
  0
ENDTAB
  0
TABLE
  2
APPID
 70
     3
  0
APPID
  2
ACAD
 70
     0
  0
APPID
  2
ACAD_MLEADERVER
 70
     0
  0
APPID
  2
ACAD_NAV_VCDISPLAY
 70
     0
  0
ENDTAB
  0
TABLE
  2
DIMSTYLE
 70
     1
  0
DIMSTYLE
  2
STANDARD
 70
     0
  3

  4

  5

  6

  7

 40
1.0
 41
0.18
 42
0.0625
 43
0.38
 44
0.18
 45
0.0
 46
0.0
 47
0.0
 48
0.0
140
0.18
141
0.09
142
0.0
143
25.399999999999999
144
1.0
145
0.0
146
1.0
147
0.09
 71
     0
 72
     0
 73
     1
 74
     1
 75
     0
 76
     0
 77
     0
 78
     0
170
     0
171
     2
172
     0
173
     0
174
     0
175
     0
176
     0
177
     0
178
     0
  0
ENDTAB
  0
ENDSEC
  0
SECTION
  2
BLOCKS
  0
BLOCK
  8
0
  2
$MODEL_SPACE
 70
     0
 10
0.0
 20
0.0
 30
0.0
  3
$MODEL_SPACE
  1

  0
ENDBLK
  5
13C
  8
0
  0
BLOCK
 67
     1
  8
0
  2
$PAPER_SPACE
 70
     0
 10
0.0
 20
0.0
 30
0.0
  3
$PAPER_SPACE
  1

  0
ENDBLK
  5
13A
 67
     1
  8
0
  0
ENDSEC
  0
SECTION
  2
ENTITIES
  0
LINE
  5
34
  8
1
 10
60.0
 20
15.15767491015893
 30
0.0
 11
60.0
 21
74.157674910158931
 31
0.0
  0
LINE
  5
35
  8
0
 10
68.113248654052072
 20
69.157674910158931
 30
0.0
 11
71.000000000000199
 21
64.15767491015896
 31
0.0
  0
LINE
  5
36
  8
0
 10
71.000000000000199
 20
64.15767491015896
 30
0.0
 11
71.000000000000014
 21
23.157674910158971
 31
0.0
  0
LINE
  5
37
  8
0
 10
51.886751345947928
 20
69.157674910158931
 30
0.0
 11
48.999999999999801
 21
64.15767491015896
 31
0.0
  0
LINE
  5
38
  8
0
 10
51.886751345947928
 20
69.157674910158931
 30
0.0
 11
68.113248654052072
 21
69.157674910158931
 31
0.0
  0
LINE
  5
39
  8
0
 10
60.0
 20
66.71972915961841
 30
0.0
 11
60.0
 21
50.15767491015891
 31
0.0
  0
LINE
  5
3A
  8
1
 10
60.000000000000007
 20
92.499999999999758
 30
0.0
 11
60.000000000000007
 21
122.5000000000002
 31
0.0
  0
LINE
  5
3B
  8
1
 10
44.999999999999773
 20
107.5
 30
0.0
 11
75.000000000000369
 21
107.5
 31
0.0
  0
CIRCLE
  5
3C
  8
0
 10
60.000000000000007
 20
107.5
 30
0.0
 40
8.1132486540520574
  0
CIRCLE
  5
3D
  8
3
 10
60.000000000000007
 20
107.5
 30
0.0
 40
2.5000000000000142
  0
CIRCLE
  5
3E
  8
0
 10
60.000000000000007
 20
107.5
 30
0.0
 40
2.0
  0
LINE
  5
3F
  8
0
 10
70.428326807307272
 20
111.0
 30
0.0
 11
60.000000000000007
 21
117.0207972893962
 31
0.0
  0
LINE
  5
40
  8
0
 10
70.428326807307343
 20
104.0000000000001
 30
0.0
 11
60.000000000000007
 21
97.979202710603786
 31
0.0
  0
LINE
  5
41
  8
0
 10
49.571673192692799
 20
111.0
 30
0.0
 11
60.000000000000007
 21
117.0207972893962
 31
0.0
  0
LINE
  5
42
  8
0
 10
49.571673192692572
 20
104.0000000000002
 30
0.0
 11
60.000000000000007
 21
97.979202710603786
 31
0.0
  0
LINE
  5
43
  8
0
 10
70.428326807307172
 20
64.157674910159258
 30
0.0
 11
70.428326807307144
 21
50.15767491015891
 31
0.0
  0
LINE
  5
44
  8
0
 10
70.428326807307144
 20
50.157674910158939
 30
0.0
 11
60.0
 21
50.157674910158939
 31
0.0
  0
LINE
  5
45
  8
0
 10
71.000000000000014
 20
23.157674910158981
 30
0.0
 11
69.267949192431104
 21
20.157674910158939
 31
0.0
  0
LINE
  5
46
  8
0
 10
69.267949192431104
 20
20.157674910158939
 30
0.0
 11
50.732050807568882
 21
20.157674910158939
 31
0.0
  0
LINE
  5
47
  8
0
 10
48.999999999999979
 20
23.157674910158981
 30
0.0
 11
50.732050807568889
 21
20.157674910158939
 31
0.0
  0
LINE
  5
48
  8
0
 10
48.999999999999979
 20
23.157674910158999
 30
0.0
 11
48.999999999999801
 21
64.15767491015896
 31
0.0
  0
LINE
  5
49
  8
0
 10
71.000000000000028
 20
23.157674910158981
 30
0.0
 11
48.999999999999979
 21
23.157674910158999
 31
0.0
  0
LINE
  5
4A
  8
3
 10
60.0
 20
50.157674910158939
 30
0.0
 11
70.428326807307172
 21
64.157674910159272
 31
0.0
  0
LINE
  5
4B
  8
3
 10
60.0
 20
66.719729159618225
 30
0.0
 11
70.428326807307144
 21
50.157674910158939
 31
0.0
  0
CIRCLE
  5
4C
  8
0
 10
60.000000000000007
 20
107.5
 30
0.0
 40
11.000000000000201
  0
CIRCLE
  5
4D
  8
0
 10
60.000000000000007
 20
107.5
 30
0.0
 40
2.9999999999998499
  0
ARC
  5
4E
  8
0
 10
64.070163890813518
 20
63.179878524003058
 30
0.0
 40
5.3941428068368014
 50
89.442744840761705
 51
138.9862827590041
  0
ARC
  5
4F
  8
0
 10
64.212385318250881
 20
61.991957733151992
 30
0.0
 40
6.582420488403498
 50
19.20902026868151
 51
90.781320554137764
  0
LINE
  5
50
  8
0
 10
70.428326807307172
 20
64.15767491015896
 30
0.0
 11
71.000000000000199
 21
64.157674910158974
 31
0.0
  0
LINE
  5
51
  8
0
 10
49.571673192692828
 20
64.15767491015896
 30
0.0
 11
48.999999999999801
 21
64.157674910158974
 31
0.0
  0
ARC
  5
52
  8
0
 10
55.787614681749119
 20
61.991957733151992
 30
0.0
 40
6.582420488403498
 50
89.21867944586225
 51
160.79097973131849
  0
ARC
  5
53
  8
0
 10
55.929836109186482
 20
63.179878524003058
 30
0.0
 40
5.3941428068368014
 50
41.013717240995902
 51
90.557255159238323
  0
LINE
  5
54
  8
3
 10
60.0
 20
66.719729159618225
 30
0.0
 11
49.571673192692849
 21
50.157674910158939
 31
0.0
  0
LINE
  5
55
  8
3
 10
60.0
 20
50.157674910158939
 30
0.0
 11
49.571673192692828
 21
64.157674910159272
 31
0.0
  0
LINE
  5
56
  8
0
 10
49.571673192692849
 20
50.157674910158939
 30
0.0
 11
60.0
 21
50.157674910158939
 31
0.0
  0
LINE
  5
57
  8
0
 10
49.571673192692828
 20
64.157674910159258
 30
0.0
 11
49.571673192692849
 21
50.15767491015891
 31
0.0
  0
LINE
  5
58
  8
0
 10
131.558808424501
 20
23.157674910158981
 30
0.0
 11
109.558808424501
 21
23.157674910158999
 31
0.0
  0
LINE
  5
59
  8
0
 10
109.558808424501
 20
23.157674910158999
 30
0.0
 11
109.5588084245009
 21
50.157674910158939
 31
0.0
  0
LINE
  5
5A
  8
0
 10
109.558808424501
 20
23.157674910158981
 30
0.0
 11
111.29085923206991
 21
20.157674910158939
 31
0.0
  0
LINE
  5
5B
  8
0
 10
129.8267576169321
 20
20.157674910158939
 30
0.0
 11
111.29085923206991
 21
20.157674910158939
 31
0.0
  0
LINE
  5
5C
  8
0
 10
131.558808424501
 20
23.157674910158981
 30
0.0
 11
129.8267576169321
 21
20.157674910158939
 31
0.0
  0
LINE
  5
5D
  8
0
 10
112.4455597704489
 20
69.157674910158931
 30
0.0
 11
128.67205707855311
 21
69.157674910158931
 31
0.0
  0
LINE
  5
5E
  8
0
 10
112.4455597704489
 20
69.157674910158931
 30
0.0
 11
111.0380111351048
 21
66.719729159618609
 31
0.0
  0
LINE
  5
5F
  8
0
 10
131.55880842450119
 20
50.157674910158953
 30
0.0
 11
131.558808424501
 21
23.157674910158971
 31
0.0
  0
LINE
  5
60
  8
0
 10
128.67205707855311
 20
69.157674910158931
 30
0.0
 11
130.07960571389731
 21
66.719729159618609
 31
0.0
  0
LINE
  5
61
  8
0
 10
131.55880842450111
 20
50.157674910158939
 30
0.0
 11
124.058808424501
 21
50.157674910158939
 31
0.0
  0
LINE
  5
62
  8
1
 10
120.558808424501
 20
15.15767491015893
 30
0.0
 11
120.558808424501
 21
74.157674910158931
 31
0.0
  0
LINE
  5
63
  8
0
 10
130.07960571389731
 20
66.719729159618581
 30
0.0
 11
130.07960571389731
 21
50.157674910158939
 31
0.0
  0
LINE
  5
64
  8
0
 10
124.058808424501
 20
64.157674910158974
 30
0.0
 11
124.058808424501
 21
50.157674910158939
 31
0.0
  0
LINE
  5
65
  8
0
 10
117.05880842450109
 20
64.157674910158974
 30
0.0
 11
124.058808424501
 21
64.157674910158974
 31
0.0
  0
LINE
  5
66
  8
0
 10
117.05880842450109
 20
64.157674910158974
 30
0.0
 11
117.05880842450109
 21
50.157674910158939
 31
0.0
  0
LINE
  5
67
  8
0
 10
111.0380111351048
 20
66.719729159618609
 30
0.0
 11
111.0380111351048
 21
50.157674910158939
 31
0.0
  0
LINE
  5
68
  8
0
 10
117.05880842450109
 20
50.157674910158981
 30
0.0
 11
109.5588084245009
 21
50.157674910158939
 31
0.0
  0
LINE
  5
69
  8
3
 10
117.05880842450109
 20
64.157674910158974
 30
0.0
 11
111.0380111351048
 21
50.157674910158953
 31
0.0
  0
LINE
  5
6A
  8
3
 10
117.05880842450109
 20
50.157674910158967
 30
0.0
 11
111.0380111351048
 21
66.719729159618623
 31
0.0
  0
LINE
  5
6B
  8
3
 10
124.058808424501
 20
50.157674910158967
 30
0.0
 11
130.07960571389719
 21
66.719729159618623
 31
0.0
  0
LINE
  5
6C
  8
3
 10
124.058808424501
 20
64.157674910158974
 30
0.0
 11
130.07960571389719
 21
50.157674910158953
 31
0.0
  0
POLYLINE
  5
6D
  8
0
 66
     1
 10
0.0
 20
0.0
 30
0.0
  0
VERTEX
  5
6E
  8
0
 10
117.05880842450109
 20
64.15767491015896
 30
0.0
 42
0.0756323054983659
  0
VERTEX
  5
6F
  8
0
 10
116.793980728026
 20
65.898417938321586
 30
0.0
 42
0.0859130908974219
  0
VERTEX
  5
70
  8
0
 10
116.08616941738281
 20
67.28032301211644
 30
0.0
 42
0.1060319129595323
 70
     2
 50
126.9423092020062
  0
VERTEX
  5
71
  8
0
 10
114.8751174185621
 20
68.3313152054331
 30
0.0
 42
0.1477669961774105
 50
126.9423092020062
  0
VERTEX
  5
72
  8
0
 10
113.7380111351048
 20
68.573766206465834
 30
0.0
 42
0.1265396216995411
  0
VERTEX
  5
73
  8
0
 10
112.51900676458359
 20
68.260241254656833
 30
0.0
 42
0.1060319129595218
  0
VERTEX
  5
74
  8
0
 10
111.38985285282681
 20
67.28032301211644
 30
0.0
 42
0.0146012466289313
 70
     2
 50
233.05769079799381
  0
VERTEX
  5
75
  8
0
 10
111.2363943029554
 20
67.063338885702365
 30
0.0
 42
0.0756323054983671
 50
233.05769079799381
  0
SEQEND
  5
76
  8
0
  0
POLYLINE
  5
77
  8
0
 66
     1
 10
0.0
 20
0.0
 30
0.0
  0
VERTEX
  5
78
  8
0
 10
124.058808424501
 20
64.15767491015896
 30
0.0
 42
-0.0756323054983659
  0
VERTEX
  5
79
  8
0
 10
124.3236361209761
 20
65.898417938321586
 30
0.0
 42
-0.0859130908974219
  0
VERTEX
  5
7A
  8
0
 10
125.0314474316193
 20
67.28032301211644
 30
0.0
 42
-0.1060319129595323
 70
     2
 50
53.057690797993821
  0
VERTEX
  5
7B
  8
0
 10
126.24249943043991
 20
68.3313152054331
 30
0.0
 42
-0.1477669961774105
  0
VERTEX
  5
7C
  8
0
 10
127.37960571389731
 20
68.573766206465834
 30
0.0
 42
-0.1265396216995411
  0
VERTEX
  5
7D
  8
0
 10
128.59861008441851
 20
68.260241254656833
 30
0.0
 42
-0.1060319129595218
  0
VERTEX
  5
7E
  8
0
 10
129.7277639961753
 20
67.28032301211644
 30
0.0
 42
-0.0146012466289313
 70
     2
 50
306.9423092020063
  0
VERTEX
  5
7F
  8
0
 10
129.8812225460467
 20
67.063338885702365
 30
0.0
 42
-0.0756323054983671
  0
SEQEND
  5
80
  8
0
  0
TEXT
  5
1F5
  8
0
 62
     3
 10
0.0
 20
0.0
 30
0.0
 40
5.0
  1
BJ722-22001
  7
STANDARD1
  0
ENDSEC
  0
EOF
