  0
SECTION
  2
HEADER
  9
$ACADVER
  1
AC1009
  9
$INSBASE
 10
0.0
 20
0.0
 30
0.0
  9
$EXTMIN
 10
0.0
 20
-1.4802182810368341
 30
0.0
  9
$EXTMAX
 10
130.0
 20
98.773503000000005
 30
0.0
  9
$LIMMIN
 10
0.0
 20
0.0
  9
$LIMMAX
 10
187.5
 20
135.0
  9
$ORTHOMODE
 70
     1
  9
$REGENMODE
 70
     1
  9
$FILLMODE
 70
     1
  9
$QTEXTMODE
 70
     0
  9
$MIRRTEXT
 70
     0
  9
$DRAGMODE
 70
     2
  9
$LTSCALE
 40
5.0
  9
$OSMODE
 70
  3071
  9
$ATTMODE
 70
     1
  9
$TEXTSIZE
 40
0.2
  9
$TRACEWID
 40
0.05
  9
$TEXTSTYLE
  7
STANDARD
  9
$CLAYER
  8
0
  9
$CELTYPE
  6
BYLAYER
  9
$CECOLOR
 62
   256
  9
$DIMSCALE
 40
0.5
  9
$DIMASZ
 40
3.0
  9
$DIMEXO
 40
2.0
  9
$DIMDLI
 40
0.38
  9
$DIMRND
 40
0.0
  9
$DIMDLE
 40
0.0
  9
$DIMEXE
 40
2.0
  9
$DIMTP
 40
0.0
  9
$DIMTM
 40
0.0
  9
$DIMTXT
 40
3.0
  9
$DIMCEN
 40
0.0
  9
$DIMTSZ
 40
0.0
  9
$DIMTOL
 70
     0
  9
$DIMLIM
 70
     0
  9
$DIMTIH
 70
     0
  9
$DIMTOH
 70
     0
  9
$DIMSE1
 70
     0
  9
$DIMSE2
 70
     0
  9
$DIMTAD
 70
     1
  9
$DIMZIN
 70
     0
  9
$DIMBLK
  1

  9
$DIMASO
 70
     0
  9
$DIMSHO
 70
     0
  9
$DIMPOST
  1

  9
$DIMAPOST
  1

  9
$DIMALT
 70
     0
  9
$DIMALTD
 70
     2
  9
$DIMALTF
 40
25.399999999999999
  9
$DIMLFAC
 40
1.0
  9
$DIMTOFL
 70
     1
  9
$DIMTVP
 40
1.6000000000000001
  9
$DIMTIX
 70
     1
  9
$DIMSOXD
 70
     0
  9
$DIMSAH
 70
     0
  9
$DIMBLK1
  1

  9
$DIMBLK2
  1

  9
$DIMSTYLE
  2
STANDARD
  9
$DIMCLRD
 70
     0
  9
$DIMCLRE
 70
     0
  9
$DIMCLRT
 70
     0
  9
$DIMTFAC
 40
1.0
  9
$DIMGAP
 40
0.09
  9
$LUNITS
 70
     2
  9
$LUPREC
 70
     4
  9
$SKETCHINC
 40
0.1
  9
$FILLETRAD
 40
0.0
  9
$AUNITS
 70
     0
  9
$AUPREC
 70
     4
  9
$MENU
  1
E:\r13\win\SUPPORT\ACAD
  9
$ELEVATION
 40
0.0
  9
$PELEVATION
 40
0.0
  9
$THICKNESS
 40
0.0
  9
$LIMCHECK
 70
     0
  9
$BLIPMODE
 70
     0
  9
$CHAMFERA
 40
0.0
  9
$CHAMFERB
 40
0.0
  9
$SKPOLY
 70
     0
  9
$TDCREATE
 40
2449839.768229167
  9
$TDUPDATE
 40
2456597.6906474889
  9
$TDINDWG
 40
0.0007161458
  9
$TDUSRTIMER
 40
0.0007161458
  9
$USRTIMER
 70
     1
  9
$ANGBASE
 50
0.0
  9
$ANGDIR
 70
     0
  9
$PDMODE
 70
     0
  9
$PDSIZE
 40
0.0
  9
$PLINEWID
 40
0.0
  9
$COORDS
 70
     1
  9
$SPLFRAME
 70
     0
  9
$SPLINETYPE
 70
     6
  9
$SPLINESEGS
 70
     8
  9
$ATTDIA
 70
     0
  9
$ATTREQ
 70
     1
  9
$HANDLING
 70
     1
  9
$HANDSEED
  5
285
  9
$SURFTAB1
 70
     6
  9
$SURFTAB2
 70
     6
  9
$SURFTYPE
 70
     6
  9
$SURFU
 70
     6
  9
$SURFV
 70
     6
  9
$UCSNAME
  2

  9
$UCSORG
 10
0.0
 20
0.0
 30
0.0
  9
$UCSXDIR
 10
1.0
 20
0.0
 30
0.0
  9
$UCSYDIR
 10
0.0
 20
1.0
 30
0.0
  9
$PUCSNAME
  2

  9
$PUCSORG
 10
0.0
 20
0.0
 30
0.0
  9
$PUCSXDIR
 10
1.0
 20
0.0
 30
0.0
  9
$PUCSYDIR
 10
0.0
 20
1.0
 30
0.0
  9
$USERI1
 70
     3
  9
$USERI2
 70
     1
  9
$USERI3
 70
     0
  9
$USERI4
 70
     0
  9
$USERI5
 70
     0
  9
$USERR1
 40
0.5
  9
$USERR2
 40
3.0
  9
$USERR3
 40
3.0
  9
$USERR4
 40
3.0
  9
$USERR5
 40
10.0
  9
$WORLDVIEW
 70
     1
  9
$SHADEDGE
 70
     3
  9
$SHADEDIF
 70
    70
  9
$TILEMODE
 70
     1
  9
$MAXACTVP
 70
    16
  9
$PLIMCHECK
 70
     0
  9
$PEXTMIN
 10
1.0000000000000000E+020
 20
1.0000000000000000E+020
 30
1.0000000000000000E+020
  9
$PEXTMAX
 10
-1.0000000000000000E+020
 20
-1.0000000000000000E+020
 30
-1.0000000000000000E+020
  9
$PLIMMIN
 10
0.0
 20
0.0
  9
$PLIMMAX
 10
12.0
 20
9.0
  9
$UNITMODE
 70
     0
  9
$VISRETAIN
 70
     0
  9
$PLINEGEN
 70
     0
  9
$PSLTSCALE
 70
     0
  0
ENDSEC
  0
SECTION
  2
TABLES
  0
TABLE
  2
VPORT
 70
     1
  0
VPORT
  2
*ACTIVE
 70
     0
 10
0.0
 20
0.0
 11
1.0
 21
1.0
 12
97.52905416604365
 22
66.75636307133405
 13
0.0
 23
0.0
 14
5.0
 24
5.0
 15
10.0
 25
10.0
 16
0.0
 26
0.0
 36
1.0
 17
0.0
 27
0.0
 37
0.0
 40
137.71137496815999
 41
1.831871345029239
 42
50.0
 43
0.0
 44
0.0
 50
0.0
 51
0.0
 71
     0
 72
   100
 73
     1
 74
     0
 75
     0
 76
     0
 77
     0
 78
     2
  0
ENDTAB
  0
TABLE
  2
LTYPE
 70
     3
  0
LTYPE
  2
CONTINUOUS
 70
     0
  3
Solid Line
 72
    65
 73
     0
 40
0.0
  0
LTYPE
  2
CENTER
 70
     0
  3
____ _ ____ _ ____ _ ____ _ ____ _ ____ _ ____
 72
    65
 73
     4
 40
2.0
 49
1.25
 49
-0.25
 49
0.25
 49
-0.25
  0
LTYPE
  2
PHANTOM2
 70
     0
  3
___ _ _ ___ _ _ ___ _ _ ___ _ _
 72
    65
 73
     6
 40
1.25
 49
0.625
 49
-0.125
 49
0.125
 49
-0.125
 49
0.125
 49
-0.125
  0
ENDTAB
  0
TABLE
  2
LAYER
 70
     3
  0
LAYER
  2
0
 70
     0
 62
     7
  6
CONTINUOUS
  0
LAYER
  2
1
 70
     0
 62
     1
  6
CENTER
  0
LAYER
  2
3
 70
     0
 62
     3
  6
CONTINUOUS
  0
ENDTAB
  0
TABLE
  2
STYLE
 70
     2
  0
STYLE
  2
STANDARD
 70
     0
 40
0.0
 41
1.0
 50
0.0
 71
     0
 42
0.2
  3
TXT
  4
BIGFONT
  0
STYLE
  2
STANDARD1
 70
     0
 40
0.0
 41
1.0
 50
0.0
 71
     0
 42
3.0
  3
txt
  4

  0
ENDTAB
  0
TABLE
  2
VIEW
 70
     0
  0
ENDTAB
  0
TABLE
  2
UCS
 70
     0
  0
ENDTAB
  0
TABLE
  2
APPID
 70
     3
  0
APPID
  2
ACAD
 70
     0
  0
APPID
  2
ACAD_MLEADERVER
 70
     0
  0
APPID
  2
ACAD_NAV_VCDISPLAY
 70
     0
  0
ENDTAB
  0
TABLE
  2
DIMSTYLE
 70
     1
  0
DIMSTYLE
  2
STANDARD
 70
     0
  3

  4

  5

  6

  7

 40
1.0
 41
0.18
 42
0.0625
 43
0.38
 44
0.18
 45
0.0
 46
0.0
 47
0.0
 48
0.0
140
0.18
141
0.09
142
0.0
143
25.399999999999999
144
1.0
145
0.0
146
1.0
147
0.09
 71
     0
 72
     0
 73
     1
 74
     1
 75
     0
 76
     0
 77
     0
 78
     0
170
     0
171
     2
172
     0
173
     0
174
     0
175
     0
176
     0
177
     0
178
     0
  0
ENDTAB
  0
ENDSEC
  0
SECTION
  2
BLOCKS
  0
BLOCK
  8
0
  2
$MODEL_SPACE
 70
     0
 10
0.0
 20
0.0
 30
0.0
  3
$MODEL_SPACE
  1

  0
ENDBLK
  5
13F
  8
0
  0
BLOCK
 67
     1
  8
0
  2
$PAPER_SPACE
 70
     0
 10
0.0
 20
0.0
 30
0.0
  3
$PAPER_SPACE
  1

  0
ENDBLK
  5
13D
 67
     1
  8
0
  0
ENDSEC
  0
SECTION
  2
ENTITIES
  0
CIRCLE
  5
35
  8
0
 10
85.0
 20
90.0
 30
0.0
 40
4.0991739999999988
  0
LINE
  5
36
  8
0
 10
125.0
 20
55.5
 30
0.0
 11
125.86602499999999
 21
55.0
 31
0.0
  0
LINE
  5
37
  8
0
 10
124.13397500000001
 20
55.0
 30
0.0
 11
125.0
 21
55.5
 31
0.0
  0
LINE
  5
38
  8
0
 10
79.226496999999995
 20
55.5
 30
0.0
 11
79.726496999999995
 21
55.0
 31
0.0
  0
ARC
  5
39
  8
0
 10
82.249999999999986
 20
54.600000999999999
 30
0.0
 40
0.4
 50
0.0
 51
90.0
  0
LINE
  5
3A
  8
0
 10
82.113248999999996
 20
55.5
 30
0.0
 11
83.113248999999996
 21
55.0
 31
0.0
  0
LINE
  5
3B
  8
0
 10
82.113248999999996
 20
55.5
 30
0.0
 11
81.613248999999996
 21
55.0
 31
0.0
  0
LINE
  5
3C
  8
0
 10
120.0
 20
55.5
 30
0.0
 11
120.86602499999999
 21
55.0
 31
0.0
  0
LINE
  5
3D
  8
0
 10
130.0
 20
55.5
 30
0.0
 11
129.13397499999999
 21
55.0
 31
0.0
  0
ARC
  5
3E
  8
0
 10
122.25
 20
54.600000999999999
 30
0.0
 40
0.4
 50
0.0
 51
90.0
  0
LINE
  5
3F
  8
0
 10
120.5
 20
63.149999999999999
 30
0.0
 11
120.0
 21
62.283974999999991
 31
0.0
  0
LINE
  5
40
  8
0
 10
120.0
 20
62.283974999999991
 30
0.0
 11
120.0
 21
55.0
 31
0.0
  0
ARC
  5
41
  8
0
 10
122.5
 20
59.0002
 30
0.0
 40
3.1668979999999989
 50
37.869040000000012
 51
142.13095999999999
  0
ARC
  5
42
  8
0
 10
127.5
 20
59.0002
 30
0.0
 40
3.1668979999999989
 50
37.869040000000012
 51
142.13095999999999
  0
LINE
  5
43
  8
0
 10
125.0
 20
60.944229000000007
 30
0.0
 11
125.0
 21
55.5
 31
0.0
  0
LINE
  5
44
  8
0
 10
130.0
 20
62.283974999999991
 30
0.0
 11
130.0
 21
55.0
 31
0.0
  0
LINE
  5
45
  8
0
 10
87.886751000000004
 20
55.5
 30
0.0
 11
88.386751000000004
 21
55.0
 31
0.0
  0
LINE
  5
46
  8
0
 10
87.886751000000004
 20
55.5
 30
0.0
 11
86.886751000000004
 21
55.0
 31
0.0
  0
LINE
  5
47
  8
0
 10
129.5
 20
63.149999999999999
 30
0.0
 11
130.0
 21
62.283974999999991
 31
0.0
  0
LINE
  5
48
  8
0
 10
130.0
 20
55.0
 30
0.0
 11
120.0
 21
55.0
 31
0.0
  0
LINE
  5
49
  8
0
 10
129.5
 20
63.149999999999999
 30
0.0
 11
120.5
 21
63.149999999999999
 31
0.0
  0
LINE
  5
4A
  8
0
 10
122.0
 20
53.0
 30
0.0
 11
128.0
 21
53.0
 31
0.0
  0
LINE
  5
4B
  8
0
 10
128.0
 20
53.0
 30
0.0
 11
128.0
 21
49.0
 31
0.0
  0
LINE
  5
4C
  8
0
 10
122.0
 20
49.0
 30
0.0
 11
122.0
 21
53.0
 31
0.0
  0
LINE
  5
4D
  8
3
 10
127.55
 20
53.0
 30
0.0
 11
127.55
 21
48.549999999999997
 31
0.0
  0
LINE
  5
4E
  8
3
 10
122.45
 20
53.0
 30
0.0
 11
122.45
 21
48.549999999999997
 31
0.0
  0
ARC
  5
4F
  8
0
 10
125.0
 20
61.649999999999999
 30
0.0
 40
4.3650000000000002
 50
147.427021
 51
159.90104199999999
  0
LINE
  5
50
  8
0
 10
128.67841300000001
 20
64.0
 30
0.0
 11
121.32158699999999
 21
64.0
 31
0.0
  0
ARC
  5
51
  8
0
 10
125.0
 20
61.649999999999999
 30
0.0
 40
4.3650000000000002
 50
20.098958
 51
32.572978999999997
  0
LINE
  5
52
  8
0
 10
127.34999999999999
 20
54.600000999999999
 30
0.0
 11
127.34999999999999
 21
53.399999999999991
 31
0.0
  0
ARC
  5
53
  8
0
 10
127.75
 20
53.399999999999991
 30
0.0
 40
0.4
 50
180.0
 51
270.0
  0
ARC
  5
54
  8
0
 10
127.75
 20
54.600000999999999
 30
0.0
 40
0.4
 50
90.0
 51
180.0
  0
ARC
  5
55
  8
0
 10
122.25
 20
53.399999999999991
 30
0.0
 40
0.4
 50
270.0
 51
0.0
  0
LINE
  5
56
  8
0
 10
122.65000000000001
 20
54.600000999999999
 30
0.0
 11
122.65000000000001
 21
53.399999999999991
 31
0.0
  0
LINE
  5
57
  8
0
 10
123.0
 20
48.0
 30
0.0
 11
127.0
 21
48.0
 31
0.0
  0
LINE
  5
58
  8
0
 10
127.0
 20
48.0
 30
0.0
 11
128.0
 21
49.0
 31
0.0
  0
LINE
  5
59
  8
0
 10
123.0
 20
48.0
 30
0.0
 11
122.0
 21
49.0
 31
0.0
  0
LINE
  5
5A
  8
0
 10
122.0
 20
49.0
 30
0.0
 11
128.0
 21
49.0
 31
0.0
  0
LINE
  5
5B
  8
1
 10
125.0
 20
67.0
 30
0.0
 11
125.0
 21
45.0
 31
0.0
  0
LINE
  5
5C
  8
1
 10
85.0
 20
67.0
 30
0.0
 11
85.0
 21
45.0
 31
0.0
  0
LINE
  5
5D
  8
0
 10
80.976006999999996
 20
62.015668000000012
 30
0.0
 11
82.113248999999996
 21
60.944229000000007
 31
0.0
  0
LINE
  5
5E
  8
0
 10
79.226496999999995
 20
60.944229000000007
 30
0.0
 11
79.928563999999994
 21
61.916082000000003
 31
0.0
  0
ARC
  5
5F
  8
0
 10
80.495992000000015
 20
61.506171999999999
 30
0.0
 40
0.7
 50
46.706495999999987
 51
144.15565000000001
  0
ARC
  5
60
  8
0
 10
89.504007999999999
 20
61.506171999999999
 30
0.0
 40
0.7
 50
35.844349999999999
 51
133.29350400000001
  0
LINE
  5
61
  8
0
 10
89.023993000000004
 20
62.015668000000012
 30
0.0
 11
87.886751000000004
 21
60.944229000000007
 31
0.0
  0
LINE
  5
62
  8
0
 10
90.773503000000005
 20
60.944229000000007
 30
0.0
 11
90.071436000000006
 21
61.916082000000003
 31
0.0
  0
ARC
  5
63
  8
0
 10
85.0
 20
58.148378999999998
 30
0.0
 40
4.0187200000000001
 50
44.083544000000003
 51
135.91645600000001
  0
LINE
  5
64
  8
0
 10
82.0
 20
49.0
 30
0.0
 11
88.0
 21
49.0
 31
0.0
  0
LINE
  5
65
  8
0
 10
83.0
 20
48.0
 30
0.0
 11
82.0
 21
49.0
 31
0.0
  0
LINE
  5
66
  8
0
 10
87.0
 20
48.0
 30
0.0
 11
88.0
 21
49.0
 31
0.0
  0
LINE
  5
67
  8
0
 10
83.0
 20
48.0
 30
0.0
 11
87.0
 21
48.0
 31
0.0
  0
LINE
  5
68
  8
0
 10
82.650000000000006
 20
54.600000999999999
 30
0.0
 11
82.650000000000006
 21
53.399999999999991
 31
0.0
  0
ARC
  5
69
  8
0
 10
82.249999999999986
 20
53.399999999999991
 30
0.0
 40
0.4
 50
270.0
 51
0.0
  0
ARC
  5
6A
  8
0
 10
87.75
 20
54.600000999999999
 30
0.0
 40
0.4
 50
90.0
 51
180.0
  0
ARC
  5
6B
  8
0
 10
87.75
 20
53.399999999999991
 30
0.0
 40
0.4
 50
180.0
 51
270.0
  0
LINE
  5
6C
  8
0
 10
87.349999999999994
 20
54.600000999999999
 30
0.0
 11
87.349999999999994
 21
53.399999999999991
 31
0.0
  0
LINE
  5
6D
  8
0
 10
90.773503000000005
 20
55.5
 30
0.0
 11
90.273503000000005
 21
55.0
 31
0.0
  0
ARC
  5
6E
  8
0
 10
85.0
 20
61.649999999999999
 30
0.0
 40
4.3650000000000002
 50
20.098958
 51
32.572978999999997
  0
LINE
  5
6F
  8
0
 10
80.5
 20
63.149999999999999
 30
0.0
 11
79.226496999999995
 21
60.944229000000007
 31
0.0
  0
LINE
  5
70
  8
0
 10
89.500000000000014
 20
63.149999999999999
 30
0.0
 11
90.773503000000005
 21
60.944229000000007
 31
0.0
  0
LINE
  5
71
  8
0
 10
88.678413000000006
 20
64.0
 30
0.0
 11
81.321586999999994
 21
64.0
 31
0.0
  0
ARC
  5
72
  8
0
 10
85.0
 20
61.649999999999999
 30
0.0
 40
4.3650000000000002
 50
147.427021
 51
159.90104199999999
  0
CIRCLE
  5
73
  8
0
 10
85.0
 20
90.0
 30
0.0
 40
3.6800000000000002
  0
CIRCLE
  5
74
  8
0
 10
85.0
 20
90.0
 30
0.0
 40
4.5
  0
LINE
  5
75
  8
1
 10
76.226496999999995
 20
90.0
 30
0.0
 11
93.773503000000005
 21
90.0
 31
0.0
  0
LINE
  5
76
  8
1
 10
85.0
 20
98.773503000000005
 30
0.0
 11
85.0
 21
81.226496999999995
 31
0.0
  0
POLYLINE
  5
77
  8
0
 66
     1
 10
0.0
 20
0.0
 30
0.0
 70
     1
  0
VERTEX
  5
78
  8
0
 10
82.113248999999996
 20
95.0
 30
0.0
 50
270.0
  0
VERTEX
  5
79
  8
0
 10
79.226496999999995
 20
90.0
 30
0.0
 50
270.0
  0
VERTEX
  5
7A
  8
0
 10
82.113248999999996
 20
85.0
 30
0.0
 50
270.0
  0
VERTEX
  5
7B
  8
0
 10
87.886751000000004
 20
85.0
 30
0.0
 50
270.0
  0
VERTEX
  5
7C
  8
0
 10
90.773503000000005
 20
90.0
 30
0.0
 50
270.0
  0
VERTEX
  5
7D
  8
0
 10
87.886751000000004
 20
95.0
 30
0.0
 50
270.0
  0
SEQEND
  5
7E
  8
0
  0
LINE
  5
7F
  8
0
 10
82.113248999999996
 20
60.944229000000007
 30
0.0
 11
82.113248999999996
 21
55.5
 31
0.0
  0
LINE
  5
80
  8
3
 10
82.450000000000003
 20
53.0
 30
0.0
 11
82.450000000000003
 21
48.549999999999997
 31
0.0
  0
LINE
  5
81
  8
3
 10
87.549999999999997
 20
53.0
 30
0.0
 11
87.549999999999997
 21
48.549999999999997
 31
0.0
  0
LINE
  5
82
  8
0
 10
82.0
 20
49.0
 30
0.0
 11
82.0
 21
53.0
 31
0.0
  0
LINE
  5
83
  8
0
 10
88.0
 20
53.0
 30
0.0
 11
88.0
 21
49.0
 31
0.0
  0
LINE
  5
84
  8
0
 10
82.0
 20
53.0
 30
0.0
 11
88.0
 21
53.0
 31
0.0
  0
LINE
  5
85
  8
0
 10
87.886751000000004
 20
60.944229000000007
 30
0.0
 11
87.886751000000004
 21
55.5
 31
0.0
  0
LINE
  5
86
  8
0
 10
89.500000000000014
 20
63.149999999999999
 30
0.0
 11
80.5
 21
63.149999999999999
 31
0.0
  0
LINE
  5
87
  8
0
 10
79.226496999999995
 20
60.944229000000007
 30
0.0
 11
79.226496999999995
 21
55.5
 31
0.0
  0
LINE
  5
88
  8
0
 10
90.273503000000005
 20
55.0
 30
0.0
 11
79.726496999999995
 21
55.0
 31
0.0
  0
LINE
  5
89
  8
0
 10
90.773503000000005
 20
60.944229000000007
 30
0.0
 11
90.773503000000005
 21
55.5
 31
0.0
  0
TEXT
  5
1F6
  8
0
 62
     3
 10
0.0
 20
0.0
 30
0.0
 40
5.0
  1
BJ730-06009
  7
STANDARD1
  0
ENDSEC
  0
EOF
