  0
SECTION
  2
HEADER
  9
$ACADVER
  1
AC1009
  9
$INSBASE
 10
0.0
 20
0.0
 30
0.0
  9
$EXTMIN
 10
0.0
 20
-1.4802182810368341
 30
0.0
  9
$EXTMAX
 10
56.203861880705063
 20
64.024471082776216
 30
0.0
  9
$LIMMIN
 10
0.0
 20
0.0
  9
$LIMMAX
 10
187.5
 20
135.0
  9
$ORTHOMODE
 70
     1
  9
$REGENMODE
 70
     1
  9
$FILLMODE
 70
     1
  9
$QTEXTMODE
 70
     0
  9
$MIRRTEXT
 70
     0
  9
$DRAGMODE
 70
     2
  9
$LTSCALE
 40
5.0
  9
$OSMODE
 70
  3071
  9
$ATTMODE
 70
     1
  9
$TEXTSIZE
 40
0.2
  9
$TRACEWID
 40
0.05
  9
$TEXTSTYLE
  7
STANDARD
  9
$CLAYER
  8
0
  9
$CELTYPE
  6
BYLAYER
  9
$CECOLOR
 62
   256
  9
$DIMSCALE
 40
0.5
  9
$DIMASZ
 40
3.0
  9
$DIMEXO
 40
2.0
  9
$DIMDLI
 40
0.38
  9
$DIMRND
 40
0.0
  9
$DIMDLE
 40
0.0
  9
$DIMEXE
 40
2.0
  9
$DIMTP
 40
0.0
  9
$DIMTM
 40
0.0
  9
$DIMTXT
 40
3.0
  9
$DIMCEN
 40
0.0
  9
$DIMTSZ
 40
0.0
  9
$DIMTOL
 70
     0
  9
$DIMLIM
 70
     0
  9
$DIMTIH
 70
     0
  9
$DIMTOH
 70
     0
  9
$DIMSE1
 70
     0
  9
$DIMSE2
 70
     0
  9
$DIMTAD
 70
     1
  9
$DIMZIN
 70
     0
  9
$DIMBLK
  1

  9
$DIMASO
 70
     0
  9
$DIMSHO
 70
     0
  9
$DIMPOST
  1

  9
$DIMAPOST
  1

  9
$DIMALT
 70
     0
  9
$DIMALTD
 70
     2
  9
$DIMALTF
 40
25.399999999999999
  9
$DIMLFAC
 40
1.0
  9
$DIMTOFL
 70
     1
  9
$DIMTVP
 40
1.6000000000000001
  9
$DIMTIX
 70
     1
  9
$DIMSOXD
 70
     0
  9
$DIMSAH
 70
     0
  9
$DIMBLK1
  1

  9
$DIMBLK2
  1

  9
$DIMSTYLE
  2
STANDARD
  9
$DIMCLRD
 70
     0
  9
$DIMCLRE
 70
     0
  9
$DIMCLRT
 70
     0
  9
$DIMTFAC
 40
1.0
  9
$DIMGAP
 40
0.09
  9
$LUNITS
 70
     2
  9
$LUPREC
 70
     4
  9
$SKETCHINC
 40
0.1
  9
$FILLETRAD
 40
0.0
  9
$AUNITS
 70
     0
  9
$AUPREC
 70
     4
  9
$MENU
  1
E:\r13\win\SUPPORT\ACAD
  9
$ELEVATION
 40
0.0
  9
$PELEVATION
 40
0.0
  9
$THICKNESS
 40
0.0
  9
$LIMCHECK
 70
     0
  9
$BLIPMODE
 70
     0
  9
$CHAMFERA
 40
0.0
  9
$CHAMFERB
 40
0.0
  9
$SKPOLY
 70
     0
  9
$TDCREATE
 40
2449839.768229167
  9
$TDUPDATE
 40
2456597.6906738891
  9
$TDINDWG
 40
0.0533318403
  9
$TDUSRTIMER
 40
0.0533318403
  9
$USRTIMER
 70
     1
  9
$ANGBASE
 50
0.0
  9
$ANGDIR
 70
     0
  9
$PDMODE
 70
     0
  9
$PDSIZE
 40
0.0
  9
$PLINEWID
 40
0.0
  9
$COORDS
 70
     1
  9
$SPLFRAME
 70
     0
  9
$SPLINETYPE
 70
     6
  9
$SPLINESEGS
 70
     8
  9
$ATTDIA
 70
     0
  9
$ATTREQ
 70
     1
  9
$HANDLING
 70
     1
  9
$HANDSEED
  5
14B1
  9
$SURFTAB1
 70
     6
  9
$SURFTAB2
 70
     6
  9
$SURFTYPE
 70
     6
  9
$SURFU
 70
     6
  9
$SURFV
 70
     6
  9
$UCSNAME
  2

  9
$UCSORG
 10
0.0
 20
0.0
 30
0.0
  9
$UCSXDIR
 10
1.0
 20
0.0
 30
0.0
  9
$UCSYDIR
 10
0.0
 20
1.0
 30
0.0
  9
$PUCSNAME
  2

  9
$PUCSORG
 10
0.0
 20
0.0
 30
0.0
  9
$PUCSXDIR
 10
1.0
 20
0.0
 30
0.0
  9
$PUCSYDIR
 10
0.0
 20
1.0
 30
0.0
  9
$USERI1
 70
     3
  9
$USERI2
 70
     1
  9
$USERI3
 70
     0
  9
$USERI4
 70
     0
  9
$USERI5
 70
     0
  9
$USERR1
 40
0.5
  9
$USERR2
 40
3.0
  9
$USERR3
 40
3.0
  9
$USERR4
 40
3.0
  9
$USERR5
 40
10.0
  9
$WORLDVIEW
 70
     1
  9
$SHADEDGE
 70
     3
  9
$SHADEDIF
 70
    70
  9
$TILEMODE
 70
     1
  9
$MAXACTVP
 70
    16
  9
$PLIMCHECK
 70
     0
  9
$PEXTMIN
 10
1.0000000000000000E+020
 20
1.0000000000000000E+020
 30
1.0000000000000000E+020
  9
$PEXTMAX
 10
-1.0000000000000000E+020
 20
-1.0000000000000000E+020
 30
-1.0000000000000000E+020
  9
$PLIMMIN
 10
0.0
 20
0.0
  9
$PLIMMAX
 10
12.0
 20
9.0
  9
$UNITMODE
 70
     0
  9
$VISRETAIN
 70
     0
  9
$PLINEGEN
 70
     0
  9
$PSLTSCALE
 70
     0
  0
ENDSEC
  0
SECTION
  2
TABLES
  0
TABLE
  2
VPORT
 70
     1
  0
VPORT
  2
*ACTIVE
 70
     0
 10
0.0
 20
0.0
 11
1.0
 21
1.0
 12
97.52905416604365
 22
66.75636307133405
 13
0.0
 23
0.0
 14
5.0
 24
5.0
 15
10.0
 25
10.0
 16
0.0
 26
0.0
 36
1.0
 17
0.0
 27
0.0
 37
0.0
 40
137.71137496815999
 41
1.831871345029239
 42
50.0
 43
0.0
 44
0.0
 50
0.0
 51
0.0
 71
     0
 72
   100
 73
     1
 74
     0
 75
     0
 76
     0
 77
     0
 78
     2
  0
ENDTAB
  0
TABLE
  2
LTYPE
 70
     3
  0
LTYPE
  2
CONTINUOUS
 70
     0
  3
Solid Line
 72
    65
 73
     0
 40
0.0
  0
LTYPE
  2
CENTER
 70
     0
  3
____ _ ____ _ ____ _ ____ _ ____ _ ____ _ ____
 72
    65
 73
     4
 40
2.0
 49
1.25
 49
-0.25
 49
0.25
 49
-0.25
  0
LTYPE
  2
PHANTOM2
 70
     0
  3
___ _ _ ___ _ _ ___ _ _ ___ _ _
 72
    65
 73
     6
 40
1.25
 49
0.625
 49
-0.125
 49
0.125
 49
-0.125
 49
0.125
 49
-0.125
  0
ENDTAB
  0
TABLE
  2
LAYER
 70
     3
  0
LAYER
  2
0
 70
     0
 62
     7
  6
CONTINUOUS
  0
LAYER
  2
1
 70
     0
 62
     1
  6
CENTER
  0
LAYER
  2
3
 70
     0
 62
     3
  6
CONTINUOUS
  0
ENDTAB
  0
TABLE
  2
STYLE
 70
     2
  0
STYLE
  2
STANDARD
 70
     0
 40
0.0
 41
1.0
 50
0.0
 71
     0
 42
0.2
  3
TXT
  4
BIGFONT
  0
STYLE
  2
STANDARD1
 70
     0
 40
0.0
 41
1.0
 50
0.0
 71
     0
 42
3.0
  3
txt
  4

  0
ENDTAB
  0
TABLE
  2
VIEW
 70
     0
  0
ENDTAB
  0
TABLE
  2
UCS
 70
     0
  0
ENDTAB
  0
TABLE
  2
APPID
 70
     4
  0
APPID
  2
ACAD
 70
     0
  0
APPID
  2
MCAD_NO_VIS
 70
     0
  0
APPID
  2
ACAD_MLEADERVER
 70
     0
  0
APPID
  2
ACAD_NAV_VCDISPLAY
 70
     0
  0
ENDTAB
  0
TABLE
  2
DIMSTYLE
 70
     1
  0
DIMSTYLE
  2
STANDARD
 70
     0
  3

  4

  5

  6

  7

 40
1.0
 41
0.18
 42
0.0625
 43
0.38
 44
0.18
 45
0.0
 46
0.0
 47
0.0
 48
0.0
140
0.18
141
0.09
142
0.0
143
25.399999999999999
144
1.0
145
0.0
146
1.0
147
0.09
 71
     0
 72
     0
 73
     1
 74
     1
 75
     0
 76
     0
 77
     0
 78
     0
170
     0
171
     2
172
     0
173
     0
174
     0
175
     0
176
     0
177
     0
178
     0
  0
ENDTAB
  0
ENDSEC
  0
SECTION
  2
BLOCKS
  0
BLOCK
  8
0
  2
$MODEL_SPACE
 70
     0
 10
0.0
 20
0.0
 30
0.0
  3
$MODEL_SPACE
  1

  0
ENDBLK
  5
13F
  8
0
  0
BLOCK
 67
     1
  8
0
  2
$PAPER_SPACE
 70
     0
 10
0.0
 20
0.0
 30
0.0
  3
$PAPER_SPACE
  1

  0
ENDBLK
  5
13D
 67
     1
  8
0
  0
ENDSEC
  0
SECTION
  2
ENTITIES
  0
CIRCLE
  5
3AF
  8
0
 10
16.020148207858451
 20
53.518917583311101
 30
0.0
 40
5.7072769811365021
  0
CIRCLE
  5
3CB
  8
0
 10
16.020148207858451
 20
53.518917583311101
 30
0.0
 40
4.7021271782035017
  0
CIRCLE
  5
3CC
  8
0
 10
16.020148207858451
 20
53.518917583311101
 30
0.0
 40
4.3416126036301304
  0
LINE
  5
452
  8
1
 10
16.02014820785848
 20
44.018917583311087
 30
0.0
 11
16.02014820785848
 21
64.024471082776216
 31
0.0
  0
LINE
  5
453
  8
1
 10
26.525701707323609
 20
53.518917583311101
 30
0.0
 11
5.5145947083933597
 21
53.518917583311101
 31
0.0
  0
CIRCLE
  5
454
  8
0
 10
16.02014820785848
 20
53.518917583311101
 30
0.0
 40
6.4999999999999876
  0
LINE
  5
46D
  8
0
 10
22.52014820785849
 20
23.41220037235394
 30
0.0
 11
21.727425188994999
 21
25.112200372353939
 31
0.0
  0
LINE
  5
46E
  8
0
 10
10.31287122672196
 20
25.112200372353939
 30
0.0
 11
9.5201482078584831
 21
23.41220037235394
 31
0.0
  0
LINE
  5
46F
  8
0
 10
18.220148207858468
 20
12.31220037235393
 30
0.0
 11
18.220148207858468
 21
13.412200372353929
 31
0.0
  0
LINE
  5
470
  8
0
 10
13.820148207858489
 20
13.412200372353929
 30
0.0
 11
13.820148207858489
 21
12.31220037235393
 31
0.0
  0
LINE
  5
471
  8
0
 10
19.02014820785848
 20
7.0257003723539384
 30
0.0
 11
19.02014820785848
 21
12.31220037235393
 31
0.0
  0
LINE
  5
472
  8
0
 10
13.02014820785848
 20
12.31220037235393
 30
0.0
 11
13.02014820785848
 21
7.0257003723539384
 31
0.0
  0
LINE
  5
473
  8
0
 10
18.406648207858488
 20
6.4122003723539356
 30
0.0
 11
19.02014820785848
 21
7.0257003723539313
 31
0.0
  0
LINE
  5
474
  8
0
 10
13.02014820785848
 20
7.0257003723539313
 30
0.0
 11
13.633648207858471
 21
6.4122003723539356
 31
0.0
  0
LINE
  5
475
  8
0
 10
23.525701707323609
 20
23.046208829586408
 30
0.0
 11
22.52014820785849
 21
23.41220037235394
 31
0.0
  0
LINE
  5
476
  8
0
 10
9.5201482078584831
 20
23.41220037235394
 30
0.0
 11
8.5145947083933606
 21
23.046208829586408
 31
0.0
  0
LINE
  5
477
  8
0
 10
22.52014820785849
 20
13.412200372353929
 30
0.0
 11
23.525701707323609
 21
13.778191915121459
 31
0.0
  0
LINE
  5
478
  8
0
 10
8.5145947083933606
 20
13.778191915121459
 30
0.0
 11
9.5201482078584831
 21
13.412200372353929
 31
0.0
  0
ARC
  5
47B
  8
0
 10
16.020148207858281
 20
23.412200372354029
 30
0.0
 40
4.9999999999997691
 50
150.26428689244699
 51
160.1231259299212
  0
ARC
  5
47C
  8
0
 10
16.020148207858881
 20
23.412200372354121
 30
0.0
 40
4.9999999999995639
 50
19.876874070078419
 51
29.73571310755332
  0
LINE
  5
47D
  8
0
 10
21.727425188994999
 20
25.112200372353939
 30
0.0
 11
10.31287122672196
 21
25.112200372353939
 31
0.0
  0
LINE
  5
480
  8
0
 10
19.02014820785848
 20
12.31220037235393
 30
0.0
 11
13.02014820785848
 21
12.31220037235393
 31
0.0
  0
LINE
  5
481
  8
0
 10
19.02014820785848
 20
7.0257003723539384
 30
0.0
 11
13.02014820785848
 21
7.0257003723539384
 31
0.0
  0
LINE
  5
482
  8
0
 10
18.406648207858488
 20
6.4122003723539356
 30
0.0
 11
13.633648207858471
 21
6.4122003723539356
 31
0.0
  0
LINE
  5
483
  8
0
 10
22.52014820785849
 20
23.41220037235394
 30
0.0
 11
9.5201482078584831
 21
23.41220037235394
 31
0.0
  0
LINE
  5
484
  8
0
 10
22.52014820785849
 20
13.412200372353929
 30
0.0
 11
9.5201482078584831
 21
13.412200372353929
 31
0.0
  0
POLYLINE
  5
485
  8
0
 66
     1
 10
0.0
 20
0.0
 30
0.0
  0
VERTEX
  5
13A1
  8
0
 10
8.5145947083933606
 20
23.046208829586408
 30
0.0
  0
VERTEX
  5
13A2
  8
0
 10
8.8308887360766164
 20
23.1537442135138
 30
0.0
  0
VERTEX
  5
13A3
  8
0
 10
9.4489236060313715
 20
23.314815531605301
 30
0.0
  0
VERTEX
  5
13A4
  8
0
 10
9.8088233531869946
 20
23.374545229098601
 30
0.0
  0
VERTEX
  5
13A5
  8
0
 10
9.9126218266627291
 20
23.386710878536949
 30
0.0
  0
VERTEX
  5
13A6
  8
0
 10
10.017129469864701
 20
23.396599241947062
 30
0.0
  0
VERTEX
  5
13A7
  8
0
 10
10.069700631869461
 20
23.40066851279596
 30
0.0
  0
VERTEX
  5
13A8
  8
0
 10
10.122512032969039
 20
23.404142165126299
 30
0.0
  0
VERTEX
  5
13A9
  8
0
 10
10.228945803426511
 20
23.409261756915249
 30
0.0
  0
VERTEX
  5
13AA
  8
0
 10
10.336619085560191
 20
23.411869412815818
 30
0.0
  0
VERTEX
  5
13AB
  8
0
 10
10.390983083259639
 20
23.41220037235394
 30
0.0
  0
SEQEND
  5
13AC
  8
0
  0
POLYLINE
  5
486
  8
0
 66
     1
 10
0.0
 20
0.0
 30
0.0
  0
VERTEX
  5
13AD
  8
0
 10
10.390983083259639
 20
23.41220037235394
 30
0.0
  0
VERTEX
  5
13AE
  8
0
 10
10.7122655346549
 20
23.400668512795949
 30
0.0
  0
VERTEX
  5
13AF
  8
0
 10
11.33304256049612
 20
23.314815531605291
 30
0.0
  0
VERTEX
  5
13B0
  8
0
 10
11.951077430446791
 20
23.153744213513828
 30
0.0
  0
VERTEX
  5
13B1
  8
0
 10
12.26737145812592
 20
23.046208829586408
 30
0.0
  0
SEQEND
  5
13B2
  8
0
  0
POLYLINE
  5
487
  8
0
 66
     1
 10
0.0
 20
0.0
 30
0.0
  0
VERTEX
  5
13B3
  8
0
 10
12.26737145812592
 20
13.778191915121459
 30
0.0
  0
VERTEX
  5
13B4
  8
0
 10
11.951077430442639
 20
13.67065653119406
 30
0.0
  0
VERTEX
  5
13B5
  8
0
 10
11.333042560487881
 20
13.50958521310257
 30
0.0
  0
VERTEX
  5
13B6
  8
0
 10
10.97314281333229
 20
13.44985551560927
 30
0.0
  0
VERTEX
  5
13B7
  8
0
 10
10.86934433985655
 20
13.437689866170921
 30
0.0
  0
VERTEX
  5
13B8
  8
0
 10
10.76483669665455
 20
13.427801502760801
 30
0.0
  0
VERTEX
  5
13B9
  8
0
 10
10.712265534649781
 20
13.423732231911901
 30
0.0
  0
VERTEX
  5
13BA
  8
0
 10
10.659454133550209
 20
13.42025857958158
 30
0.0
  0
VERTEX
  5
13BB
  8
0
 10
10.55302036309277
 20
13.415138987792609
 30
0.0
  0
VERTEX
  5
13BC
  8
0
 10
10.44534708095906
 20
13.412531331892049
 30
0.0
  0
VERTEX
  5
13BD
  8
0
 10
10.390983083259639
 20
13.412200372353929
 30
0.0
  0
SEQEND
  5
13BE
  8
0
  0
POLYLINE
  5
488
  8
0
 66
     1
 10
0.0
 20
0.0
 30
0.0
  0
VERTEX
  5
13BF
  8
0
 10
10.390983083259639
 20
13.412200372353929
 30
0.0
  0
VERTEX
  5
13C0
  8
0
 10
10.06970063186435
 20
13.42373223191192
 30
0.0
  0
VERTEX
  5
13C1
  8
0
 10
9.4489236060231576
 20
13.50958521310258
 30
0.0
  0
VERTEX
  5
13C2
  8
0
 10
8.8308887360724952
 20
13.670656531194039
 30
0.0
  0
VERTEX
  5
13C3
  8
0
 10
8.5145947083933606
 20
13.778191915121459
 30
0.0
  0
SEQEND
  5
13C4
  8
0
  0
LINE
  5
489
  8
0
 10
12.26737145812592
 20
23.046208829586408
 30
0.0
 11
12.26737145812592
 21
13.778191915121459
 31
0.0
  0
POLYLINE
  5
48A
  8
0
 66
     1
 10
0.0
 20
0.0
 30
0.0
  0
VERTEX
  5
13C5
  8
0
 10
12.26737145812592
 20
23.046208829586408
 30
0.0
  0
VERTEX
  5
13C6
  8
0
 10
12.89995951349246
 20
23.153744213513811
 30
0.0
  0
VERTEX
  5
13C7
  8
0
 10
14.13602925340194
 20
23.314815531605301
 30
0.0
  0
VERTEX
  5
13C8
  8
0
 10
14.85582874771319
 20
23.374545229098601
 30
0.0
  0
VERTEX
  5
13C9
  8
0
 10
15.063425694664661
 20
23.386710878536949
 30
0.0
  0
VERTEX
  5
13CA
  8
0
 10
15.27244098106865
 20
23.396599241947069
 30
0.0
  0
VERTEX
  5
13CB
  8
0
 10
15.377583305078129
 20
23.400668512795971
 30
0.0
  0
VERTEX
  5
13CC
  8
0
 10
15.48320610727728
 20
23.404142165126299
 30
0.0
  0
VERTEX
  5
13CD
  8
0
 10
15.69607364819222
 20
23.409261756915249
 30
0.0
  0
VERTEX
  5
13CE
  8
0
 10
15.9114202124596
 20
23.411869412815818
 30
0.0
  0
VERTEX
  5
13CF
  8
0
 10
16.02014820785848
 20
23.41220037235394
 30
0.0
  0
SEQEND
  5
13D0
  8
0
  0
POLYLINE
  5
48B
  8
0
 66
     1
 10
0.0
 20
0.0
 30
0.0
  0
VERTEX
  5
13D1
  8
0
 10
16.02014820785848
 20
23.41220037235394
 30
0.0
  0
VERTEX
  5
13D2
  8
0
 10
16.66271311064903
 20
23.400668512795949
 30
0.0
  0
VERTEX
  5
13D3
  8
0
 10
17.90426716233145
 20
23.314815531605291
 30
0.0
  0
VERTEX
  5
13D4
  8
0
 10
19.140336902232772
 20
23.153744213513828
 30
0.0
  0
VERTEX
  5
13D5
  8
0
 10
19.772924957591041
 20
23.046208829586408
 30
0.0
  0
SEQEND
  5
13D6
  8
0
  0
POLYLINE
  5
48C
  8
0
 66
     1
 10
0.0
 20
0.0
 30
0.0
  0
VERTEX
  5
13D7
  8
0
 10
19.772924957591041
 20
13.778191915121459
 30
0.0
  0
VERTEX
  5
13D8
  8
0
 10
19.140336902224501
 20
13.67065653119406
 30
0.0
  0
VERTEX
  5
13D9
  8
0
 10
17.904267162315019
 20
13.50958521310257
 30
0.0
  0
VERTEX
  5
13DA
  8
0
 10
17.18446766800378
 20
13.44985551560927
 30
0.0
  0
VERTEX
  5
13DB
  8
0
 10
16.976870721052311
 20
13.437689866170921
 30
0.0
  0
VERTEX
  5
13DC
  8
0
 10
16.767855434648311
 20
13.427801502760801
 30
0.0
  0
VERTEX
  5
13DD
  8
0
 10
16.66271311063883
 20
13.423732231911901
 30
0.0
  0
VERTEX
  5
13DE
  8
0
 10
16.55709030843968
 20
13.42025857958158
 30
0.0
  0
VERTEX
  5
13DF
  8
0
 10
16.344222767524741
 20
13.415138987792609
 30
0.0
  0
VERTEX
  5
13E0
  8
0
 10
16.128876203257359
 20
13.412531331892049
 30
0.0
  0
VERTEX
  5
13E1
  8
0
 10
16.02014820785848
 20
13.412200372353929
 30
0.0
  0
SEQEND
  5
13E2
  8
0
  0
POLYLINE
  5
48D
  8
0
 66
     1
 10
0.0
 20
0.0
 30
0.0
  0
VERTEX
  5
13E3
  8
0
 10
16.02014820785848
 20
13.412200372353929
 30
0.0
  0
VERTEX
  5
13E4
  8
0
 10
15.37758330506793
 20
13.42373223191192
 30
0.0
  0
VERTEX
  5
13E5
  8
0
 10
14.136029253385511
 20
13.50958521310258
 30
0.0
  0
VERTEX
  5
13E6
  8
0
 10
12.899959513484189
 20
13.670656531194039
 30
0.0
  0
VERTEX
  5
13E7
  8
0
 10
12.26737145812592
 20
13.778191915121459
 30
0.0
  0
SEQEND
  5
13E8
  8
0
  0
LINE
  5
48E
  8
0
 10
19.772924957591041
 20
23.046208829586408
 30
0.0
 11
19.772924957591041
 21
13.778191915121459
 31
0.0
  0
POLYLINE
  5
48F
  8
0
 66
     1
 10
0.0
 20
0.0
 30
0.0
  0
VERTEX
  5
13E9
  8
0
 10
19.772924957591041
 20
23.046208829586408
 30
0.0
  0
VERTEX
  5
13EA
  8
0
 10
20.089218985274329
 20
23.1537442135138
 30
0.0
  0
VERTEX
  5
13EB
  8
0
 10
20.707253855229052
 20
23.314815531605301
 30
0.0
  0
VERTEX
  5
13EC
  8
0
 10
21.067153602384678
 20
23.37454522909859
 30
0.0
  0
VERTEX
  5
13ED
  8
0
 10
21.170952075860409
 20
23.386710878536949
 30
0.0
  0
VERTEX
  5
13EE
  8
0
 10
21.275459719062411
 20
23.396599241947062
 30
0.0
  0
VERTEX
  5
13EF
  8
0
 10
21.32803088106715
 20
23.40066851279596
 30
0.0
  0
VERTEX
  5
13F0
  8
0
 10
21.380842282166729
 20
23.404142165126299
 30
0.0
  0
VERTEX
  5
13F1
  8
0
 10
21.4872760526242
 20
23.409261756915249
 30
0.0
  0
VERTEX
  5
13F2
  8
0
 10
21.594949334757899
 20
23.411869412815818
 30
0.0
  0
VERTEX
  5
13F3
  8
0
 10
21.649313332457321
 20
23.41220037235394
 30
0.0
  0
SEQEND
  5
13F4
  8
0
  0
POLYLINE
  5
490
  8
0
 66
     1
 10
0.0
 20
0.0
 30
0.0
  0
VERTEX
  5
13F5
  8
0
 10
21.649313332457321
 20
23.41220037235394
 30
0.0
  0
VERTEX
  5
13F6
  8
0
 10
21.97059578385262
 20
23.400668512795949
 30
0.0
  0
VERTEX
  5
13F7
  8
0
 10
22.591372809693809
 20
23.314815531605291
 30
0.0
  0
VERTEX
  5
13F8
  8
0
 10
23.209407679644499
 20
23.153744213513828
 30
0.0
  0
VERTEX
  5
13F9
  8
0
 10
23.525701707323609
 20
23.046208829586408
 30
0.0
  0
SEQEND
  5
13FA
  8
0
  0
POLYLINE
  5
491
  8
0
 66
     1
 10
0.0
 20
0.0
 30
0.0
  0
VERTEX
  5
13FB
  8
0
 10
23.525701707323609
 20
13.778191915121459
 30
0.0
  0
VERTEX
  5
13FC
  8
0
 10
23.20940767964035
 20
13.67065653119406
 30
0.0
  0
VERTEX
  5
13FD
  8
0
 10
22.591372809685591
 20
13.50958521310257
 30
0.0
  0
VERTEX
  5
13FE
  8
0
 10
22.231473062529972
 20
13.44985551560927
 30
0.0
  0
VERTEX
  5
13FF
  8
0
 10
22.127674589054241
 20
13.437689866170921
 30
0.0
  0
VERTEX
  5
1400
  8
0
 10
22.023166945852239
 20
13.427801502760801
 30
0.0
  0
VERTEX
  5
1401
  8
0
 10
21.9705957838475
 20
13.423732231911901
 30
0.0
  0
VERTEX
  5
1402
  8
0
 10
21.917784382747929
 20
13.42025857958158
 30
0.0
  0
VERTEX
  5
1403
  8
0
 10
21.811350612290461
 20
13.415138987792609
 30
0.0
  0
VERTEX
  5
1404
  8
0
 10
21.703677330156779
 20
13.412531331892049
 30
0.0
  0
VERTEX
  5
1405
  8
0
 10
21.649313332457321
 20
13.412200372353929
 30
0.0
  0
SEQEND
  5
1406
  8
0
  0
POLYLINE
  5
492
  8
0
 66
     1
 10
0.0
 20
0.0
 30
0.0
  0
VERTEX
  5
1407
  8
0
 10
21.649313332457321
 20
13.412200372353929
 30
0.0
  0
VERTEX
  5
1408
  8
0
 10
21.328030881062059
 20
13.42373223191192
 30
0.0
  0
VERTEX
  5
1409
  8
0
 10
20.70725385522087
 20
13.50958521310258
 30
0.0
  0
VERTEX
  5
140A
  8
0
 10
20.089218985270179
 20
13.670656531194039
 30
0.0
  0
VERTEX
  5
140B
  8
0
 10
19.772924957591041
 20
13.778191915121459
 30
0.0
  0
SEQEND
  5
140C
  8
0
  0
LINE
  5
498
  8
0
 10
23.525701707323609
 20
23.046208829586408
 30
0.0
 11
23.525701707323609
 21
13.778191915121459
 31
0.0
  0
LINE
  5
49F
  8
0
 10
8.5145947083933606
 20
23.046208829586408
 30
0.0
 11
8.5145947083933606
 21
13.778191915121459
 31
0.0
  0
LINE
  5
4A3
  8
0
 10
20.361760811488612
 20
25.89220037235394
 30
0.0
 11
11.67853560422836
 21
25.89220037235394
 31
0.0
  0
LINE
  5
4E0
  8
3
 10
18.406648207858488
 20
6.4122003723539356
 30
0.0
 11
18.406648207858488
 21
12.31220037235393
 31
0.0
  0
LINE
  5
4E2
  8
3
 10
13.633648207858471
 20
6.4122003723539356
 30
0.0
 11
13.633648207858471
 21
12.31220037235393
 31
0.0
  0
LINE
  5
4E4
  8
1
 10
16.02014820785848
 20
29.41220037235416
 30
0.0
 11
16.02014820785848
 21
3.4122003723539289
 31
0.0
  0
LINE
  5
4FD
  8
0
 10
56.203861880705063
 20
23.41220037235394
 30
0.0
 11
55.41113886184155
 21
25.112200372353939
 31
0.0
  0
LINE
  5
4FE
  8
0
 10
43.996584899568553
 20
25.112200372353939
 30
0.0
 11
43.203861880705063
 21
23.41220037235394
 31
0.0
  0
LINE
  5
4FF
  8
0
 10
51.903861880705051
 20
12.31220037235393
 30
0.0
 11
51.903861880705051
 21
13.412200372353929
 31
0.0
  0
LINE
  5
500
  8
0
 10
47.503861880705067
 20
13.412200372353929
 30
0.0
 11
47.503861880705067
 21
12.31220037235393
 31
0.0
  0
LINE
  5
501
  8
0
 10
52.703861880705063
 20
7.0257003723539384
 30
0.0
 11
52.703861880705063
 21
12.31220037235393
 31
0.0
  0
LINE
  5
502
  8
0
 10
46.703861880705063
 20
12.31220037235393
 30
0.0
 11
46.703861880705063
 21
7.0257003723539384
 31
0.0
  0
LINE
  5
503
  8
0
 10
52.090361880705068
 20
6.4122003723539356
 30
0.0
 11
52.703861880705063
 21
7.0257003723539384
 31
0.0
  0
LINE
  5
504
  8
0
 10
46.703861880705063
 20
7.0257003723539313
 30
0.0
 11
47.31736188070505
 21
6.4122003723539356
 31
0.0
  0
ARC
  5
507
  8
0
 10
49.703861880704842
 20
23.412200372354029
 30
0.0
 40
4.9999999999997691
 50
150.26428689244619
 51
160.1231259299212
  0
ARC
  5
508
  8
0
 10
49.70386188070546
 20
23.412200372354121
 30
0.0
 40
4.9999999999995639
 50
19.876874070078419
 51
29.735713107554119
  0
LINE
  5
509
  8
0
 10
55.41113886184155
 20
25.112200372353939
 30
0.0
 11
43.996584899568553
 21
25.112200372353939
 31
0.0
  0
LINE
  5
50C
  8
0
 10
52.703861880705063
 20
12.31220037235393
 30
0.0
 11
46.703861880705063
 21
12.31220037235393
 31
0.0
  0
LINE
  5
50D
  8
0
 10
52.703861880705063
 20
7.0257003723539384
 30
0.0
 11
46.703861880705063
 21
7.0257003723539384
 31
0.0
  0
LINE
  5
50E
  8
0
 10
52.090361880705068
 20
6.4122003723539356
 30
0.0
 11
47.31736188070505
 21
6.4122003723539356
 31
0.0
  0
LINE
  5
50F
  8
0
 10
43.203861880705063
 20
23.41220037235394
 30
0.0
 11
56.203861880705063
 21
23.41220037235394
 31
0.0
  0
LINE
  5
510
  8
0
 10
43.203861880705063
 20
13.412200372353929
 30
0.0
 11
56.203861880705063
 21
13.412200372353929
 31
0.0
  0
POLYLINE
  5
511
  8
0
 66
     1
 10
0.0
 20
0.0
 30
0.0
  0
VERTEX
  5
140D
  8
0
 10
49.703861880705063
 20
23.046208829586408
 30
0.0
  0
VERTEX
  5
140E
  8
0
 10
50.25169920678308
 20
23.1537442135138
 30
0.0
  0
VERTEX
  5
140F
  8
0
 10
51.32216700239394
 20
23.314815531605301
 30
0.0
  0
VERTEX
  5
1410
  8
0
 10
51.945531650098637
 20
23.374545229098601
 30
0.0
  0
VERTEX
  5
1411
  8
0
 10
52.125315879906744
 20
23.386710878536949
 30
0.0
  0
VERTEX
  5
1412
  8
0
 10
52.306328427711833
 20
23.396599241947062
 30
0.0
  0
VERTEX
  5
1413
  8
0
 10
52.39738435131698
 20
23.40066851279596
 30
0.0
  0
VERTEX
  5
1414
  8
0
 10
52.488856381240339
 20
23.404142165126299
 30
0.0
  0
VERTEX
  5
1415
  8
0
 10
52.673205079313838
 20
23.409261756915249
 30
0.0
  0
VERTEX
  5
1416
  8
0
 10
52.859700674587089
 20
23.411869412815818
 30
0.0
  0
VERTEX
  5
1417
  8
0
 10
52.953861880705063
 20
23.41220037235394
 30
0.0
  0
SEQEND
  5
1418
  8
0
  0
POLYLINE
  5
512
  8
0
 66
     1
 10
0.0
 20
0.0
 30
0.0
  0
VERTEX
  5
1419
  8
0
 10
52.953861880705063
 20
23.41220037235394
 30
0.0
  0
VERTEX
  5
141A
  8
0
 10
53.510339410101949
 20
23.400668512795949
 30
0.0
  0
VERTEX
  5
141B
  8
0
 10
54.58555675903046
 20
23.314815531605291
 30
0.0
  0
VERTEX
  5
141C
  8
0
 10
55.6560245546342
 20
23.153744213513828
 30
0.0
  0
VERTEX
  5
141D
  8
0
 10
56.203861880705063
 20
23.046208829586408
 30
0.0
  0
SEQEND
  5
141E
  8
0
  0
POLYLINE
  5
513
  8
0
 66
     1
 10
0.0
 20
0.0
 30
0.0
  0
VERTEX
  5
141F
  8
0
 10
56.203861880705063
 20
13.778191915121459
 30
0.0
  0
VERTEX
  5
1420
  8
0
 10
55.656024554627038
 20
13.67065653119406
 30
0.0
  0
VERTEX
  5
1421
  8
0
 10
54.585556759016178
 20
13.50958521310257
 30
0.0
  0
VERTEX
  5
1422
  8
0
 10
53.962192111311481
 20
13.44985551560927
 30
0.0
  0
VERTEX
  5
1423
  8
0
 10
53.782407881503389
 20
13.437689866170921
 30
0.0
  0
VERTEX
  5
1424
  8
0
 10
53.601395333698292
 20
13.427801502760801
 30
0.0
  0
VERTEX
  5
1425
  8
0
 10
53.510339410093081
 20
13.423732231911901
 30
0.0
  0
VERTEX
  5
1426
  8
0
 10
53.418867380169729
 20
13.42025857958158
 30
0.0
  0
VERTEX
  5
1427
  8
0
 10
53.234518682096279
 20
13.415138987792609
 30
0.0
  0
VERTEX
  5
1428
  8
0
 10
53.048023086823036
 20
13.412531331892049
 30
0.0
  0
VERTEX
  5
1429
  8
0
 10
52.953861880705063
 20
13.412200372353929
 30
0.0
  0
SEQEND
  5
142A
  8
0
  0
POLYLINE
  5
514
  8
0
 66
     1
 10
0.0
 20
0.0
 30
0.0
  0
VERTEX
  5
142B
  8
0
 10
52.953861880705063
 20
13.412200372353929
 30
0.0
  0
VERTEX
  5
142C
  8
0
 10
52.397384351308169
 20
13.42373223191192
 30
0.0
  0
VERTEX
  5
142D
  8
0
 10
51.322167002379729
 20
13.50958521310258
 30
0.0
  0
VERTEX
  5
142E
  8
0
 10
50.251699206775918
 20
13.670656531194039
 30
0.0
  0
VERTEX
  5
142F
  8
0
 10
49.703861880705063
 20
13.778191915121459
 30
0.0
  0
SEQEND
  5
1430
  8
0
  0
LINE
  5
515
  8
0
 10
56.203861880705063
 20
23.046208829586408
 30
0.0
 11
56.203861880705063
 21
13.778191915121459
 31
0.0
  0
POLYLINE
  5
516
  8
0
 66
     1
 10
0.0
 20
0.0
 30
0.0
  0
VERTEX
  5
1431
  8
0
 10
56.203861880705063
 20
23.046208829586408
 30
0.0
  0
VERTEX
  5
1432
  8
0
 10
56.203861880705063
 20
23.153744213513811
 30
0.0
  0
VERTEX
  5
1433
  8
0
 10
56.203861880705063
 20
23.314815531605301
 30
0.0
  0
VERTEX
  5
1434
  8
0
 10
56.203861880705063
 20
23.374545229098601
 30
0.0
  0
VERTEX
  5
1435
  8
0
 10
56.203861880705063
 20
23.386710878536949
 30
0.0
  0
VERTEX
  5
1436
  8
0
 10
56.203861880705063
 20
23.396599241947069
 30
0.0
  0
VERTEX
  5
1437
  8
0
 10
56.203861880705063
 20
23.400668512795971
 30
0.0
  0
VERTEX
  5
1438
  8
0
 10
56.203861880705063
 20
23.404142165126299
 30
0.0
  0
VERTEX
  5
1439
  8
0
 10
56.203861880705063
 20
23.409261756915249
 30
0.0
  0
VERTEX
  5
143A
  8
0
 10
56.203861880705063
 20
23.411869412815818
 30
0.0
  0
VERTEX
  5
143B
  8
0
 10
56.203861880705063
 20
23.41220037235394
 30
0.0
  0
SEQEND
  5
143C
  8
0
  0
POLYLINE
  5
519
  8
0
 66
     1
 10
0.0
 20
0.0
 30
0.0
  0
VERTEX
  5
143D
  8
0
 10
56.203861880705063
 20
13.412200372353929
 30
0.0
  0
VERTEX
  5
143E
  8
0
 10
56.203861880705063
 20
13.42373223191192
 30
0.0
  0
VERTEX
  5
143F
  8
0
 10
56.203861880705063
 20
13.50958521310258
 30
0.0
  0
VERTEX
  5
1440
  8
0
 10
56.203861880705063
 20
13.670656531194039
 30
0.0
  0
VERTEX
  5
1441
  8
0
 10
56.203861880705063
 20
13.778191915121459
 30
0.0
  0
SEQEND
  5
1442
  8
0
  0
POLYLINE
  5
520
  8
0
 66
     1
 10
0.0
 20
0.0
 30
0.0
  0
VERTEX
  5
1443
  8
0
 10
43.203861880705063
 20
23.41220037235394
 30
0.0
  0
VERTEX
  5
1444
  8
0
 10
43.203861880705063
 20
23.400668512795949
 30
0.0
  0
VERTEX
  5
1445
  8
0
 10
43.203861880705063
 20
23.314815531605291
 30
0.0
  0
VERTEX
  5
1446
  8
0
 10
43.203861880705063
 20
23.153744213513828
 30
0.0
  0
VERTEX
  5
1447
  8
0
 10
43.203861880705063
 20
23.046208829586408
 30
0.0
  0
SEQEND
  5
1448
  8
0
  0
POLYLINE
  5
521
  8
0
 66
     1
 10
0.0
 20
0.0
 30
0.0
  0
VERTEX
  5
1449
  8
0
 10
43.203861880705063
 20
13.778191915121459
 30
0.0
  0
VERTEX
  5
144A
  8
0
 10
43.203861880705063
 20
13.67065653119406
 30
0.0
  0
VERTEX
  5
144B
  8
0
 10
43.203861880705063
 20
13.50958521310257
 30
0.0
  0
VERTEX
  5
144C
  8
0
 10
43.203861880705063
 20
13.44985551560927
 30
0.0
  0
VERTEX
  5
144D
  8
0
 10
43.203861880705063
 20
13.437689866170921
 30
0.0
  0
VERTEX
  5
144E
  8
0
 10
43.203861880705063
 20
13.427801502760801
 30
0.0
  0
VERTEX
  5
144F
  8
0
 10
43.203861880705063
 20
13.423732231911901
 30
0.0
  0
VERTEX
  5
1450
  8
0
 10
43.203861880705063
 20
13.42025857958158
 30
0.0
  0
VERTEX
  5
1451
  8
0
 10
43.203861880705063
 20
13.415138987792609
 30
0.0
  0
VERTEX
  5
1452
  8
0
 10
43.203861880705063
 20
13.412531331892049
 30
0.0
  0
VERTEX
  5
1453
  8
0
 10
43.203861880705063
 20
13.412200372353929
 30
0.0
  0
SEQEND
  5
1454
  8
0
  0
POLYLINE
  5
526
  8
0
 66
     1
 10
0.0
 20
0.0
 30
0.0
  0
VERTEX
  5
1455
  8
0
 10
46.453861880705063
 20
13.412200372353929
 30
0.0
  0
VERTEX
  5
1456
  8
0
 10
45.897384351308183
 20
13.42373223191192
 30
0.0
  0
VERTEX
  5
1457
  8
0
 10
44.8221670023797
 20
13.50958521310258
 30
0.0
  0
VERTEX
  5
1458
  8
0
 10
43.751699206775918
 20
13.670656531194039
 30
0.0
  0
VERTEX
  5
1459
  8
0
 10
43.203861880705063
 20
13.778191915121459
 30
0.0
  0
SEQEND
  5
145A
  8
0
  0
LINE
  5
527
  8
0
 10
43.203861880705063
 20
23.046208829586408
 30
0.0
 11
43.203861880705063
 21
13.778191915121459
 31
0.0
  0
POLYLINE
  5
528
  8
0
 66
     1
 10
0.0
 20
0.0
 30
0.0
  0
VERTEX
  5
145B
  8
0
 10
43.203861880705063
 20
23.046208829586408
 30
0.0
  0
VERTEX
  5
145C
  8
0
 10
43.751699206783087
 20
23.1537442135138
 30
0.0
  0
VERTEX
  5
145D
  8
0
 10
44.822167002393932
 20
23.314815531605301
 30
0.0
  0
VERTEX
  5
145E
  8
0
 10
45.445531650098637
 20
23.37454522909859
 30
0.0
  0
VERTEX
  5
145F
  8
0
 10
45.625315879906729
 20
23.386710878536949
 30
0.0
  0
VERTEX
  5
1460
  8
0
 10
45.806328427711833
 20
23.396599241947062
 30
0.0
  0
VERTEX
  5
1461
  8
0
 10
45.897384351316987
 20
23.40066851279596
 30
0.0
  0
VERTEX
  5
1462
  8
0
 10
45.988856381240332
 20
23.404142165126299
 30
0.0
  0
VERTEX
  5
1463
  8
0
 10
46.173205079313838
 20
23.409261756915249
 30
0.0
  0
VERTEX
  5
1464
  8
0
 10
46.359700674587089
 20
23.411869412815818
 30
0.0
  0
VERTEX
  5
1465
  8
0
 10
46.453861880705063
 20
23.41220037235394
 30
0.0
  0
SEQEND
  5
1466
  8
0
  0
POLYLINE
  5
529
  8
0
 66
     1
 10
0.0
 20
0.0
 30
0.0
  0
VERTEX
  5
1467
  8
0
 10
46.453861880705063
 20
23.41220037235394
 30
0.0
  0
VERTEX
  5
1468
  8
0
 10
47.010339410101942
 20
23.400668512795949
 30
0.0
  0
VERTEX
  5
1469
  8
0
 10
48.085556759030453
 20
23.314815531605291
 30
0.0
  0
VERTEX
  5
146A
  8
0
 10
49.1560245546342
 20
23.153744213513828
 30
0.0
  0
VERTEX
  5
146B
  8
0
 10
49.703861880705063
 20
23.046208829586408
 30
0.0
  0
SEQEND
  5
146C
  8
0
  0
LINE
  5
52A
  8
0
 10
49.703861880705063
 20
23.046208829586408
 30
0.0
 11
49.703861880705063
 21
13.778191915121459
 31
0.0
  0
POLYLINE
  5
52B
  8
0
 66
     1
 10
0.0
 20
0.0
 30
0.0
  0
VERTEX
  5
146D
  8
0
 10
49.703861880705063
 20
13.778191915121459
 30
0.0
  0
VERTEX
  5
146E
  8
0
 10
49.156024554627031
 20
13.67065653119406
 30
0.0
  0
VERTEX
  5
146F
  8
0
 10
48.085556759016193
 20
13.50958521310257
 30
0.0
  0
VERTEX
  5
1470
  8
0
 10
47.462192111311481
 20
13.44985551560927
 30
0.0
  0
VERTEX
  5
1471
  8
0
 10
47.282407881503389
 20
13.437689866170921
 30
0.0
  0
VERTEX
  5
1472
  8
0
 10
47.101395333698292
 20
13.427801502760801
 30
0.0
  0
VERTEX
  5
1473
  8
0
 10
47.010339410093131
 20
13.423732231911901
 30
0.0
  0
VERTEX
  5
1474
  8
0
 10
46.918867380169729
 20
13.42025857958158
 30
0.0
  0
VERTEX
  5
1475
  8
0
 10
46.734518682096272
 20
13.415138987792609
 30
0.0
  0
VERTEX
  5
1476
  8
0
 10
46.548023086823029
 20
13.412531331892049
 30
0.0
  0
VERTEX
  5
1477
  8
0
 10
46.453861880705063
 20
13.412200372353929
 30
0.0
  0
SEQEND
  5
1478
  8
0
  0
LINE
  5
52E
  8
0
 10
54.045474484335223
 20
25.89220037235394
 30
0.0
 11
45.362249277074909
 21
25.89220037235394
 31
0.0
  0
LINE
  5
57A
  8
3
 10
52.090361880705068
 20
6.4122003723539356
 30
0.0
 11
52.090361880705068
 21
12.31220037235393
 31
0.0
  0
LINE
  5
57C
  8
3
 10
47.31736188070505
 20
6.4122003723539356
 30
0.0
 11
47.31736188070505
 21
12.31220037235393
 31
0.0
  0
LINE
  5
57E
  8
1
 10
49.703861880705063
 20
29.41220037235416
 30
0.0
 11
49.703861880705063
 21
3.4122003723539289
 31
0.0
  0
CIRCLE
  5
745
  8
0
 10
16.02014820785848
 20
53.518917583311101
 30
0.0
 40
3.3499999999999939
  0
LINE
  5
77D
  8
0
 10
8.5145947083933322
 20
53.518917583311101
 30
0.0
 11
12.26737145812592
 21
60.018917583311087
 31
0.0
  0
LINE
  5
77E
  8
0
 10
12.26737145812592
 20
60.018917583311087
 30
0.0
 11
19.772924957591041
 21
60.018917583311087
 31
0.0
  0
LINE
  5
77F
  8
0
 10
19.772924957591041
 20
60.018917583311087
 30
0.0
 11
23.525701707323609
 21
53.518917583311101
 31
0.0
  0
LINE
  5
780
  8
0
 10
19.772924957591041
 20
47.018917583311087
 30
0.0
 11
23.525701707323609
 21
53.518917583311101
 31
0.0
  0
LINE
  5
781
  8
0
 10
12.26737145812592
 20
47.018917583311087
 30
0.0
 11
19.772924957591041
 21
47.018917583311087
 31
0.0
  0
LINE
  5
782
  8
0
 10
8.5145947083933322
 20
53.518917583311101
 30
0.0
 11
12.26737145812592
 21
47.018917583311087
 31
0.0
  0
LINE
  5
A01
  8
0
 10
19.37014820785847
 20
25.89220037235394
 30
0.0
 11
19.37014820785847
 21
26.263628943781939
 31
0.0
  0
LINE
  5
A02
  8
0
 10
12.670148207858491
 20
26.2636289437825
 30
0.0
 11
12.670148207858491
 21
25.89220037235394
 31
0.0
  0
LINE
  5
B4B
  8
0
 10
53.053861880705057
 20
25.89220037235394
 30
0.0
 11
53.053861880705057
 21
26.263628943782511
 31
0.0
  0
LINE
  5
B4C
  8
0
 10
46.353861880705068
 20
26.263628943782511
 30
0.0
 11
46.353861880705068
 21
25.89220037235394
 31
0.0
  0
LINE
  5
B75
  8
0
 10
46.949099975943149
 20
26.41220037235394
 30
0.0
 11
47.09862378546697
 21
26.41220037235394
 31
0.0
  0
LINE
  5
B76
  8
0
 10
46.502433309276498
 20
26.41220037235394
 30
0.0
 11
46.651957118800297
 21
26.41220037235394
 31
0.0
  0
LINE
  5
B77
  8
0
 10
47.395766642609821
 20
26.41220037235394
 30
0.0
 11
47.545290452133621
 21
26.41220037235394
 31
0.0
  0
LINE
  5
B78
  8
0
 10
47.84243330927648
 20
26.41220037235394
 30
0.0
 11
47.9919571188003
 21
26.41220037235394
 31
0.0
  0
LINE
  5
B79
  8
0
 10
48.289099975943152
 20
26.41220037235394
 30
0.0
 11
48.438623785466952
 21
26.41220037235394
 31
0.0
  0
LINE
  5
B7A
  8
0
 10
48.735766642609818
 20
26.41220037235394
 30
0.0
 11
48.885290452133631
 21
26.41220037235394
 31
0.0
  0
LINE
  5
B7B
  8
0
 10
49.18243330927649
 20
26.41220037235394
 30
0.0
 11
49.331957118800297
 21
26.41220037235394
 31
0.0
  0
LINE
  5
B7C
  8
0
 10
49.629099975943163
 20
26.41220037235394
 30
0.0
 11
49.778623785466962
 21
26.41220037235394
 31
0.0
  0
LINE
  5
B7D
  8
0
 10
50.075766642609821
 20
26.41220037235394
 30
0.0
 11
50.225290452133642
 21
26.41220037235394
 31
0.0
  0
LINE
  5
B7E
  8
0
 10
50.522433309276487
 20
26.41220037235394
 30
0.0
 11
50.671957118800293
 21
26.41220037235394
 31
0.0
  0
LINE
  5
B7F
  8
0
 10
50.969099975943152
 20
26.41220037235394
 30
0.0
 11
51.118623785466959
 21
26.41220037235394
 31
0.0
  0
LINE
  5
B80
  8
0
 10
51.415766642609817
 20
26.41220037235394
 30
0.0
 11
51.565290452133638
 21
26.41220037235394
 31
0.0
  0
LINE
  5
B81
  8
0
 10
51.86243330927649
 20
26.41220037235394
 30
0.0
 11
52.011957118800289
 21
26.41220037235394
 31
0.0
  0
LINE
  5
B82
  8
0
 10
52.309099975943163
 20
26.41220037235394
 30
0.0
 11
52.458623785466962
 21
26.41220037235394
 31
0.0
  0
LINE
  5
B83
  8
0
 10
52.755766642609828
 20
26.41220037235394
 30
0.0
 11
52.905290452133642
 21
26.41220037235394
 31
0.0
  0
LINE
  5
BDD
  8
0
 10
46.353861880705068
 20
26.263628943782511
 30
0.0
 11
46.502433309276498
 21
26.41220037235394
 31
0.0
  0
LINE
  5
BDE
  8
0
 10
46.651957118800297
 20
26.41220037235394
 30
0.0
 11
46.800528547371691
 21
26.263628943782489
 31
0.0
  0
LINE
  5
BDF
  8
0
 10
47.09862378546692
 20
26.41220037235394
 30
0.0
 11
47.247195214038328
 21
26.263628943782489
 31
0.0
  0
LINE
  5
BE0
  8
0
 10
46.800528547371691
 20
26.263628943782511
 30
0.0
 11
46.94909997594312
 21
26.41220037235394
 31
0.0
  0
LINE
  5
BE1
  8
0
 10
47.54529045213355
 20
26.41220037235394
 30
0.0
 11
47.693861880704951
 21
26.263628943782489
 31
0.0
  0
LINE
  5
BE2
  8
0
 10
47.247195214038328
 20
26.263628943782511
 30
0.0
 11
47.39576664260975
 21
26.41220037235394
 31
0.0
  0
LINE
  5
BE3
  8
0
 10
47.991957118800187
 20
26.41220037235394
 30
0.0
 11
48.140528547371588
 21
26.263628943782489
 31
0.0
  0
LINE
  5
BE4
  8
0
 10
47.693861880704951
 20
26.263628943782511
 30
0.0
 11
47.842433309276387
 21
26.41220037235394
 31
0.0
  0
LINE
  5
BE5
  8
0
 10
48.43862378546681
 20
26.41220037235394
 30
0.0
 11
48.587195214038218
 21
26.263628943782489
 31
0.0
  0
LINE
  5
BE6
  8
0
 10
48.140528547371588
 20
26.263628943782511
 30
0.0
 11
48.28909997594301
 21
26.41220037235394
 31
0.0
  0
LINE
  5
BE7
  8
0
 10
48.885290452133447
 20
26.41220037235394
 30
0.0
 11
49.033861880704841
 21
26.263628943782489
 31
0.0
  0
LINE
  5
BE8
  8
0
 10
48.587195214038218
 20
26.263628943782511
 30
0.0
 11
48.735766642609647
 21
26.41220037235394
 31
0.0
  0
LINE
  5
BE9
  8
0
 10
49.331957118800069
 20
26.41220037235394
 30
0.0
 11
49.480528547371478
 21
26.263628943782489
 31
0.0
  0
LINE
  5
BEA
  8
0
 10
49.033861880704841
 20
26.263628943782511
 30
0.0
 11
49.18243330927627
 21
26.41220037235394
 31
0.0
  0
LINE
  5
BEB
  8
0
 10
49.778623785466714
 20
26.41220037235394
 30
0.0
 11
49.9271952140381
 21
26.263628943782489
 31
0.0
  0
LINE
  5
BEC
  8
0
 10
49.480528547371478
 20
26.263628943782511
 30
0.0
 11
49.629099975942907
 21
26.41220037235394
 31
0.0
  0
LINE
  5
BED
  8
0
 10
50.225290452133329
 20
26.41220037235394
 30
0.0
 11
50.373861880704737
 21
26.263628943782489
 31
0.0
  0
LINE
  5
BEE
  8
0
 10
49.9271952140381
 20
26.263628943782511
 30
0.0
 11
50.075766642609537
 21
26.41220037235394
 31
0.0
  0
LINE
  5
BEF
  8
0
 10
50.671957118799959
 20
26.41220037235394
 30
0.0
 11
50.820528547371367
 21
26.263628943782489
 31
0.0
  0
LINE
  5
BF0
  8
0
 10
50.373861880704737
 20
26.263628943782511
 30
0.0
 11
50.52243330927616
 21
26.41220037235394
 31
0.0
  0
LINE
  5
BF1
  8
0
 10
51.118623785466603
 20
26.41220037235394
 30
0.0
 11
51.26719521403799
 21
26.263628943782489
 31
0.0
  0
LINE
  5
BF2
  8
0
 10
50.820528547371367
 20
26.263628943782511
 30
0.0
 11
50.969099975942797
 21
26.41220037235394
 31
0.0
  0
LINE
  5
BF3
  8
0
 10
51.565290452133219
 20
26.41220037235394
 30
0.0
 11
51.713861880704627
 21
26.263628943782489
 31
0.0
  0
LINE
  5
BF4
  8
0
 10
51.26719521403799
 20
26.263628943782511
 30
0.0
 11
51.41576664260942
 21
26.41220037235394
 31
0.0
  0
LINE
  5
BF5
  8
0
 10
52.011957118799863
 20
26.41220037235394
 30
0.0
 11
52.16052854737125
 21
26.263628943782489
 31
0.0
  0
LINE
  5
BF6
  8
0
 10
51.713861880704627
 20
26.263628943782511
 30
0.0
 11
51.862433309276057
 21
26.41220037235394
 31
0.0
  0
LINE
  5
BF7
  8
0
 10
52.458623785466479
 20
26.41220037235394
 30
0.0
 11
52.607195214037887
 21
26.263628943782489
 31
0.0
  0
LINE
  5
BF8
  8
0
 10
52.16052854737125
 20
26.263628943782511
 30
0.0
 11
52.309099975942686
 21
26.41220037235394
 31
0.0
  0
LINE
  5
BF9
  8
0
 10
52.905290452133109
 20
26.41220037235394
 30
0.0
 11
53.053861880704517
 21
26.263628943782489
 31
0.0
  0
LINE
  5
BFA
  8
0
 10
52.607195214037887
 20
26.263628943782511
 30
0.0
 11
52.755766642609309
 21
26.41220037235394
 31
0.0
  0
LINE
  5
BFB
  8
0
 10
18.923481541191311
 20
26.2636289437825
 30
0.0
 11
19.072052969762741
 21
26.41220037235394
 31
0.0
  0
LINE
  5
BFC
  8
0
 10
19.221576779286529
 20
26.41220037235394
 30
0.0
 11
19.370148207857941
 21
26.263628943782479
 31
0.0
  0
LINE
  5
BFD
  8
0
 10
18.476814874524681
 20
26.2636289437825
 30
0.0
 11
18.625386303096111
 21
26.41220037235394
 31
0.0
  0
LINE
  5
BFE
  8
0
 10
18.77491011261991
 20
26.41220037235394
 30
0.0
 11
18.923481541191311
 21
26.263628943782479
 31
0.0
  0
LINE
  5
BFF
  8
0
 10
18.030148207858041
 20
26.2636289437825
 30
0.0
 11
18.178719636429481
 21
26.41220037235394
 31
0.0
  0
LINE
  5
C00
  8
0
 10
18.32824344595328
 20
26.41220037235394
 30
0.0
 11
18.476814874524681
 21
26.263628943782479
 31
0.0
  0
LINE
  5
C01
  8
0
 10
17.583481541191421
 20
26.2636289437825
 30
0.0
 11
17.732052969762851
 21
26.41220037235394
 31
0.0
  0
LINE
  5
C02
  8
0
 10
17.88157677928665
 20
26.41220037235394
 30
0.0
 11
18.030148207858041
 21
26.263628943782479
 31
0.0
  0
LINE
  5
C03
  8
0
 10
17.136814874524791
 20
26.2636289437825
 30
0.0
 11
17.28538630309621
 21
26.41220037235394
 31
0.0
  0
LINE
  5
C04
  8
0
 10
17.43491011262001
 20
26.41220037235394
 30
0.0
 11
17.583481541191421
 21
26.263628943782479
 31
0.0
  0
LINE
  5
C05
  8
0
 10
16.690148207858162
 20
26.2636289437825
 30
0.0
 11
16.838719636429591
 21
26.41220037235394
 31
0.0
  0
LINE
  5
C06
  8
0
 10
16.98824344595339
 20
26.41220037235394
 30
0.0
 11
17.136814874524791
 21
26.263628943782479
 31
0.0
  0
LINE
  5
C07
  8
0
 10
16.243481541191532
 20
26.2636289437825
 30
0.0
 11
16.392052969762961
 21
26.41220037235394
 31
0.0
  0
LINE
  5
C08
  8
0
 10
16.54157677928675
 20
26.41220037235394
 30
0.0
 11
16.690148207858162
 21
26.263628943782479
 31
0.0
  0
LINE
  5
C09
  8
0
 10
15.796814874524889
 20
26.2636289437825
 30
0.0
 11
15.945386303096329
 21
26.41220037235394
 31
0.0
  0
LINE
  5
C0A
  8
0
 10
16.094910112620131
 20
26.41220037235394
 30
0.0
 11
16.243481541191532
 21
26.263628943782479
 31
0.0
  0
LINE
  5
C0B
  8
0
 10
15.35014820785827
 20
26.2636289437825
 30
0.0
 11
15.4987196364297
 21
26.41220037235394
 31
0.0
  0
LINE
  5
C0C
  8
0
 10
15.648243445953501
 20
26.41220037235394
 30
0.0
 11
15.796814874524889
 21
26.263628943782479
 31
0.0
  0
LINE
  5
C0D
  8
0
 10
14.90348154119164
 20
26.2636289437825
 30
0.0
 11
15.052052969763061
 21
26.41220037235394
 31
0.0
  0
LINE
  5
C0E
  8
0
 10
15.20157677928686
 20
26.41220037235394
 30
0.0
 11
15.35014820785827
 21
26.263628943782479
 31
0.0
  0
LINE
  5
C0F
  8
0
 10
14.45681487452501
 20
26.2636289437825
 30
0.0
 11
14.60538630309644
 21
26.41220037235394
 31
0.0
  0
LINE
  5
C10
  8
0
 10
14.754910112620241
 20
26.41220037235394
 30
0.0
 11
14.90348154119164
 21
26.263628943782479
 31
0.0
  0
LINE
  5
C11
  8
0
 10
14.01014820785838
 20
26.2636289437825
 30
0.0
 11
14.15871963642981
 21
26.41220037235394
 31
0.0
  0
LINE
  5
C12
  8
0
 10
14.308243445953609
 20
26.41220037235394
 30
0.0
 11
14.45681487452501
 21
26.263628943782479
 31
0.0
  0
LINE
  5
C13
  8
0
 10
13.56348154119175
 20
26.2636289437825
 30
0.0
 11
13.71205296976318
 21
26.41220037235394
 31
0.0
  0
LINE
  5
C14
  8
0
 10
13.861576779286979
 20
26.41220037235394
 30
0.0
 11
14.01014820785838
 21
26.263628943782479
 31
0.0
  0
LINE
  5
C15
  8
0
 10
13.116814874525121
 20
26.2636289437825
 30
0.0
 11
13.26538630309655
 21
26.41220037235394
 31
0.0
  0
LINE
  5
C16
  8
0
 10
13.414910112620349
 20
26.41220037235394
 30
0.0
 11
13.56348154119175
 21
26.263628943782479
 31
0.0
  0
LINE
  5
C17
  8
0
 10
12.968243445953711
 20
26.41220037235394
 30
0.0
 11
13.116814874525121
 21
26.263628943782479
 31
0.0
  0
LINE
  5
C18
  8
0
 10
12.670148207858491
 20
26.2636289437825
 30
0.0
 11
12.81871963642992
 21
26.41220037235394
 31
0.0
  0
LINE
  5
C19
  8
0
 10
19.072052969763249
 20
26.41220037235394
 30
0.0
 11
19.221576779287059
 21
26.41220037235394
 31
0.0
  0
LINE
  5
C1A
  8
0
 10
18.625386303096569
 20
26.41220037235394
 30
0.0
 11
18.77491011262039
 21
26.41220037235394
 31
0.0
  0
LINE
  5
C1B
  8
0
 10
18.178719636429921
 20
26.41220037235394
 30
0.0
 11
18.328243445953721
 21
26.41220037235394
 31
0.0
  0
LINE
  5
C1C
  8
0
 10
17.732052969763242
 20
26.41220037235394
 30
0.0
 11
17.881576779287059
 21
26.41220037235394
 31
0.0
  0
LINE
  5
C1D
  8
0
 10
17.285386303096569
 20
26.41220037235394
 30
0.0
 11
17.434910112620379
 21
26.41220037235394
 31
0.0
  0
LINE
  5
C1E
  8
0
 10
16.838719636429911
 20
26.41220037235394
 30
0.0
 11
16.98824344595371
 21
26.41220037235394
 31
0.0
  0
LINE
  5
C1F
  8
0
 10
16.392052969763238
 20
26.41220037235394
 30
0.0
 11
16.541576779287048
 21
26.41220037235394
 31
0.0
  0
LINE
  5
C20
  8
0
 10
15.94538630309658
 20
26.41220037235394
 30
0.0
 11
16.094910112620379
 21
26.41220037235394
 31
0.0
  0
LINE
  5
C21
  8
0
 10
15.498719636429909
 20
26.41220037235394
 30
0.0
 11
15.648243445953719
 21
26.41220037235394
 31
0.0
  0
LINE
  5
C22
  8
0
 10
15.05205296976324
 20
26.41220037235394
 30
0.0
 11
15.20157677928705
 21
26.41220037235394
 31
0.0
  0
LINE
  5
C23
  8
0
 10
14.60538630309658
 20
26.41220037235394
 30
0.0
 11
14.754910112620379
 21
26.41220037235394
 31
0.0
  0
LINE
  5
C24
  8
0
 10
14.158719636429909
 20
26.41220037235394
 30
0.0
 11
14.308243445953719
 21
26.41220037235394
 31
0.0
  0
LINE
  5
C25
  8
0
 10
13.712052969763249
 20
26.41220037235394
 30
0.0
 11
13.86157677928705
 21
26.41220037235394
 31
0.0
  0
LINE
  5
C26
  8
0
 10
12.81871963642992
 20
26.41220037235394
 30
0.0
 11
12.968243445953711
 21
26.41220037235394
 31
0.0
  0
LINE
  5
C27
  8
0
 10
13.26538630309658
 20
26.41220037235394
 30
0.0
 11
13.41491011262039
 21
26.41220037235394
 31
0.0
  0
LINE
  5
C66
  8
3
 10
13.116814874525121
 20
51.847643950552133
 30
0.0
 11
13.116814874525121
 21
55.190191216070048
 31
0.0
  0
LINE
  5
C67
  8
3
 10
13.56348154119175
 20
51.2413555339064
 30
0.0
 11
13.56348154119175
 21
55.796479632715787
 31
0.0
  0
LINE
  5
C68
  8
3
 10
14.01014820785838
 20
50.838917583311179
 30
0.0
 11
14.01014820785838
 21
56.198917583311001
 31
0.0
  0
LINE
  5
C69
  8
3
 10
14.45681487452501
 20
50.556066103927009
 30
0.0
 11
14.45681487452501
 21
56.481769062695172
 31
0.0
  0
LINE
  5
C6A
  8
3
 10
14.90348154119164
 20
50.360507294011249
 30
0.0
 11
14.90348154119164
 21
56.677327872610938
 31
0.0
  0
LINE
  5
C6B
  8
3
 10
15.35014820785827
 20
50.236601327981688
 30
0.0
 11
15.35014820785827
 21
56.801233838640492
 31
0.0
  0
LINE
  5
C6C
  8
3
 10
15.796814874524889
 20
50.176370317793058
 30
0.0
 11
15.796814874524889
 21
56.861464848829122
 31
0.0
  0
LINE
  5
C6D
  8
3
 10
16.243481541191532
 20
50.176370317793022
 30
0.0
 11
16.243481541191532
 21
56.861464848829158
 31
0.0
  0
LINE
  5
C6E
  8
3
 10
16.690148207858162
 20
50.236601327981568
 30
0.0
 11
16.690148207858162
 21
56.801233838640613
 31
0.0
  0
LINE
  5
C6F
  8
3
 10
17.136814874524791
 20
50.360507294011057
 30
0.0
 11
17.136814874524791
 21
56.67732787261113
 31
0.0
  0
LINE
  5
C70
  8
3
 10
17.583481541191421
 20
50.556066103926732
 30
0.0
 11
17.583481541191421
 21
56.481769062695449
 31
0.0
  0
LINE
  5
C71
  8
3
 10
18.030148207858041
 20
50.838917583310767
 30
0.0
 11
18.030148207858041
 21
56.198917583311413
 31
0.0
  0
LINE
  5
C72
  8
3
 10
18.476814874524681
 20
51.241355533905818
 30
0.0
 11
18.476814874524681
 21
55.79647963271637
 31
0.0
  0
LINE
  5
C73
  8
3
 10
18.923481541191311
 20
51.847643950551188
 30
0.0
 11
18.923481541191311
 21
55.190191216070993
 31
0.0
  0
LINE
  5
C76
  8
3
 10
17.691421840618371
 20
56.422250916643918
 30
0.0
 11
14.34887457509859
 21
56.422250916643918
 31
0.0
  0
LINE
  5
C77
  8
3
 10
18.297710257263759
 20
55.975584249977281
 30
0.0
 11
13.7425861584532
 21
55.975584249977281
 31
0.0
  0
LINE
  5
C78
  8
3
 10
18.700148207858799
 20
55.528917583310658
 30
0.0
 11
13.34014820785816
 21
55.528917583310658
 31
0.0
  0
LINE
  5
C79
  8
3
 10
18.982999687242849
 20
55.082250916644028
 30
0.0
 11
13.05729672847411
 21
55.082250916644028
 31
0.0
  0
LINE
  5
C7A
  8
3
 10
19.178558497158519
 20
54.635584249977398
 30
0.0
 11
12.86173791855844
 21
54.635584249977398
 31
0.0
  0
LINE
  5
C7B
  8
3
 10
19.302464463187999
 20
54.188917583310769
 30
0.0
 11
12.73783195252896
 21
54.188917583310769
 31
0.0
  0
LINE
  5
C7C
  8
3
 10
19.362695473376561
 20
53.742250916644132
 30
0.0
 11
12.677600942340399
 21
53.742250916644132
 31
0.0
  0
LINE
  5
C7D
  8
3
 10
19.362695473376501
 20
53.295584249977509
 30
0.0
 11
12.67760094234046
 21
53.295584249977509
 31
0.0
  0
LINE
  5
C7E
  8
3
 10
19.302464463187889
 20
52.848917583310879
 30
0.0
 11
12.73783195252908
 21
52.848917583310879
 31
0.0
  0
LINE
  5
C7F
  8
3
 10
19.178558497158321
 20
52.402250916644249
 30
0.0
 11
12.86173791855864
 21
52.402250916644249
 31
0.0
  0
LINE
  5
C80
  8
3
 10
18.982999687242572
 20
51.955584249977619
 30
0.0
 11
13.0572967284744
 21
51.955584249977619
 31
0.0
  0
LINE
  5
C81
  8
3
 10
18.700148207858401
 20
51.508917583310982
 30
0.0
 11
13.34014820785856
 21
51.508917583310982
 31
0.0
  0
LINE
  5
C82
  8
3
 10
18.29771025726318
 20
51.062250916644359
 30
0.0
 11
13.74258615845379
 21
51.062250916644359
 31
0.0
  0
LINE
  5
C83
  8
3
 10
17.691421840617441
 20
50.615584249977729
 30
0.0
 11
14.348874575099529
 21
50.615584249977729
 31
0.0
  0
LINE
  5
C8A
  8
3
 10
15.945386303096329
 20
50.31748901188255
 30
0.0
 11
15.796814874524889
 21
50.176370317793058
 31
0.0
  0
LINE
  5
C8B
  8
3
 10
16.094910112620131
 20
50.31748901188255
 30
0.0
 11
16.243481541191532
 21
50.176370317793022
 31
0.0
  0
LINE
  5
C8C
  8
3
 10
16.094910112620131
 20
50.467012821406342
 30
0.0
 11
16.243481541191532
 21
50.615584249977729
 31
0.0
  0
LINE
  5
C8D
  8
3
 10
15.945386303096329
 20
50.467012821406342
 30
0.0
 11
15.796814874524889
 21
50.615584249977729
 31
0.0
  0
LINE
  5
C8E
  8
3
 10
15.945386303096329
 20
50.467012821406342
 30
0.0
 11
15.945386303096329
 21
50.317489011882543
 31
0.0
  0
LINE
  5
C8F
  8
3
 10
16.094910112620131
 20
50.467012821406342
 30
0.0
 11
16.094910112620131
 21
50.31748901188255
 31
0.0
  0
LINE
  5
C92
  8
3
 10
15.945386303096329
 20
50.31748901188255
 30
0.0
 11
16.094910112620131
 21
50.31748901188255
 31
0.0
  0
LINE
  5
C93
  8
3
 10
15.945386303096329
 20
50.467012821406342
 30
0.0
 11
16.094910112620131
 21
50.467012821406342
 31
0.0
  0
LINE
  5
C98
  8
3
 10
16.094910112620131
 20
50.913679488072958
 30
0.0
 11
16.243481541191532
 21
51.062250916644359
 31
0.0
  0
LINE
  5
C99
  8
3
 10
15.796814874524889
 20
51.062250916644359
 30
0.0
 11
15.945386303096329
 21
50.913679488072958
 31
0.0
  0
LINE
  5
C9A
  8
3
 10
15.945386303096329
 20
50.764155678549173
 30
0.0
 11
15.796814874524889
 21
50.615584249977729
 31
0.0
  0
LINE
  5
C9B
  8
3
 10
16.094910112620131
 20
50.764155678549173
 30
0.0
 11
16.243481541191532
 21
50.615584249977729
 31
0.0
  0
LINE
  5
C9C
  8
3
 10
16.094910112620131
 20
50.913679488072951
 30
0.0
 11
16.094910112620131
 21
50.76415567854918
 31
0.0
  0
LINE
  5
C9D
  8
3
 10
15.945386303096329
 20
50.913679488072958
 30
0.0
 11
15.945386303096329
 21
50.76415567854918
 31
0.0
  0
LINE
  5
C9E
  8
3
 10
15.945386303096329
 20
50.913679488072958
 30
0.0
 11
16.09491011262012
 21
50.913679488072951
 31
0.0
  0
LINE
  5
C9F
  8
3
 10
15.945386303096329
 20
50.76415567854918
 30
0.0
 11
16.094910112620131
 21
50.76415567854918
 31
0.0
  0
LINE
  5
CA2
  8
3
 10
15.945386303096329
 20
51.21082234521581
 30
0.0
 11
16.094910112620131
 21
51.21082234521581
 31
0.0
  0
LINE
  5
CA3
  8
3
 10
15.945386303096329
 20
51.360346154739602
 30
0.0
 11
16.09491011262012
 21
51.360346154739588
 31
0.0
  0
LINE
  5
CA4
  8
3
 10
15.945386303096329
 20
51.360346154739602
 30
0.0
 11
15.945386303096329
 21
51.21082234521581
 31
0.0
  0
LINE
  5
CA5
  8
3
 10
16.094910112620131
 20
51.360346154739588
 30
0.0
 11
16.094910112620131
 21
51.21082234521581
 31
0.0
  0
LINE
  5
CA6
  8
3
 10
16.094910112620131
 20
51.210822345215803
 30
0.0
 11
16.243481541191532
 21
51.062250916644359
 31
0.0
  0
LINE
  5
CA7
  8
3
 10
15.945386303096329
 20
51.210822345215803
 30
0.0
 11
15.796814874524889
 21
51.062250916644359
 31
0.0
  0
LINE
  5
CA8
  8
3
 10
15.796814874524889
 20
51.508917583310982
 30
0.0
 11
15.945386303096329
 21
51.360346154739602
 31
0.0
  0
LINE
  5
CA9
  8
3
 10
16.094910112620131
 20
51.360346154739602
 30
0.0
 11
16.243481541191532
 21
51.508917583310982
 31
0.0
  0
LINE
  5
CAA
  8
3
 10
15.945386303096329
 20
51.65748901188244
 30
0.0
 11
16.094910112620131
 21
51.65748901188244
 31
0.0
  0
LINE
  5
CAB
  8
3
 10
15.945386303096329
 20
51.807012821406218
 30
0.0
 11
16.09491011262012
 21
51.807012821406211
 31
0.0
  0
LINE
  5
CAC
  8
3
 10
15.945386303096329
 20
51.807012821406218
 30
0.0
 11
15.945386303096329
 21
51.65748901188244
 31
0.0
  0
LINE
  5
CAD
  8
3
 10
16.094910112620131
 20
51.807012821406211
 30
0.0
 11
16.094910112620131
 21
51.65748901188244
 31
0.0
  0
LINE
  5
CAE
  8
3
 10
16.094910112620131
 20
51.657489011882433
 30
0.0
 11
16.243481541191532
 21
51.508917583310982
 31
0.0
  0
LINE
  5
CAF
  8
3
 10
15.945386303096329
 20
51.657489011882433
 30
0.0
 11
15.796814874524889
 21
51.508917583310982
 31
0.0
  0
LINE
  5
CB0
  8
3
 10
15.796814874524889
 20
51.955584249977619
 30
0.0
 11
15.945386303096329
 21
51.807012821406218
 31
0.0
  0
LINE
  5
CB1
  8
3
 10
16.094910112620131
 20
51.807012821406218
 30
0.0
 11
16.243481541191532
 21
51.955584249977619
 31
0.0
  0
LINE
  5
CB2
  8
3
 10
15.945386303096329
 20
52.10415567854907
 30
0.0
 11
16.094910112620131
 21
52.10415567854907
 31
0.0
  0
LINE
  5
CB3
  8
3
 10
15.945386303096329
 20
52.253679488072848
 30
0.0
 11
16.09491011262012
 21
52.253679488072848
 31
0.0
  0
LINE
  5
CB4
  8
3
 10
15.945386303096329
 20
52.253679488072848
 30
0.0
 11
15.945386303096329
 21
52.10415567854907
 31
0.0
  0
LINE
  5
CB5
  8
3
 10
16.094910112620131
 20
52.253679488072848
 30
0.0
 11
16.094910112620131
 21
52.10415567854907
 31
0.0
  0
LINE
  5
CB6
  8
3
 10
16.094910112620131
 20
52.104155678549063
 30
0.0
 11
16.243481541191532
 21
51.955584249977619
 31
0.0
  0
LINE
  5
CB7
  8
3
 10
15.945386303096329
 20
52.104155678549063
 30
0.0
 11
15.796814874524889
 21
51.955584249977619
 31
0.0
  0
LINE
  5
CB8
  8
3
 10
15.796814874524889
 20
52.402250916644249
 30
0.0
 11
15.945386303096329
 21
52.253679488072848
 31
0.0
  0
LINE
  5
CB9
  8
3
 10
16.094910112620131
 20
52.253679488072848
 30
0.0
 11
16.243481541191532
 21
52.402250916644249
 31
0.0
  0
LINE
  5
CBA
  8
3
 10
15.945386303096329
 20
52.550822345215693
 30
0.0
 11
16.094910112620131
 21
52.550822345215693
 31
0.0
  0
LINE
  5
CBB
  8
3
 10
15.945386303096329
 20
52.700346154739492
 30
0.0
 11
16.09491011262012
 21
52.700346154739478
 31
0.0
  0
LINE
  5
CBC
  8
3
 10
15.945386303096329
 20
52.700346154739492
 30
0.0
 11
15.945386303096329
 21
52.550822345215693
 31
0.0
  0
LINE
  5
CBD
  8
3
 10
16.094910112620131
 20
52.700346154739478
 30
0.0
 11
16.094910112620131
 21
52.550822345215693
 31
0.0
  0
LINE
  5
CBE
  8
3
 10
16.094910112620131
 20
52.550822345215693
 30
0.0
 11
16.243481541191532
 21
52.402250916644249
 31
0.0
  0
LINE
  5
CBF
  8
3
 10
15.945386303096329
 20
52.550822345215693
 30
0.0
 11
15.796814874524889
 21
52.402250916644249
 31
0.0
  0
LINE
  5
CC0
  8
3
 10
15.796814874524889
 20
52.848917583310879
 30
0.0
 11
15.945386303096329
 21
52.700346154739492
 31
0.0
  0
LINE
  5
CC1
  8
3
 10
16.094910112620131
 20
52.700346154739492
 30
0.0
 11
16.243481541191532
 21
52.848917583310879
 31
0.0
  0
LINE
  5
CC2
  8
3
 10
15.945386303096329
 20
52.99748901188233
 30
0.0
 11
16.094910112620131
 21
52.99748901188233
 31
0.0
  0
LINE
  5
CC3
  8
3
 10
15.945386303096329
 20
53.147012821406108
 30
0.0
 11
16.09491011262012
 21
53.147012821406101
 31
0.0
  0
LINE
  5
CC4
  8
3
 10
15.945386303096329
 20
53.147012821406108
 30
0.0
 11
15.945386303096329
 21
52.99748901188233
 31
0.0
  0
LINE
  5
CC5
  8
3
 10
16.094910112620131
 20
53.147012821406101
 30
0.0
 11
16.094910112620131
 21
52.99748901188233
 31
0.0
  0
LINE
  5
CC6
  8
3
 10
16.094910112620131
 20
52.997489011882323
 30
0.0
 11
16.243481541191532
 21
52.848917583310879
 31
0.0
  0
LINE
  5
CC7
  8
3
 10
15.945386303096329
 20
52.997489011882323
 30
0.0
 11
15.796814874524889
 21
52.848917583310879
 31
0.0
  0
LINE
  5
CC8
  8
3
 10
15.796814874524889
 20
53.295584249977509
 30
0.0
 11
15.945386303096329
 21
53.147012821406108
 31
0.0
  0
LINE
  5
CC9
  8
3
 10
16.094910112620131
 20
53.147012821406108
 30
0.0
 11
16.243481541191532
 21
53.295584249977509
 31
0.0
  0
LINE
  5
CCA
  8
3
 10
15.945386303096329
 20
53.44415567854896
 30
0.0
 11
16.094910112620131
 21
53.44415567854896
 31
0.0
  0
LINE
  5
CCB
  8
3
 10
15.945386303096329
 20
53.593679488072752
 30
0.0
 11
16.09491011262012
 21
53.593679488072738
 31
0.0
  0
LINE
  5
CCC
  8
3
 10
15.945386303096329
 20
53.593679488072752
 30
0.0
 11
15.945386303096329
 21
53.44415567854896
 31
0.0
  0
LINE
  5
CCD
  8
3
 10
16.094910112620131
 20
53.593679488072738
 30
0.0
 11
16.094910112620131
 21
53.44415567854896
 31
0.0
  0
LINE
  5
CCE
  8
3
 10
16.094910112620131
 20
53.444155678548952
 30
0.0
 11
16.243481541191532
 21
53.295584249977509
 31
0.0
  0
LINE
  5
CCF
  8
3
 10
15.945386303096329
 20
53.444155678548952
 30
0.0
 11
15.796814874524889
 21
53.295584249977509
 31
0.0
  0
LINE
  5
CD0
  8
3
 10
15.796814874524889
 20
53.742250916644132
 30
0.0
 11
15.945386303096329
 21
53.593679488072752
 31
0.0
  0
LINE
  5
CD1
  8
3
 10
16.094910112620131
 20
53.593679488072752
 30
0.0
 11
16.243481541191532
 21
53.742250916644132
 31
0.0
  0
LINE
  5
CD2
  8
3
 10
15.945386303096329
 20
53.890822345215589
 30
0.0
 11
16.094910112620131
 21
53.890822345215589
 31
0.0
  0
LINE
  5
CD3
  8
3
 10
15.945386303096329
 20
54.040346154739368
 30
0.0
 11
16.09491011262012
 21
54.04034615473936
 31
0.0
  0
LINE
  5
CD4
  8
3
 10
15.945386303096329
 20
54.040346154739368
 30
0.0
 11
15.945386303096329
 21
53.890822345215589
 31
0.0
  0
LINE
  5
CD5
  8
3
 10
16.094910112620131
 20
54.04034615473936
 30
0.0
 11
16.094910112620131
 21
53.890822345215589
 31
0.0
  0
LINE
  5
CD6
  8
3
 10
16.094910112620131
 20
53.890822345215582
 30
0.0
 11
16.243481541191532
 21
53.742250916644132
 31
0.0
  0
LINE
  5
CD7
  8
3
 10
15.945386303096329
 20
53.890822345215582
 30
0.0
 11
15.796814874524889
 21
53.742250916644132
 31
0.0
  0
LINE
  5
CD8
  8
3
 10
15.796814874524889
 20
54.188917583310769
 30
0.0
 11
15.945386303096329
 21
54.040346154739368
 31
0.0
  0
LINE
  5
CD9
  8
3
 10
16.094910112620131
 20
54.040346154739368
 30
0.0
 11
16.243481541191532
 21
54.188917583310769
 31
0.0
  0
LINE
  5
CDA
  8
3
 10
15.945386303096329
 20
54.337489011882219
 30
0.0
 11
16.094910112620131
 21
54.337489011882219
 31
0.0
  0
LINE
  5
CDB
  8
3
 10
15.945386303096329
 20
54.487012821405997
 30
0.0
 11
16.09491011262012
 21
54.487012821405997
 31
0.0
  0
LINE
  5
CDC
  8
3
 10
15.945386303096329
 20
54.487012821405997
 30
0.0
 11
15.945386303096329
 21
54.337489011882219
 31
0.0
  0
LINE
  5
CDD
  8
3
 10
16.094910112620131
 20
54.487012821405997
 30
0.0
 11
16.094910112620131
 21
54.337489011882219
 31
0.0
  0
LINE
  5
CDE
  8
3
 10
16.094910112620131
 20
54.337489011882212
 30
0.0
 11
16.243481541191532
 21
54.188917583310769
 31
0.0
  0
LINE
  5
CDF
  8
3
 10
15.945386303096329
 20
54.337489011882212
 30
0.0
 11
15.796814874524889
 21
54.188917583310769
 31
0.0
  0
LINE
  5
CE0
  8
3
 10
15.796814874524889
 20
54.635584249977398
 30
0.0
 11
15.945386303096329
 21
54.487012821405997
 31
0.0
  0
LINE
  5
CE1
  8
3
 10
16.094910112620131
 20
54.487012821405997
 30
0.0
 11
16.243481541191532
 21
54.635584249977398
 31
0.0
  0
LINE
  5
CE2
  8
3
 10
15.945386303096329
 20
54.784155678548842
 30
0.0
 11
16.094910112620131
 21
54.784155678548842
 31
0.0
  0
LINE
  5
CE3
  8
3
 10
15.945386303096329
 20
54.933679488072627
 30
0.0
 11
16.09491011262012
 21
54.933679488072627
 31
0.0
  0
LINE
  5
CE4
  8
3
 10
15.945386303096329
 20
54.933679488072627
 30
0.0
 11
15.945386303096329
 21
54.784155678548842
 31
0.0
  0
LINE
  5
CE5
  8
3
 10
16.094910112620131
 20
54.933679488072627
 30
0.0
 11
16.094910112620131
 21
54.784155678548842
 31
0.0
  0
LINE
  5
CE6
  8
3
 10
16.094910112620131
 20
54.784155678548842
 30
0.0
 11
16.243481541191532
 21
54.635584249977398
 31
0.0
  0
LINE
  5
CE7
  8
3
 10
15.945386303096329
 20
54.784155678548842
 30
0.0
 11
15.796814874524889
 21
54.635584249977398
 31
0.0
  0
LINE
  5
CE8
  8
3
 10
15.796814874524889
 20
55.082250916644028
 30
0.0
 11
15.945386303096329
 21
54.933679488072627
 31
0.0
  0
LINE
  5
CE9
  8
3
 10
16.094910112620131
 20
54.933679488072627
 30
0.0
 11
16.243481541191532
 21
55.082250916644028
 31
0.0
  0
LINE
  5
CEA
  8
3
 10
15.945386303096329
 20
55.230822345215479
 30
0.0
 11
16.094910112620131
 21
55.230822345215479
 31
0.0
  0
LINE
  5
CEB
  8
3
 10
15.945386303096329
 20
55.380346154739257
 30
0.0
 11
16.09491011262012
 21
55.38034615473925
 31
0.0
  0
LINE
  5
CEC
  8
3
 10
15.945386303096329
 20
55.380346154739257
 30
0.0
 11
15.945386303096329
 21
55.230822345215479
 31
0.0
  0
LINE
  5
CED
  8
3
 10
16.094910112620131
 20
55.38034615473925
 30
0.0
 11
16.094910112620131
 21
55.230822345215479
 31
0.0
  0
LINE
  5
CEE
  8
3
 10
16.094910112620131
 20
55.230822345215472
 30
0.0
 11
16.243481541191532
 21
55.082250916644028
 31
0.0
  0
LINE
  5
CEF
  8
3
 10
15.945386303096329
 20
55.230822345215472
 30
0.0
 11
15.796814874524889
 21
55.082250916644028
 31
0.0
  0
LINE
  5
CF0
  8
3
 10
15.796814874524889
 20
55.528917583310658
 30
0.0
 11
15.945386303096329
 21
55.380346154739257
 31
0.0
  0
LINE
  5
CF1
  8
3
 10
16.094910112620131
 20
55.380346154739257
 30
0.0
 11
16.243481541191532
 21
55.528917583310658
 31
0.0
  0
LINE
  5
CF2
  8
3
 10
15.945386303096329
 20
55.677489011882109
 30
0.0
 11
16.094910112620131
 21
55.677489011882109
 31
0.0
  0
LINE
  5
CF3
  8
3
 10
15.945386303096329
 20
55.827012821405901
 30
0.0
 11
16.09491011262012
 21
55.827012821405887
 31
0.0
  0
LINE
  5
CF4
  8
3
 10
15.945386303096329
 20
55.827012821405901
 30
0.0
 11
15.945386303096329
 21
55.677489011882109
 31
0.0
  0
LINE
  5
CF5
  8
3
 10
16.094910112620131
 20
55.827012821405887
 30
0.0
 11
16.094910112620131
 21
55.677489011882109
 31
0.0
  0
LINE
  5
CF6
  8
3
 10
16.094910112620131
 20
55.677489011882102
 30
0.0
 11
16.243481541191532
 21
55.528917583310658
 31
0.0
  0
LINE
  5
CF7
  8
3
 10
15.945386303096329
 20
55.677489011882102
 30
0.0
 11
15.796814874524889
 21
55.528917583310658
 31
0.0
  0
LINE
  5
CF8
  8
3
 10
15.796814874524889
 20
55.975584249977281
 30
0.0
 11
15.945386303096329
 21
55.827012821405901
 31
0.0
  0
LINE
  5
CF9
  8
3
 10
16.094910112620131
 20
55.827012821405901
 30
0.0
 11
16.243481541191532
 21
55.975584249977281
 31
0.0
  0
LINE
  5
CFA
  8
3
 10
15.94538630309691
 20
56.273679488073121
 30
0.0
 11
16.094910112620699
 21
56.273679488073078
 31
0.0
  0
LINE
  5
CFB
  8
3
 10
15.945386303096869
 20
56.124155678549343
 30
0.0
 11
16.094910112620671
 21
56.124155678549307
 31
0.0
  0
LINE
  5
CFC
  8
3
 10
15.945386303096869
 20
56.124155678549343
 30
0.0
 11
15.94538630309691
 21
56.273679488073121
 31
0.0
  0
LINE
  5
CFD
  8
3
 10
16.094910112620671
 20
56.124155678549307
 30
0.0
 11
16.094910112620699
 21
56.273679488073078
 31
0.0
  0
LINE
  5
CFE
  8
3
 10
16.094910112620699
 20
56.273679488073093
 30
0.0
 11
16.243481541192139
 21
56.422250916644501
 31
0.0
  0
LINE
  5
CFF
  8
3
 10
15.94538630309691
 20
56.273679488073128
 30
0.0
 11
15.796814874525509
 21
56.4222509166446
 31
0.0
  0
LINE
  5
D00
  8
3
 10
15.79681487452541
 20
55.97558424997797
 30
0.0
 11
15.94538630309688
 21
56.124155678549343
 31
0.0
  0
LINE
  5
D01
  8
3
 10
16.094910112620671
 20
56.1241556785493
 30
0.0
 11
16.24348154119204
 21
55.975584249977878
 31
0.0
  0
LINE
  5
D02
  8
3
 10
15.945386303096971
 20
56.570822345215952
 30
0.0
 11
16.09491011262077
 21
56.570822345215923
 31
0.0
  0
LINE
  5
D03
  8
3
 10
15.945386303096999
 20
56.720346154739751
 30
0.0
 11
16.094910112620799
 21
56.720346154739723
 31
0.0
  0
LINE
  5
D04
  8
3
 10
16.09491011262077
 20
56.570822345215923
 30
0.0
 11
16.094910112620799
 21
56.720346154739723
 31
0.0
  0
LINE
  5
D05
  8
3
 10
15.945386303096971
 20
56.570822345215952
 30
0.0
 11
15.945386303096999
 21
56.720346154739758
 31
0.0
  0
LINE
  5
D06
  8
3
 10
15.945386303096971
 20
56.570822345215952
 30
0.0
 11
15.796814874525509
 21
56.4222509166446
 31
0.0
  0
LINE
  5
D07
  8
3
 10
16.09491011262077
 20
56.570822345215923
 30
0.0
 11
16.243481541192139
 21
56.422250916644501
 31
0.0
  0
LINE
  5
D08
  8
3
 10
16.094910112620799
 20
56.720346154739723
 30
0.0
 11
16.243481541192232
 21
56.861464848829222
 31
0.0
  0
LINE
  5
D09
  8
3
 10
15.945386303096999
 20
56.720346154739751
 30
0.0
 11
15.7968148745256
 21
56.861464848829257
 31
0.0
  0
LINE
  5
D0A
  8
3
 10
16.5415767792874
 20
56.570822345215923
 30
0.0
 11
16.690148207858769
 21
56.422250916644501
 31
0.0
  0
LINE
  5
D0B
  8
3
 10
16.39205296976359
 20
56.570822345215952
 30
0.0
 11
16.243481541192139
 21
56.422250916644593
 31
0.0
  0
LINE
  5
D0C
  8
3
 10
16.392052969763601
 20
56.570822345215952
 30
0.0
 11
16.5415767792874
 21
56.570822345215923
 31
0.0
  0
LINE
  5
D0D
  8
3
 10
16.541576779287301
 20
56.124155678549293
 30
0.0
 11
16.69014820785867
 21
55.975584249977871
 31
0.0
  0
LINE
  5
D0E
  8
3
 10
16.24348154119204
 20
55.975584249977963
 30
0.0
 11
16.392052969763501
 21
56.124155678549329
 31
0.0
  0
LINE
  5
D0F
  8
3
 10
16.39205296976354
 20
56.273679488073121
 30
0.0
 11
16.243481541192139
 21
56.422250916644593
 31
0.0
  0
LINE
  5
D10
  8
3
 10
16.541576779287329
 20
56.273679488073078
 30
0.0
 11
16.690148207858769
 21
56.422250916644501
 31
0.0
  0
LINE
  5
D11
  8
3
 10
16.541576779287301
 20
56.1241556785493
 30
0.0
 11
16.541576779287329
 21
56.273679488073071
 31
0.0
  0
LINE
  5
D12
  8
3
 10
16.392052969763501
 20
56.124155678549329
 30
0.0
 11
16.39205296976354
 21
56.273679488073107
 31
0.0
  0
LINE
  5
D13
  8
3
 10
16.392052969763501
 20
56.124155678549329
 30
0.0
 11
16.541576779287301
 21
56.1241556785493
 31
0.0
  0
LINE
  5
D14
  8
3
 10
16.39205296976354
 20
56.273679488073107
 30
0.0
 11
16.541576779287329
 21
56.273679488073071
 31
0.0
  0
LINE
  5
D15
  8
3
 10
16.54157677928675
 20
55.827012821405887
 30
0.0
 11
16.690148207858162
 21
55.975584249977281
 31
0.0
  0
LINE
  5
D16
  8
3
 10
16.243481541191532
 20
55.975584249977281
 30
0.0
 11
16.392052969762961
 21
55.827012821405887
 31
0.0
  0
LINE
  5
D17
  8
3
 10
16.392052969762961
 20
55.677489011882102
 30
0.0
 11
16.243481541191532
 21
55.528917583310651
 31
0.0
  0
LINE
  5
D18
  8
3
 10
16.54157677928675
 20
55.677489011882102
 30
0.0
 11
16.690148207858162
 21
55.528917583310651
 31
0.0
  0
LINE
  5
D19
  8
3
 10
16.54157677928675
 20
55.82701282140588
 30
0.0
 11
16.54157677928675
 21
55.677489011882102
 31
0.0
  0
LINE
  5
D1A
  8
3
 10
16.392052969762961
 20
55.827012821405887
 30
0.0
 11
16.392052969762961
 21
55.677489011882102
 31
0.0
  0
LINE
  5
D1B
  8
3
 10
16.392052969762961
 20
55.827012821405887
 30
0.0
 11
16.54157677928675
 21
55.82701282140588
 31
0.0
  0
LINE
  5
D1C
  8
3
 10
16.392052969762961
 20
55.677489011882102
 30
0.0
 11
16.54157677928675
 21
55.677489011882102
 31
0.0
  0
LINE
  5
D1D
  8
3
 10
16.54157677928675
 20
55.38034615473925
 30
0.0
 11
16.690148207858162
 21
55.528917583310651
 31
0.0
  0
LINE
  5
D1E
  8
3
 10
16.243481541191532
 20
55.528917583310651
 30
0.0
 11
16.392052969762961
 21
55.38034615473925
 31
0.0
  0
LINE
  5
D1F
  8
3
 10
16.392052969762961
 20
55.230822345215458
 30
0.0
 11
16.243481541191532
 21
55.082250916644021
 31
0.0
  0
LINE
  5
D20
  8
3
 10
16.54157677928675
 20
55.230822345215458
 30
0.0
 11
16.690148207858162
 21
55.082250916644021
 31
0.0
  0
LINE
  5
D21
  8
3
 10
16.54157677928675
 20
55.38034615473925
 30
0.0
 11
16.54157677928675
 21
55.230822345215472
 31
0.0
  0
LINE
  5
D22
  8
3
 10
16.392052969762961
 20
55.38034615473925
 30
0.0
 11
16.392052969762961
 21
55.230822345215472
 31
0.0
  0
LINE
  5
D23
  8
3
 10
16.392052969762961
 20
55.38034615473925
 30
0.0
 11
16.54157677928675
 21
55.38034615473925
 31
0.0
  0
LINE
  5
D24
  8
3
 10
16.392052969762961
 20
55.230822345215472
 30
0.0
 11
16.54157677928675
 21
55.230822345215472
 31
0.0
  0
LINE
  5
D25
  8
3
 10
16.54157677928675
 20
54.933679488072627
 30
0.0
 11
16.690148207858162
 21
55.082250916644021
 31
0.0
  0
LINE
  5
D26
  8
3
 10
16.243481541191532
 20
55.082250916644021
 30
0.0
 11
16.392052969762961
 21
54.933679488072627
 31
0.0
  0
LINE
  5
D27
  8
3
 10
16.392052969762961
 20
54.784155678548842
 30
0.0
 11
16.243481541191532
 21
54.635584249977391
 31
0.0
  0
LINE
  5
D28
  8
3
 10
16.54157677928675
 20
54.784155678548842
 30
0.0
 11
16.690148207858162
 21
54.635584249977391
 31
0.0
  0
LINE
  5
D29
  8
3
 10
16.54157677928675
 20
54.93367948807262
 30
0.0
 11
16.54157677928675
 21
54.784155678548842
 31
0.0
  0
LINE
  5
D2A
  8
3
 10
16.392052969762961
 20
54.933679488072627
 30
0.0
 11
16.392052969762961
 21
54.784155678548842
 31
0.0
  0
LINE
  5
D2B
  8
3
 10
16.392052969762961
 20
54.933679488072627
 30
0.0
 11
16.54157677928675
 21
54.93367948807262
 31
0.0
  0
LINE
  5
D2C
  8
3
 10
16.392052969762961
 20
54.784155678548842
 30
0.0
 11
16.54157677928675
 21
54.784155678548842
 31
0.0
  0
LINE
  5
D2D
  8
3
 10
16.54157677928675
 20
54.487012821405997
 30
0.0
 11
16.690148207858162
 21
54.635584249977391
 31
0.0
  0
LINE
  5
D2E
  8
3
 10
16.243481541191532
 20
54.635584249977391
 30
0.0
 11
16.392052969762961
 21
54.487012821405997
 31
0.0
  0
LINE
  5
D2F
  8
3
 10
16.392052969762961
 20
54.337489011882198
 30
0.0
 11
16.243481541191532
 21
54.188917583310761
 31
0.0
  0
LINE
  5
D30
  8
3
 10
16.54157677928675
 20
54.337489011882198
 30
0.0
 11
16.690148207858162
 21
54.188917583310761
 31
0.0
  0
LINE
  5
D31
  8
3
 10
16.54157677928675
 20
54.48701282140599
 30
0.0
 11
16.54157677928675
 21
54.337489011882212
 31
0.0
  0
LINE
  5
D32
  8
3
 10
16.392052969762961
 20
54.487012821405997
 30
0.0
 11
16.392052969762961
 21
54.337489011882212
 31
0.0
  0
LINE
  5
D33
  8
3
 10
16.392052969762961
 20
54.487012821405997
 30
0.0
 11
16.54157677928675
 21
54.48701282140599
 31
0.0
  0
LINE
  5
D34
  8
3
 10
16.392052969762961
 20
54.337489011882212
 30
0.0
 11
16.54157677928675
 21
54.337489011882212
 31
0.0
  0
LINE
  5
D35
  8
3
 10
16.54157677928675
 20
54.04034615473936
 30
0.0
 11
16.690148207858162
 21
54.188917583310761
 31
0.0
  0
LINE
  5
D36
  8
3
 10
16.243481541191532
 20
54.188917583310761
 30
0.0
 11
16.392052969762961
 21
54.04034615473936
 31
0.0
  0
LINE
  5
D37
  8
3
 10
16.392052969762961
 20
53.890822345215568
 30
0.0
 11
16.243481541191532
 21
53.742250916644132
 31
0.0
  0
LINE
  5
D38
  8
3
 10
16.54157677928675
 20
53.890822345215568
 30
0.0
 11
16.690148207858162
 21
53.742250916644132
 31
0.0
  0
LINE
  5
D39
  8
3
 10
16.54157677928675
 20
54.04034615473936
 30
0.0
 11
16.54157677928675
 21
53.890822345215582
 31
0.0
  0
LINE
  5
D3A
  8
3
 10
16.392052969762961
 20
54.04034615473936
 30
0.0
 11
16.392052969762961
 21
53.890822345215582
 31
0.0
  0
LINE
  5
D3B
  8
3
 10
16.392052969762961
 20
54.04034615473936
 30
0.0
 11
16.54157677928675
 21
54.04034615473936
 31
0.0
  0
LINE
  5
D3C
  8
3
 10
16.392052969762961
 20
53.890822345215582
 30
0.0
 11
16.54157677928675
 21
53.890822345215582
 31
0.0
  0
LINE
  5
D3D
  8
3
 10
16.54157677928675
 20
53.593679488072738
 30
0.0
 11
16.690148207858162
 21
53.742250916644132
 31
0.0
  0
LINE
  5
D3E
  8
3
 10
16.243481541191532
 20
53.742250916644132
 30
0.0
 11
16.392052969762961
 21
53.593679488072738
 31
0.0
  0
LINE
  5
D3F
  8
3
 10
16.392052969762961
 20
53.444155678548952
 30
0.0
 11
16.243481541191532
 21
53.295584249977502
 31
0.0
  0
LINE
  5
D40
  8
3
 10
16.54157677928675
 20
53.444155678548952
 30
0.0
 11
16.690148207858162
 21
53.295584249977502
 31
0.0
  0
LINE
  5
D41
  8
3
 10
16.54157677928675
 20
53.593679488072731
 30
0.0
 11
16.54157677928675
 21
53.444155678548952
 31
0.0
  0
LINE
  5
D42
  8
3
 10
16.392052969762961
 20
53.593679488072738
 30
0.0
 11
16.392052969762961
 21
53.444155678548952
 31
0.0
  0
LINE
  5
D43
  8
3
 10
16.392052969762961
 20
53.593679488072738
 30
0.0
 11
16.54157677928675
 21
53.593679488072731
 31
0.0
  0
LINE
  5
D44
  8
3
 10
16.392052969762961
 20
53.444155678548952
 30
0.0
 11
16.54157677928675
 21
53.444155678548952
 31
0.0
  0
LINE
  5
D45
  8
3
 10
16.54157677928675
 20
53.147012821406101
 30
0.0
 11
16.690148207858162
 21
53.295584249977502
 31
0.0
  0
LINE
  5
D46
  8
3
 10
16.243481541191532
 20
53.295584249977502
 30
0.0
 11
16.392052969762961
 21
53.147012821406101
 31
0.0
  0
LINE
  5
D47
  8
3
 10
16.392052969762961
 20
52.997489011882308
 30
0.0
 11
16.243481541191532
 21
52.848917583310872
 31
0.0
  0
LINE
  5
D48
  8
3
 10
16.54157677928675
 20
52.997489011882308
 30
0.0
 11
16.690148207858162
 21
52.848917583310872
 31
0.0
  0
LINE
  5
D49
  8
3
 10
16.54157677928675
 20
53.147012821406101
 30
0.0
 11
16.54157677928675
 21
52.997489011882323
 31
0.0
  0
LINE
  5
D4A
  8
3
 10
16.392052969762961
 20
53.147012821406101
 30
0.0
 11
16.392052969762961
 21
52.997489011882323
 31
0.0
  0
LINE
  5
D4B
  8
3
 10
16.392052969762961
 20
53.147012821406101
 30
0.0
 11
16.54157677928675
 21
53.147012821406101
 31
0.0
  0
LINE
  5
D4C
  8
3
 10
16.392052969762961
 20
52.997489011882323
 30
0.0
 11
16.54157677928675
 21
52.997489011882323
 31
0.0
  0
LINE
  5
D4D
  8
3
 10
16.54157677928675
 20
52.700346154739478
 30
0.0
 11
16.690148207858162
 21
52.848917583310872
 31
0.0
  0
LINE
  5
D4E
  8
3
 10
16.243481541191532
 20
52.848917583310872
 30
0.0
 11
16.392052969762961
 21
52.700346154739478
 31
0.0
  0
LINE
  5
D4F
  8
3
 10
16.392052969762961
 20
52.550822345215693
 30
0.0
 11
16.243481541191532
 21
52.402250916644242
 31
0.0
  0
LINE
  5
D50
  8
3
 10
16.54157677928675
 20
52.550822345215693
 30
0.0
 11
16.690148207858162
 21
52.402250916644242
 31
0.0
  0
LINE
  5
D51
  8
3
 10
16.54157677928675
 20
52.700346154739471
 30
0.0
 11
16.54157677928675
 21
52.550822345215693
 31
0.0
  0
LINE
  5
D52
  8
3
 10
16.392052969762961
 20
52.700346154739478
 30
0.0
 11
16.392052969762961
 21
52.550822345215693
 31
0.0
  0
LINE
  5
D53
  8
3
 10
16.392052969762961
 20
52.700346154739478
 30
0.0
 11
16.54157677928675
 21
52.700346154739471
 31
0.0
  0
LINE
  5
D54
  8
3
 10
16.392052969762961
 20
52.550822345215693
 30
0.0
 11
16.54157677928675
 21
52.550822345215693
 31
0.0
  0
LINE
  5
D55
  8
3
 10
16.54157677928675
 20
52.253679488072848
 30
0.0
 11
16.690148207858162
 21
52.402250916644242
 31
0.0
  0
LINE
  5
D56
  8
3
 10
16.243481541191532
 20
52.402250916644242
 30
0.0
 11
16.392052969762961
 21
52.253679488072848
 31
0.0
  0
LINE
  5
D57
  8
3
 10
16.392052969762961
 20
52.104155678549049
 30
0.0
 11
16.243481541191532
 21
51.955584249977612
 31
0.0
  0
LINE
  5
D58
  8
3
 10
16.54157677928675
 20
52.104155678549049
 30
0.0
 11
16.690148207858162
 21
51.955584249977612
 31
0.0
  0
LINE
  5
D59
  8
3
 10
16.54157677928675
 20
52.253679488072841
 30
0.0
 11
16.54157677928675
 21
52.104155678549063
 31
0.0
  0
LINE
  5
D5A
  8
3
 10
16.392052969762961
 20
52.253679488072848
 30
0.0
 11
16.392052969762961
 21
52.104155678549063
 31
0.0
  0
LINE
  5
D5B
  8
3
 10
16.392052969762961
 20
52.253679488072848
 30
0.0
 11
16.54157677928675
 21
52.253679488072841
 31
0.0
  0
LINE
  5
D5C
  8
3
 10
16.392052969762961
 20
52.104155678549063
 30
0.0
 11
16.54157677928675
 21
52.104155678549063
 31
0.0
  0
LINE
  5
D5D
  8
3
 10
16.54157677928675
 20
51.807012821406211
 30
0.0
 11
16.690148207858162
 21
51.955584249977612
 31
0.0
  0
LINE
  5
D5E
  8
3
 10
16.243481541191532
 20
51.955584249977612
 30
0.0
 11
16.392052969762961
 21
51.807012821406211
 31
0.0
  0
LINE
  5
D5F
  8
3
 10
16.392052969762961
 20
51.657489011882419
 30
0.0
 11
16.243481541191532
 21
51.508917583310982
 31
0.0
  0
LINE
  5
D60
  8
3
 10
16.54157677928675
 20
51.657489011882419
 30
0.0
 11
16.690148207858162
 21
51.508917583310982
 31
0.0
  0
LINE
  5
D61
  8
3
 10
16.54157677928675
 20
51.807012821406211
 30
0.0
 11
16.54157677928675
 21
51.657489011882433
 31
0.0
  0
LINE
  5
D62
  8
3
 10
16.392052969762961
 20
51.807012821406211
 30
0.0
 11
16.392052969762961
 21
51.657489011882433
 31
0.0
  0
LINE
  5
D63
  8
3
 10
16.392052969762961
 20
51.807012821406211
 30
0.0
 11
16.54157677928675
 21
51.807012821406211
 31
0.0
  0
LINE
  5
D64
  8
3
 10
16.392052969762961
 20
51.657489011882433
 30
0.0
 11
16.54157677928675
 21
51.657489011882433
 31
0.0
  0
LINE
  5
D65
  8
3
 10
16.54157677928675
 20
51.360346154739588
 30
0.0
 11
16.690148207858162
 21
51.508917583310982
 31
0.0
  0
LINE
  5
D66
  8
3
 10
16.243481541191532
 20
51.508917583310982
 30
0.0
 11
16.392052969762961
 21
51.360346154739588
 31
0.0
  0
LINE
  5
D67
  8
3
 10
16.392052969762961
 20
51.210822345215803
 30
0.0
 11
16.243481541191532
 21
51.062250916644352
 31
0.0
  0
LINE
  5
D68
  8
3
 10
16.54157677928675
 20
51.210822345215803
 30
0.0
 11
16.690148207858162
 21
51.062250916644352
 31
0.0
  0
LINE
  5
D69
  8
3
 10
16.54157677928675
 20
51.360346154739581
 30
0.0
 11
16.54157677928675
 21
51.210822345215803
 31
0.0
  0
LINE
  5
D6A
  8
3
 10
16.392052969762961
 20
51.360346154739588
 30
0.0
 11
16.392052969762961
 21
51.210822345215803
 31
0.0
  0
LINE
  5
D6B
  8
3
 10
16.392052969762961
 20
51.360346154739588
 30
0.0
 11
16.54157677928675
 21
51.360346154739581
 31
0.0
  0
LINE
  5
D6C
  8
3
 10
16.392052969762961
 20
51.210822345215803
 30
0.0
 11
16.54157677928675
 21
51.210822345215803
 31
0.0
  0
LINE
  5
D6D
  8
3
 10
16.392052969762961
 20
50.764155678549173
 30
0.0
 11
16.54157677928675
 21
50.764155678549173
 31
0.0
  0
LINE
  5
D6E
  8
3
 10
16.392052969762961
 20
50.913679488072951
 30
0.0
 11
16.54157677928675
 21
50.913679488072951
 31
0.0
  0
LINE
  5
D6F
  8
3
 10
16.392052969762961
 20
50.913679488072951
 30
0.0
 11
16.392052969762961
 21
50.764155678549173
 31
0.0
  0
LINE
  5
D70
  8
3
 10
16.54157677928675
 20
50.913679488072951
 30
0.0
 11
16.54157677928675
 21
50.764155678549173
 31
0.0
  0
LINE
  5
D71
  8
3
 10
16.54157677928675
 20
50.764155678549159
 30
0.0
 11
16.690148207858162
 21
50.615584249977722
 31
0.0
  0
LINE
  5
D72
  8
3
 10
16.392052969762961
 20
50.764155678549159
 30
0.0
 11
16.243481541191532
 21
50.615584249977722
 31
0.0
  0
LINE
  5
D73
  8
3
 10
16.243481541191532
 20
51.062250916644352
 30
0.0
 11
16.392052969762961
 21
50.913679488072951
 31
0.0
  0
LINE
  5
D74
  8
3
 10
16.54157677928675
 20
50.913679488072951
 30
0.0
 11
16.690148207858162
 21
51.062250916644352
 31
0.0
  0
LINE
  5
D75
  8
3
 10
16.988243445954019
 20
56.570822345215923
 30
0.0
 11
17.136814874525388
 21
56.422250916644501
 31
0.0
  0
LINE
  5
D76
  8
3
 10
16.838719636430231
 20
56.570822345215952
 30
0.0
 11
16.690148207858758
 21
56.422250916644593
 31
0.0
  0
LINE
  5
D77
  8
3
 10
16.838719636430231
 20
56.570822345215952
 30
0.0
 11
16.988243445954019
 21
56.570822345215923
 31
0.0
  0
LINE
  5
D78
  8
3
 10
16.98824344595393
 20
56.124155678549293
 30
0.0
 11
17.1368148745253
 21
55.975584249977871
 31
0.0
  0
LINE
  5
D79
  8
3
 10
16.69014820785867
 20
55.975584249977963
 30
0.0
 11
16.838719636430131
 21
56.124155678549329
 31
0.0
  0
LINE
  5
D7A
  8
3
 10
16.838719636430159
 20
56.273679488073121
 30
0.0
 11
16.690148207858758
 21
56.422250916644593
 31
0.0
  0
LINE
  5
D7B
  8
3
 10
16.988243445953959
 20
56.273679488073078
 30
0.0
 11
17.136814874525388
 21
56.422250916644501
 31
0.0
  0
LINE
  5
D7C
  8
3
 10
16.98824344595393
 20
56.1241556785493
 30
0.0
 11
16.988243445953959
 21
56.273679488073071
 31
0.0
  0
LINE
  5
D7D
  8
3
 10
16.838719636430131
 20
56.124155678549329
 30
0.0
 11
16.83871963643017
 21
56.273679488073107
 31
0.0
  0
LINE
  5
D7E
  8
3
 10
16.838719636430131
 20
56.124155678549329
 30
0.0
 11
16.98824344595393
 21
56.1241556785493
 31
0.0
  0
LINE
  5
D7F
  8
3
 10
16.83871963643017
 20
56.273679488073107
 30
0.0
 11
16.988243445953959
 21
56.273679488073071
 31
0.0
  0
LINE
  5
D80
  8
3
 10
16.98824344595338
 20
55.827012821405887
 30
0.0
 11
17.136814874524781
 21
55.975584249977281
 31
0.0
  0
LINE
  5
D81
  8
3
 10
16.690148207858151
 20
55.975584249977281
 30
0.0
 11
16.838719636429591
 21
55.827012821405887
 31
0.0
  0
LINE
  5
D82
  8
3
 10
16.838719636429591
 20
55.677489011882102
 30
0.0
 11
16.690148207858151
 21
55.528917583310651
 31
0.0
  0
LINE
  5
D83
  8
3
 10
16.98824344595338
 20
55.677489011882102
 30
0.0
 11
17.136814874524781
 21
55.528917583310651
 31
0.0
  0
LINE
  5
D84
  8
3
 10
16.98824344595338
 20
55.82701282140588
 30
0.0
 11
16.98824344595338
 21
55.677489011882102
 31
0.0
  0
LINE
  5
D85
  8
3
 10
16.83871963642958
 20
55.827012821405887
 30
0.0
 11
16.838719636429591
 21
55.677489011882102
 31
0.0
  0
LINE
  5
D86
  8
3
 10
16.83871963642958
 20
55.827012821405887
 30
0.0
 11
16.98824344595338
 21
55.82701282140588
 31
0.0
  0
LINE
  5
D87
  8
3
 10
16.838719636429591
 20
55.677489011882102
 30
0.0
 11
16.98824344595338
 21
55.677489011882102
 31
0.0
  0
LINE
  5
D88
  8
3
 10
16.98824344595338
 20
55.38034615473925
 30
0.0
 11
17.136814874524781
 21
55.528917583310651
 31
0.0
  0
LINE
  5
D89
  8
3
 10
16.690148207858151
 20
55.528917583310651
 30
0.0
 11
16.838719636429591
 21
55.38034615473925
 31
0.0
  0
LINE
  5
D8A
  8
3
 10
16.838719636429591
 20
55.230822345215458
 30
0.0
 11
16.690148207858151
 21
55.082250916644021
 31
0.0
  0
LINE
  5
D8B
  8
3
 10
16.98824344595338
 20
55.230822345215458
 30
0.0
 11
17.136814874524781
 21
55.082250916644021
 31
0.0
  0
LINE
  5
D8C
  8
3
 10
16.98824344595338
 20
55.38034615473925
 30
0.0
 11
16.98824344595338
 21
55.230822345215472
 31
0.0
  0
LINE
  5
D8D
  8
3
 10
16.83871963642958
 20
55.38034615473925
 30
0.0
 11
16.838719636429591
 21
55.230822345215472
 31
0.0
  0
LINE
  5
D8E
  8
3
 10
16.83871963642958
 20
55.38034615473925
 30
0.0
 11
16.98824344595338
 21
55.38034615473925
 31
0.0
  0
LINE
  5
D8F
  8
3
 10
16.838719636429591
 20
55.230822345215472
 30
0.0
 11
16.98824344595338
 21
55.230822345215472
 31
0.0
  0
LINE
  5
D90
  8
3
 10
16.98824344595338
 20
54.933679488072627
 30
0.0
 11
17.136814874524781
 21
55.082250916644021
 31
0.0
  0
LINE
  5
D91
  8
3
 10
16.690148207858151
 20
55.082250916644021
 30
0.0
 11
16.838719636429591
 21
54.933679488072627
 31
0.0
  0
LINE
  5
D92
  8
3
 10
16.838719636429591
 20
54.784155678548842
 30
0.0
 11
16.690148207858151
 21
54.635584249977391
 31
0.0
  0
LINE
  5
D93
  8
3
 10
16.98824344595338
 20
54.784155678548842
 30
0.0
 11
17.136814874524781
 21
54.635584249977391
 31
0.0
  0
LINE
  5
D94
  8
3
 10
16.98824344595338
 20
54.93367948807262
 30
0.0
 11
16.98824344595338
 21
54.784155678548842
 31
0.0
  0
LINE
  5
D95
  8
3
 10
16.83871963642958
 20
54.933679488072627
 30
0.0
 11
16.838719636429591
 21
54.784155678548842
 31
0.0
  0
LINE
  5
D96
  8
3
 10
16.83871963642958
 20
54.933679488072627
 30
0.0
 11
16.98824344595338
 21
54.93367948807262
 31
0.0
  0
LINE
  5
D97
  8
3
 10
16.838719636429591
 20
54.784155678548842
 30
0.0
 11
16.98824344595338
 21
54.784155678548842
 31
0.0
  0
LINE
  5
D98
  8
3
 10
16.98824344595338
 20
54.487012821405997
 30
0.0
 11
17.136814874524781
 21
54.635584249977391
 31
0.0
  0
LINE
  5
D99
  8
3
 10
16.690148207858151
 20
54.635584249977391
 30
0.0
 11
16.838719636429591
 21
54.487012821405997
 31
0.0
  0
LINE
  5
D9A
  8
3
 10
16.838719636429591
 20
54.337489011882198
 30
0.0
 11
16.690148207858151
 21
54.188917583310761
 31
0.0
  0
LINE
  5
D9B
  8
3
 10
16.98824344595338
 20
54.337489011882198
 30
0.0
 11
17.136814874524781
 21
54.188917583310761
 31
0.0
  0
LINE
  5
D9C
  8
3
 10
16.98824344595338
 20
54.48701282140599
 30
0.0
 11
16.98824344595338
 21
54.337489011882212
 31
0.0
  0
LINE
  5
D9D
  8
3
 10
16.83871963642958
 20
54.487012821405997
 30
0.0
 11
16.838719636429591
 21
54.337489011882212
 31
0.0
  0
LINE
  5
D9E
  8
3
 10
16.83871963642958
 20
54.487012821405997
 30
0.0
 11
16.98824344595338
 21
54.48701282140599
 31
0.0
  0
LINE
  5
D9F
  8
3
 10
16.838719636429591
 20
54.337489011882212
 30
0.0
 11
16.98824344595338
 21
54.337489011882212
 31
0.0
  0
LINE
  5
DA0
  8
3
 10
16.98824344595338
 20
54.04034615473936
 30
0.0
 11
17.136814874524781
 21
54.188917583310761
 31
0.0
  0
LINE
  5
DA1
  8
3
 10
16.690148207858151
 20
54.188917583310761
 30
0.0
 11
16.838719636429591
 21
54.04034615473936
 31
0.0
  0
LINE
  5
DA2
  8
3
 10
16.838719636429591
 20
53.890822345215568
 30
0.0
 11
16.690148207858151
 21
53.742250916644132
 31
0.0
  0
LINE
  5
DA3
  8
3
 10
16.98824344595338
 20
53.890822345215568
 30
0.0
 11
17.136814874524781
 21
53.742250916644132
 31
0.0
  0
LINE
  5
DA4
  8
3
 10
16.98824344595338
 20
54.04034615473936
 30
0.0
 11
16.98824344595338
 21
53.890822345215582
 31
0.0
  0
LINE
  5
DA5
  8
3
 10
16.83871963642958
 20
54.04034615473936
 30
0.0
 11
16.838719636429591
 21
53.890822345215582
 31
0.0
  0
LINE
  5
DA6
  8
3
 10
16.83871963642958
 20
54.04034615473936
 30
0.0
 11
16.98824344595338
 21
54.04034615473936
 31
0.0
  0
LINE
  5
DA7
  8
3
 10
16.838719636429591
 20
53.890822345215582
 30
0.0
 11
16.98824344595338
 21
53.890822345215582
 31
0.0
  0
LINE
  5
DA8
  8
3
 10
16.98824344595338
 20
53.593679488072738
 30
0.0
 11
17.136814874524781
 21
53.742250916644132
 31
0.0
  0
LINE
  5
DA9
  8
3
 10
16.690148207858151
 20
53.742250916644132
 30
0.0
 11
16.838719636429591
 21
53.593679488072738
 31
0.0
  0
LINE
  5
DAA
  8
3
 10
16.838719636429591
 20
53.444155678548952
 30
0.0
 11
16.690148207858151
 21
53.295584249977502
 31
0.0
  0
LINE
  5
DAB
  8
3
 10
16.98824344595338
 20
53.444155678548952
 30
0.0
 11
17.136814874524781
 21
53.295584249977502
 31
0.0
  0
LINE
  5
DAC
  8
3
 10
16.98824344595338
 20
53.593679488072731
 30
0.0
 11
16.98824344595338
 21
53.444155678548952
 31
0.0
  0
LINE
  5
DAD
  8
3
 10
16.83871963642958
 20
53.593679488072738
 30
0.0
 11
16.838719636429591
 21
53.444155678548952
 31
0.0
  0
LINE
  5
DAE
  8
3
 10
16.83871963642958
 20
53.593679488072738
 30
0.0
 11
16.98824344595338
 21
53.593679488072731
 31
0.0
  0
LINE
  5
DAF
  8
3
 10
16.838719636429591
 20
53.444155678548952
 30
0.0
 11
16.98824344595338
 21
53.444155678548952
 31
0.0
  0
LINE
  5
DB0
  8
3
 10
16.98824344595338
 20
53.147012821406101
 30
0.0
 11
17.136814874524781
 21
53.295584249977502
 31
0.0
  0
LINE
  5
DB1
  8
3
 10
16.690148207858151
 20
53.295584249977502
 30
0.0
 11
16.838719636429591
 21
53.147012821406101
 31
0.0
  0
LINE
  5
DB2
  8
3
 10
16.838719636429591
 20
52.997489011882308
 30
0.0
 11
16.690148207858151
 21
52.848917583310872
 31
0.0
  0
LINE
  5
DB3
  8
3
 10
16.98824344595338
 20
52.997489011882308
 30
0.0
 11
17.136814874524781
 21
52.848917583310872
 31
0.0
  0
LINE
  5
DB4
  8
3
 10
16.98824344595338
 20
53.147012821406101
 30
0.0
 11
16.98824344595338
 21
52.997489011882323
 31
0.0
  0
LINE
  5
DB5
  8
3
 10
16.83871963642958
 20
53.147012821406101
 30
0.0
 11
16.838719636429591
 21
52.997489011882323
 31
0.0
  0
LINE
  5
DB6
  8
3
 10
16.83871963642958
 20
53.147012821406101
 30
0.0
 11
16.98824344595338
 21
53.147012821406101
 31
0.0
  0
LINE
  5
DB7
  8
3
 10
16.838719636429591
 20
52.997489011882323
 30
0.0
 11
16.98824344595338
 21
52.997489011882323
 31
0.0
  0
LINE
  5
DB8
  8
3
 10
16.98824344595338
 20
52.700346154739478
 30
0.0
 11
17.136814874524781
 21
52.848917583310872
 31
0.0
  0
LINE
  5
DB9
  8
3
 10
16.690148207858151
 20
52.848917583310872
 30
0.0
 11
16.838719636429591
 21
52.700346154739478
 31
0.0
  0
LINE
  5
DBA
  8
3
 10
16.838719636429591
 20
52.550822345215693
 30
0.0
 11
16.690148207858151
 21
52.402250916644242
 31
0.0
  0
LINE
  5
DBB
  8
3
 10
16.98824344595338
 20
52.550822345215693
 30
0.0
 11
17.136814874524781
 21
52.402250916644242
 31
0.0
  0
LINE
  5
DBC
  8
3
 10
16.98824344595338
 20
52.700346154739471
 30
0.0
 11
16.98824344595338
 21
52.550822345215693
 31
0.0
  0
LINE
  5
DBD
  8
3
 10
16.83871963642958
 20
52.700346154739478
 30
0.0
 11
16.838719636429591
 21
52.550822345215693
 31
0.0
  0
LINE
  5
DBE
  8
3
 10
16.83871963642958
 20
52.700346154739478
 30
0.0
 11
16.98824344595338
 21
52.700346154739471
 31
0.0
  0
LINE
  5
DBF
  8
3
 10
16.838719636429591
 20
52.550822345215693
 30
0.0
 11
16.98824344595338
 21
52.550822345215693
 31
0.0
  0
LINE
  5
DC0
  8
3
 10
16.98824344595338
 20
52.253679488072848
 30
0.0
 11
17.136814874524781
 21
52.402250916644242
 31
0.0
  0
LINE
  5
DC1
  8
3
 10
16.690148207858151
 20
52.402250916644242
 30
0.0
 11
16.838719636429591
 21
52.253679488072848
 31
0.0
  0
LINE
  5
DC2
  8
3
 10
16.838719636429591
 20
52.104155678549049
 30
0.0
 11
16.690148207858151
 21
51.955584249977612
 31
0.0
  0
LINE
  5
DC3
  8
3
 10
16.98824344595338
 20
52.104155678549049
 30
0.0
 11
17.136814874524781
 21
51.955584249977612
 31
0.0
  0
LINE
  5
DC4
  8
3
 10
16.98824344595338
 20
52.253679488072841
 30
0.0
 11
16.98824344595338
 21
52.104155678549063
 31
0.0
  0
LINE
  5
DC5
  8
3
 10
16.83871963642958
 20
52.253679488072848
 30
0.0
 11
16.838719636429591
 21
52.104155678549063
 31
0.0
  0
LINE
  5
DC6
  8
3
 10
16.83871963642958
 20
52.253679488072848
 30
0.0
 11
16.98824344595338
 21
52.253679488072841
 31
0.0
  0
LINE
  5
DC7
  8
3
 10
16.838719636429591
 20
52.104155678549063
 30
0.0
 11
16.98824344595338
 21
52.104155678549063
 31
0.0
  0
LINE
  5
DC8
  8
3
 10
16.98824344595338
 20
51.807012821406211
 30
0.0
 11
17.136814874524781
 21
51.955584249977612
 31
0.0
  0
LINE
  5
DC9
  8
3
 10
16.690148207858151
 20
51.955584249977612
 30
0.0
 11
16.838719636429591
 21
51.807012821406211
 31
0.0
  0
LINE
  5
DCA
  8
3
 10
16.838719636429591
 20
51.657489011882419
 30
0.0
 11
16.690148207858151
 21
51.508917583310982
 31
0.0
  0
LINE
  5
DCB
  8
3
 10
16.98824344595338
 20
51.657489011882419
 30
0.0
 11
17.136814874524781
 21
51.508917583310982
 31
0.0
  0
LINE
  5
DCC
  8
3
 10
16.98824344595338
 20
51.807012821406211
 30
0.0
 11
16.98824344595338
 21
51.657489011882433
 31
0.0
  0
LINE
  5
DCD
  8
3
 10
16.83871963642958
 20
51.807012821406211
 30
0.0
 11
16.838719636429591
 21
51.657489011882433
 31
0.0
  0
LINE
  5
DCE
  8
3
 10
16.83871963642958
 20
51.807012821406211
 30
0.0
 11
16.98824344595338
 21
51.807012821406211
 31
0.0
  0
LINE
  5
DCF
  8
3
 10
16.838719636429591
 20
51.657489011882433
 30
0.0
 11
16.98824344595338
 21
51.657489011882433
 31
0.0
  0
LINE
  5
DD0
  8
3
 10
16.98824344595338
 20
51.360346154739588
 30
0.0
 11
17.136814874524781
 21
51.508917583310982
 31
0.0
  0
LINE
  5
DD1
  8
3
 10
16.690148207858151
 20
51.508917583310982
 30
0.0
 11
16.838719636429591
 21
51.360346154739588
 31
0.0
  0
LINE
  5
DD2
  8
3
 10
16.838719636429591
 20
51.210822345215803
 30
0.0
 11
16.690148207858151
 21
51.062250916644352
 31
0.0
  0
LINE
  5
DD3
  8
3
 10
16.98824344595338
 20
51.210822345215803
 30
0.0
 11
17.136814874524781
 21
51.062250916644352
 31
0.0
  0
LINE
  5
DD4
  8
3
 10
16.98824344595338
 20
51.360346154739581
 30
0.0
 11
16.98824344595338
 21
51.210822345215803
 31
0.0
  0
LINE
  5
DD5
  8
3
 10
16.83871963642958
 20
51.360346154739588
 30
0.0
 11
16.838719636429591
 21
51.210822345215803
 31
0.0
  0
LINE
  5
DD6
  8
3
 10
16.83871963642958
 20
51.360346154739588
 30
0.0
 11
16.98824344595338
 21
51.360346154739581
 31
0.0
  0
LINE
  5
DD7
  8
3
 10
16.838719636429591
 20
51.210822345215803
 30
0.0
 11
16.98824344595338
 21
51.210822345215803
 31
0.0
  0
LINE
  5
DD8
  8
3
 10
16.838719636429591
 20
50.764155678549173
 30
0.0
 11
16.98824344595338
 21
50.764155678549173
 31
0.0
  0
LINE
  5
DD9
  8
3
 10
16.83871963642958
 20
50.913679488072951
 30
0.0
 11
16.98824344595338
 21
50.913679488072951
 31
0.0
  0
LINE
  5
DDA
  8
3
 10
16.83871963642958
 20
50.913679488072951
 30
0.0
 11
16.838719636429591
 21
50.764155678549173
 31
0.0
  0
LINE
  5
DDB
  8
3
 10
16.98824344595338
 20
50.913679488072951
 30
0.0
 11
16.98824344595338
 21
50.764155678549173
 31
0.0
  0
LINE
  5
DDC
  8
3
 10
16.98824344595338
 20
50.764155678549159
 30
0.0
 11
17.136814874524781
 21
50.615584249977722
 31
0.0
  0
LINE
  5
DDD
  8
3
 10
16.838719636429591
 20
50.764155678549159
 30
0.0
 11
16.690148207858151
 21
50.615584249977722
 31
0.0
  0
LINE
  5
DDE
  8
3
 10
16.690148207858151
 20
51.062250916644352
 30
0.0
 11
16.838719636429591
 21
50.913679488072951
 31
0.0
  0
LINE
  5
DDF
  8
3
 10
16.98824344595338
 20
50.913679488072951
 30
0.0
 11
17.136814874524781
 21
51.062250916644352
 31
0.0
  0
LINE
  5
DE0
  8
3
 10
17.463878968867508
 20
56.541853488969068
 30
0.0
 11
17.583481541192029
 21
56.422250916644501
 31
0.0
  0
LINE
  5
DE1
  8
3
 10
17.28538630309685
 20
56.570822345215952
 30
0.0
 11
17.136814874525399
 21
56.4222509166446
 31
0.0
  0
LINE
  5
DE2
  8
3
 10
17.28538630309686
 20
56.570822345215952
 30
0.0
 11
17.401588515748241
 21
56.57082234521593
 31
0.0
  0
LINE
  5
DE3
  8
3
 10
17.43491011262056
 20
56.1241556785493
 30
0.0
 11
17.583481541191929
 21
55.975584249977878
 31
0.0
  0
LINE
  5
DE4
  8
3
 10
17.1368148745253
 20
55.97558424997797
 30
0.0
 11
17.285386303096761
 21
56.124155678549343
 31
0.0
  0
LINE
  5
DE5
  8
3
 10
17.2853863030968
 20
56.273679488073128
 30
0.0
 11
17.136814874525399
 21
56.4222509166446
 31
0.0
  0
LINE
  5
DE6
  8
3
 10
17.434910112620589
 20
56.273679488073093
 30
0.0
 11
17.583481541192029
 21
56.422250916644501
 31
0.0
  0
LINE
  5
DE7
  8
3
 10
17.43491011262056
 20
56.124155678549307
 30
0.0
 11
17.434910112620589
 21
56.273679488073078
 31
0.0
  0
LINE
  5
DE8
  8
3
 10
17.285386303096761
 20
56.124155678549343
 30
0.0
 11
17.2853863030968
 21
56.273679488073121
 31
0.0
  0
LINE
  5
DE9
  8
3
 10
17.285386303096761
 20
56.124155678549343
 30
0.0
 11
17.43491011262056
 21
56.124155678549307
 31
0.0
  0
LINE
  5
DEA
  8
3
 10
17.2853863030968
 20
56.273679488073121
 30
0.0
 11
17.434910112620589
 21
56.273679488073078
 31
0.0
  0
LINE
  5
DEB
  8
3
 10
17.43491011262001
 20
55.827012821405901
 30
0.0
 11
17.583481541191421
 21
55.975584249977281
 31
0.0
  0
LINE
  5
DEC
  8
3
 10
17.136814874524791
 20
55.975584249977281
 30
0.0
 11
17.28538630309621
 21
55.827012821405901
 31
0.0
  0
LINE
  5
DED
  8
3
 10
17.28538630309621
 20
55.677489011882102
 30
0.0
 11
17.136814874524791
 21
55.528917583310658
 31
0.0
  0
LINE
  5
DEE
  8
3
 10
17.43491011262001
 20
55.677489011882102
 30
0.0
 11
17.583481541191421
 21
55.528917583310658
 31
0.0
  0
LINE
  5
DEF
  8
3
 10
17.43491011262001
 20
55.827012821405887
 30
0.0
 11
17.43491011262001
 21
55.677489011882109
 31
0.0
  0
LINE
  5
DF0
  8
3
 10
17.28538630309621
 20
55.827012821405901
 30
0.0
 11
17.285386303096221
 21
55.677489011882109
 31
0.0
  0
LINE
  5
DF1
  8
3
 10
17.28538630309621
 20
55.827012821405901
 30
0.0
 11
17.43491011262001
 21
55.827012821405887
 31
0.0
  0
LINE
  5
DF2
  8
3
 10
17.285386303096221
 20
55.677489011882109
 30
0.0
 11
17.43491011262001
 21
55.677489011882109
 31
0.0
  0
LINE
  5
DF3
  8
3
 10
17.43491011262001
 20
55.380346154739257
 30
0.0
 11
17.583481541191421
 21
55.528917583310658
 31
0.0
  0
LINE
  5
DF4
  8
3
 10
17.136814874524791
 20
55.528917583310658
 30
0.0
 11
17.28538630309621
 21
55.380346154739257
 31
0.0
  0
LINE
  5
DF5
  8
3
 10
17.28538630309621
 20
55.230822345215472
 30
0.0
 11
17.136814874524791
 21
55.082250916644028
 31
0.0
  0
LINE
  5
DF6
  8
3
 10
17.43491011262001
 20
55.230822345215472
 30
0.0
 11
17.583481541191421
 21
55.082250916644028
 31
0.0
  0
LINE
  5
DF7
  8
3
 10
17.43491011262001
 20
55.38034615473925
 30
0.0
 11
17.43491011262001
 21
55.230822345215479
 31
0.0
  0
LINE
  5
DF8
  8
3
 10
17.28538630309621
 20
55.380346154739257
 30
0.0
 11
17.285386303096221
 21
55.230822345215479
 31
0.0
  0
LINE
  5
DF9
  8
3
 10
17.28538630309621
 20
55.380346154739257
 30
0.0
 11
17.43491011262001
 21
55.38034615473925
 31
0.0
  0
LINE
  5
DFA
  8
3
 10
17.285386303096221
 20
55.230822345215479
 30
0.0
 11
17.43491011262001
 21
55.230822345215479
 31
0.0
  0
LINE
  5
DFB
  8
3
 10
17.43491011262001
 20
54.933679488072627
 30
0.0
 11
17.583481541191421
 21
55.082250916644028
 31
0.0
  0
LINE
  5
DFC
  8
3
 10
17.136814874524791
 20
55.082250916644028
 30
0.0
 11
17.28538630309621
 21
54.933679488072627
 31
0.0
  0
LINE
  5
DFD
  8
3
 10
17.28538630309621
 20
54.784155678548842
 30
0.0
 11
17.136814874524791
 21
54.635584249977398
 31
0.0
  0
LINE
  5
DFE
  8
3
 10
17.43491011262001
 20
54.784155678548842
 30
0.0
 11
17.583481541191421
 21
54.635584249977398
 31
0.0
  0
LINE
  5
DFF
  8
3
 10
17.43491011262001
 20
54.933679488072627
 30
0.0
 11
17.43491011262001
 21
54.784155678548842
 31
0.0
  0
LINE
  5
E00
  8
3
 10
17.28538630309621
 20
54.933679488072627
 30
0.0
 11
17.285386303096221
 21
54.784155678548842
 31
0.0
  0
LINE
  5
E01
  8
3
 10
17.28538630309621
 20
54.933679488072627
 30
0.0
 11
17.43491011262001
 21
54.933679488072627
 31
0.0
  0
LINE
  5
E02
  8
3
 10
17.285386303096221
 20
54.784155678548842
 30
0.0
 11
17.43491011262001
 21
54.784155678548842
 31
0.0
  0
LINE
  5
E03
  8
3
 10
17.43491011262001
 20
54.487012821405997
 30
0.0
 11
17.583481541191421
 21
54.635584249977398
 31
0.0
  0
LINE
  5
E04
  8
3
 10
17.136814874524791
 20
54.635584249977398
 30
0.0
 11
17.28538630309621
 21
54.487012821405997
 31
0.0
  0
LINE
  5
E05
  8
3
 10
17.28538630309621
 20
54.337489011882212
 30
0.0
 11
17.136814874524791
 21
54.188917583310769
 31
0.0
  0
LINE
  5
E06
  8
3
 10
17.43491011262001
 20
54.337489011882212
 30
0.0
 11
17.583481541191421
 21
54.188917583310769
 31
0.0
  0
LINE
  5
E07
  8
3
 10
17.43491011262001
 20
54.487012821405997
 30
0.0
 11
17.43491011262001
 21
54.337489011882219
 31
0.0
  0
LINE
  5
E08
  8
3
 10
17.28538630309621
 20
54.487012821405997
 30
0.0
 11
17.285386303096221
 21
54.337489011882219
 31
0.0
  0
LINE
  5
E09
  8
3
 10
17.28538630309621
 20
54.487012821405997
 30
0.0
 11
17.43491011262001
 21
54.487012821405997
 31
0.0
  0
LINE
  5
E0A
  8
3
 10
17.285386303096221
 20
54.337489011882219
 30
0.0
 11
17.43491011262001
 21
54.337489011882219
 31
0.0
  0
LINE
  5
E0B
  8
3
 10
17.43491011262001
 20
54.040346154739368
 30
0.0
 11
17.583481541191421
 21
54.188917583310769
 31
0.0
  0
LINE
  5
E0C
  8
3
 10
17.136814874524791
 20
54.188917583310769
 30
0.0
 11
17.28538630309621
 21
54.040346154739368
 31
0.0
  0
LINE
  5
E0D
  8
3
 10
17.28538630309621
 20
53.890822345215582
 30
0.0
 11
17.136814874524791
 21
53.742250916644132
 31
0.0
  0
LINE
  5
E0E
  8
3
 10
17.43491011262001
 20
53.890822345215582
 30
0.0
 11
17.583481541191421
 21
53.742250916644132
 31
0.0
  0
LINE
  5
E0F
  8
3
 10
17.43491011262001
 20
54.04034615473936
 30
0.0
 11
17.43491011262001
 21
53.890822345215589
 31
0.0
  0
LINE
  5
E10
  8
3
 10
17.28538630309621
 20
54.040346154739368
 30
0.0
 11
17.285386303096221
 21
53.890822345215589
 31
0.0
  0
LINE
  5
E11
  8
3
 10
17.28538630309621
 20
54.040346154739368
 30
0.0
 11
17.43491011262001
 21
54.04034615473936
 31
0.0
  0
LINE
  5
E12
  8
3
 10
17.285386303096221
 20
53.890822345215589
 30
0.0
 11
17.43491011262001
 21
53.890822345215589
 31
0.0
  0
LINE
  5
E13
  8
3
 10
17.43491011262001
 20
53.593679488072752
 30
0.0
 11
17.583481541191421
 21
53.742250916644132
 31
0.0
  0
LINE
  5
E14
  8
3
 10
17.136814874524791
 20
53.742250916644132
 30
0.0
 11
17.28538630309621
 21
53.593679488072752
 31
0.0
  0
LINE
  5
E15
  8
3
 10
17.28538630309621
 20
53.444155678548952
 30
0.0
 11
17.136814874524791
 21
53.295584249977509
 31
0.0
  0
LINE
  5
E16
  8
3
 10
17.43491011262001
 20
53.444155678548952
 30
0.0
 11
17.583481541191421
 21
53.295584249977509
 31
0.0
  0
LINE
  5
E17
  8
3
 10
17.43491011262001
 20
53.593679488072738
 30
0.0
 11
17.43491011262001
 21
53.44415567854896
 31
0.0
  0
LINE
  5
E18
  8
3
 10
17.28538630309621
 20
53.593679488072752
 30
0.0
 11
17.285386303096221
 21
53.44415567854896
 31
0.0
  0
LINE
  5
E19
  8
3
 10
17.28538630309621
 20
53.593679488072752
 30
0.0
 11
17.43491011262001
 21
53.593679488072738
 31
0.0
  0
LINE
  5
E1A
  8
3
 10
17.285386303096221
 20
53.44415567854896
 30
0.0
 11
17.43491011262001
 21
53.44415567854896
 31
0.0
  0
LINE
  5
E1B
  8
3
 10
17.43491011262001
 20
53.147012821406108
 30
0.0
 11
17.583481541191421
 21
53.295584249977509
 31
0.0
  0
LINE
  5
E1C
  8
3
 10
17.136814874524791
 20
53.295584249977509
 30
0.0
 11
17.28538630309621
 21
53.147012821406108
 31
0.0
  0
LINE
  5
E1D
  8
3
 10
17.28538630309621
 20
52.997489011882323
 30
0.0
 11
17.136814874524791
 21
52.848917583310879
 31
0.0
  0
LINE
  5
E1E
  8
3
 10
17.43491011262001
 20
52.997489011882323
 30
0.0
 11
17.583481541191421
 21
52.848917583310879
 31
0.0
  0
LINE
  5
E1F
  8
3
 10
17.43491011262001
 20
53.147012821406101
 30
0.0
 11
17.43491011262001
 21
52.99748901188233
 31
0.0
  0
LINE
  5
E20
  8
3
 10
17.28538630309621
 20
53.147012821406108
 30
0.0
 11
17.285386303096221
 21
52.99748901188233
 31
0.0
  0
LINE
  5
E21
  8
3
 10
17.28538630309621
 20
53.147012821406108
 30
0.0
 11
17.43491011262001
 21
53.147012821406101
 31
0.0
  0
LINE
  5
E22
  8
3
 10
17.285386303096221
 20
52.99748901188233
 30
0.0
 11
17.43491011262001
 21
52.99748901188233
 31
0.0
  0
LINE
  5
E23
  8
3
 10
17.43491011262001
 20
52.700346154739492
 30
0.0
 11
17.583481541191421
 21
52.848917583310879
 31
0.0
  0
LINE
  5
E24
  8
3
 10
17.136814874524791
 20
52.848917583310879
 30
0.0
 11
17.28538630309621
 21
52.700346154739492
 31
0.0
  0
LINE
  5
E25
  8
3
 10
17.28538630309621
 20
52.550822345215693
 30
0.0
 11
17.136814874524791
 21
52.402250916644249
 31
0.0
  0
LINE
  5
E26
  8
3
 10
17.43491011262001
 20
52.550822345215693
 30
0.0
 11
17.583481541191421
 21
52.402250916644249
 31
0.0
  0
LINE
  5
E27
  8
3
 10
17.43491011262001
 20
52.700346154739478
 30
0.0
 11
17.43491011262001
 21
52.550822345215693
 31
0.0
  0
LINE
  5
E28
  8
3
 10
17.28538630309621
 20
52.700346154739492
 30
0.0
 11
17.285386303096221
 21
52.550822345215693
 31
0.0
  0
LINE
  5
E29
  8
3
 10
17.28538630309621
 20
52.700346154739492
 30
0.0
 11
17.43491011262001
 21
52.700346154739478
 31
0.0
  0
LINE
  5
E2A
  8
3
 10
17.285386303096221
 20
52.550822345215693
 30
0.0
 11
17.43491011262001
 21
52.550822345215693
 31
0.0
  0
LINE
  5
E2B
  8
3
 10
17.43491011262001
 20
52.253679488072848
 30
0.0
 11
17.583481541191421
 21
52.402250916644249
 31
0.0
  0
LINE
  5
E2C
  8
3
 10
17.136814874524791
 20
52.402250916644249
 30
0.0
 11
17.28538630309621
 21
52.253679488072848
 31
0.0
  0
LINE
  5
E2D
  8
3
 10
17.28538630309621
 20
52.104155678549063
 30
0.0
 11
17.136814874524791
 21
51.955584249977619
 31
0.0
  0
LINE
  5
E2E
  8
3
 10
17.43491011262001
 20
52.104155678549063
 30
0.0
 11
17.583481541191421
 21
51.955584249977619
 31
0.0
  0
LINE
  5
E2F
  8
3
 10
17.43491011262001
 20
52.253679488072848
 30
0.0
 11
17.43491011262001
 21
52.10415567854907
 31
0.0
  0
LINE
  5
E30
  8
3
 10
17.28538630309621
 20
52.253679488072848
 30
0.0
 11
17.285386303096221
 21
52.10415567854907
 31
0.0
  0
LINE
  5
E31
  8
3
 10
17.28538630309621
 20
52.253679488072848
 30
0.0
 11
17.43491011262001
 21
52.253679488072848
 31
0.0
  0
LINE
  5
E32
  8
3
 10
17.285386303096221
 20
52.10415567854907
 30
0.0
 11
17.43491011262001
 21
52.10415567854907
 31
0.0
  0
LINE
  5
E33
  8
3
 10
17.43491011262001
 20
51.807012821406218
 30
0.0
 11
17.583481541191421
 21
51.955584249977619
 31
0.0
  0
LINE
  5
E34
  8
3
 10
17.136814874524791
 20
51.955584249977619
 30
0.0
 11
17.28538630309621
 21
51.807012821406218
 31
0.0
  0
LINE
  5
E35
  8
3
 10
17.28538630309621
 20
51.657489011882433
 30
0.0
 11
17.136814874524791
 21
51.508917583310982
 31
0.0
  0
LINE
  5
E36
  8
3
 10
17.43491011262001
 20
51.657489011882433
 30
0.0
 11
17.583481541191421
 21
51.508917583310982
 31
0.0
  0
LINE
  5
E37
  8
3
 10
17.43491011262001
 20
51.807012821406211
 30
0.0
 11
17.43491011262001
 21
51.65748901188244
 31
0.0
  0
LINE
  5
E38
  8
3
 10
17.28538630309621
 20
51.807012821406218
 30
0.0
 11
17.285386303096221
 21
51.65748901188244
 31
0.0
  0
LINE
  5
E39
  8
3
 10
17.28538630309621
 20
51.807012821406218
 30
0.0
 11
17.43491011262001
 21
51.807012821406211
 31
0.0
  0
LINE
  5
E3A
  8
3
 10
17.285386303096221
 20
51.65748901188244
 30
0.0
 11
17.43491011262001
 21
51.65748901188244
 31
0.0
  0
LINE
  5
E3B
  8
3
 10
17.43491011262001
 20
51.360346154739602
 30
0.0
 11
17.583481541191421
 21
51.508917583310982
 31
0.0
  0
LINE
  5
E3C
  8
3
 10
17.136814874524791
 20
51.508917583310982
 30
0.0
 11
17.28538630309621
 21
51.360346154739602
 31
0.0
  0
LINE
  5
E3D
  8
3
 10
17.28538630309621
 20
51.210822345215803
 30
0.0
 11
17.136814874524791
 21
51.062250916644359
 31
0.0
  0
LINE
  5
E3E
  8
3
 10
17.43491011262001
 20
51.210822345215803
 30
0.0
 11
17.583481541191421
 21
51.062250916644359
 31
0.0
  0
LINE
  5
E3F
  8
3
 10
17.43491011262001
 20
51.360346154739588
 30
0.0
 11
17.43491011262001
 21
51.21082234521581
 31
0.0
  0
LINE
  5
E40
  8
3
 10
17.28538630309621
 20
51.360346154739602
 30
0.0
 11
17.285386303096221
 21
51.21082234521581
 31
0.0
  0
LINE
  5
E41
  8
3
 10
17.28538630309621
 20
51.360346154739602
 30
0.0
 11
17.43491011262001
 21
51.360346154739588
 31
0.0
  0
LINE
  5
E42
  8
3
 10
17.285386303096221
 20
51.21082234521581
 30
0.0
 11
17.43491011262001
 21
51.21082234521581
 31
0.0
  0
LINE
  5
E43
  8
3
 10
17.285386303096221
 20
50.76415567854918
 30
0.0
 11
17.43491011262001
 21
50.76415567854918
 31
0.0
  0
LINE
  5
E44
  8
3
 10
17.28538630309621
 20
50.913679488072958
 30
0.0
 11
17.43491011262001
 21
50.913679488072951
 31
0.0
  0
LINE
  5
E45
  8
3
 10
17.28538630309621
 20
50.913679488072958
 30
0.0
 11
17.285386303096221
 21
50.76415567854918
 31
0.0
  0
LINE
  5
E46
  8
3
 10
17.43491011262001
 20
50.913679488072951
 30
0.0
 11
17.43491011262001
 21
50.76415567854918
 31
0.0
  0
LINE
  5
E47
  8
3
 10
17.43491011262001
 20
50.764155678549173
 30
0.0
 11
17.583481541191421
 21
50.615584249977729
 31
0.0
  0
LINE
  5
E48
  8
3
 10
17.28538630309621
 20
50.764155678549173
 30
0.0
 11
17.136814874524791
 21
50.615584249977729
 31
0.0
  0
LINE
  5
E49
  8
3
 10
17.136814874524791
 20
51.062250916644359
 30
0.0
 11
17.28538630309621
 21
50.913679488072958
 31
0.0
  0
LINE
  5
E4A
  8
3
 10
17.43491011262001
 20
50.913679488072958
 30
0.0
 11
17.583481541191421
 21
51.062250916644359
 31
0.0
  0
LINE
  5
E4B
  8
3
 10
15.64824344595414
 20
56.570822345215923
 30
0.0
 11
15.796814874525509
 21
56.422250916644501
 31
0.0
  0
LINE
  5
E4C
  8
3
 10
15.498719636430341
 20
56.570822345215952
 30
0.0
 11
15.350148207858879
 21
56.4222509166446
 31
0.0
  0
LINE
  5
E4D
  8
3
 10
15.498719636430341
 20
56.570822345215952
 30
0.0
 11
15.64824344595414
 21
56.570822345215923
 31
0.0
  0
LINE
  5
E4E
  8
3
 10
15.648243445954041
 20
56.1241556785493
 30
0.0
 11
15.79681487452541
 21
55.975584249977878
 31
0.0
  0
LINE
  5
E4F
  8
3
 10
15.35014820785878
 20
55.97558424997797
 30
0.0
 11
15.49871963643024
 21
56.124155678549343
 31
0.0
  0
LINE
  5
E50
  8
3
 10
15.49871963643028
 20
56.273679488073128
 30
0.0
 11
15.350148207858879
 21
56.4222509166446
 31
0.0
  0
LINE
  5
E51
  8
3
 10
15.648243445954069
 20
56.273679488073093
 30
0.0
 11
15.796814874525509
 21
56.422250916644501
 31
0.0
  0
LINE
  5
E52
  8
3
 10
15.648243445954041
 20
56.124155678549307
 30
0.0
 11
15.648243445954069
 21
56.273679488073078
 31
0.0
  0
LINE
  5
E53
  8
3
 10
15.49871963643024
 20
56.124155678549343
 30
0.0
 11
15.49871963643028
 21
56.273679488073121
 31
0.0
  0
LINE
  5
E54
  8
3
 10
15.49871963643024
 20
56.124155678549343
 30
0.0
 11
15.648243445954041
 21
56.124155678549307
 31
0.0
  0
LINE
  5
E55
  8
3
 10
15.49871963643028
 20
56.273679488073121
 30
0.0
 11
15.648243445954069
 21
56.273679488073078
 31
0.0
  0
LINE
  5
E56
  8
3
 10
15.648243445953501
 20
55.827012821405901
 30
0.0
 11
15.796814874524889
 21
55.975584249977281
 31
0.0
  0
LINE
  5
E57
  8
3
 10
15.35014820785827
 20
55.975584249977281
 30
0.0
 11
15.4987196364297
 21
55.827012821405901
 31
0.0
  0
LINE
  5
E58
  8
3
 10
15.4987196364297
 20
55.677489011882102
 30
0.0
 11
15.35014820785827
 21
55.528917583310658
 31
0.0
  0
LINE
  5
E59
  8
3
 10
15.648243445953501
 20
55.677489011882102
 30
0.0
 11
15.796814874524889
 21
55.528917583310658
 31
0.0
  0
LINE
  5
E5A
  8
3
 10
15.648243445953501
 20
55.827012821405887
 30
0.0
 11
15.648243445953501
 21
55.677489011882109
 31
0.0
  0
LINE
  5
E5B
  8
3
 10
15.4987196364297
 20
55.827012821405901
 30
0.0
 11
15.4987196364297
 21
55.677489011882109
 31
0.0
  0
LINE
  5
E5C
  8
3
 10
15.4987196364297
 20
55.827012821405901
 30
0.0
 11
15.64824344595349
 21
55.827012821405887
 31
0.0
  0
LINE
  5
E5D
  8
3
 10
15.4987196364297
 20
55.677489011882109
 30
0.0
 11
15.648243445953501
 21
55.677489011882109
 31
0.0
  0
LINE
  5
E5E
  8
3
 10
15.648243445953501
 20
55.380346154739257
 30
0.0
 11
15.796814874524889
 21
55.528917583310658
 31
0.0
  0
LINE
  5
E5F
  8
3
 10
15.35014820785827
 20
55.528917583310658
 30
0.0
 11
15.4987196364297
 21
55.380346154739257
 31
0.0
  0
LINE
  5
E60
  8
3
 10
15.4987196364297
 20
55.230822345215472
 30
0.0
 11
15.35014820785827
 21
55.082250916644028
 31
0.0
  0
LINE
  5
E61
  8
3
 10
15.648243445953501
 20
55.230822345215472
 30
0.0
 11
15.796814874524889
 21
55.082250916644028
 31
0.0
  0
LINE
  5
E62
  8
3
 10
15.648243445953501
 20
55.38034615473925
 30
0.0
 11
15.648243445953501
 21
55.230822345215479
 31
0.0
  0
LINE
  5
E63
  8
3
 10
15.4987196364297
 20
55.380346154739257
 30
0.0
 11
15.4987196364297
 21
55.230822345215479
 31
0.0
  0
LINE
  5
E64
  8
3
 10
15.4987196364297
 20
55.380346154739257
 30
0.0
 11
15.64824344595349
 21
55.38034615473925
 31
0.0
  0
LINE
  5
E65
  8
3
 10
15.4987196364297
 20
55.230822345215479
 30
0.0
 11
15.648243445953501
 21
55.230822345215479
 31
0.0
  0
LINE
  5
E66
  8
3
 10
15.648243445953501
 20
54.933679488072627
 30
0.0
 11
15.796814874524889
 21
55.082250916644028
 31
0.0
  0
LINE
  5
E67
  8
3
 10
15.35014820785827
 20
55.082250916644028
 30
0.0
 11
15.4987196364297
 21
54.933679488072627
 31
0.0
  0
LINE
  5
E68
  8
3
 10
15.4987196364297
 20
54.784155678548842
 30
0.0
 11
15.35014820785827
 21
54.635584249977398
 31
0.0
  0
LINE
  5
E69
  8
3
 10
15.648243445953501
 20
54.784155678548842
 30
0.0
 11
15.796814874524889
 21
54.635584249977398
 31
0.0
  0
LINE
  5
E6A
  8
3
 10
15.648243445953501
 20
54.933679488072627
 30
0.0
 11
15.648243445953501
 21
54.784155678548842
 31
0.0
  0
LINE
  5
E6B
  8
3
 10
15.4987196364297
 20
54.933679488072627
 30
0.0
 11
15.4987196364297
 21
54.784155678548842
 31
0.0
  0
LINE
  5
E6C
  8
3
 10
15.4987196364297
 20
54.933679488072627
 30
0.0
 11
15.64824344595349
 21
54.933679488072627
 31
0.0
  0
LINE
  5
E6D
  8
3
 10
15.4987196364297
 20
54.784155678548842
 30
0.0
 11
15.648243445953501
 21
54.784155678548842
 31
0.0
  0
LINE
  5
E6E
  8
3
 10
15.648243445953501
 20
54.487012821405997
 30
0.0
 11
15.796814874524889
 21
54.635584249977398
 31
0.0
  0
LINE
  5
E6F
  8
3
 10
15.35014820785827
 20
54.635584249977398
 30
0.0
 11
15.4987196364297
 21
54.487012821405997
 31
0.0
  0
LINE
  5
E70
  8
3
 10
15.4987196364297
 20
54.337489011882212
 30
0.0
 11
15.35014820785827
 21
54.188917583310769
 31
0.0
  0
LINE
  5
E71
  8
3
 10
15.648243445953501
 20
54.337489011882212
 30
0.0
 11
15.796814874524889
 21
54.188917583310769
 31
0.0
  0
LINE
  5
E72
  8
3
 10
15.648243445953501
 20
54.487012821405997
 30
0.0
 11
15.648243445953501
 21
54.337489011882219
 31
0.0
  0
LINE
  5
E73
  8
3
 10
15.4987196364297
 20
54.487012821405997
 30
0.0
 11
15.4987196364297
 21
54.337489011882219
 31
0.0
  0
LINE
  5
E74
  8
3
 10
15.4987196364297
 20
54.487012821405997
 30
0.0
 11
15.64824344595349
 21
54.487012821405997
 31
0.0
  0
LINE
  5
E75
  8
3
 10
15.4987196364297
 20
54.337489011882219
 30
0.0
 11
15.648243445953501
 21
54.337489011882219
 31
0.0
  0
LINE
  5
E76
  8
3
 10
15.648243445953501
 20
54.040346154739368
 30
0.0
 11
15.796814874524889
 21
54.188917583310769
 31
0.0
  0
LINE
  5
E77
  8
3
 10
15.35014820785827
 20
54.188917583310769
 30
0.0
 11
15.4987196364297
 21
54.040346154739368
 31
0.0
  0
LINE
  5
E78
  8
3
 10
15.4987196364297
 20
53.890822345215582
 30
0.0
 11
15.35014820785827
 21
53.742250916644132
 31
0.0
  0
LINE
  5
E79
  8
3
 10
15.648243445953501
 20
53.890822345215582
 30
0.0
 11
15.796814874524889
 21
53.742250916644132
 31
0.0
  0
LINE
  5
E7A
  8
3
 10
15.648243445953501
 20
54.04034615473936
 30
0.0
 11
15.648243445953501
 21
53.890822345215589
 31
0.0
  0
LINE
  5
E7B
  8
3
 10
15.4987196364297
 20
54.040346154739368
 30
0.0
 11
15.4987196364297
 21
53.890822345215589
 31
0.0
  0
LINE
  5
E7C
  8
3
 10
15.4987196364297
 20
54.040346154739368
 30
0.0
 11
15.64824344595349
 21
54.04034615473936
 31
0.0
  0
LINE
  5
E7D
  8
3
 10
15.4987196364297
 20
53.890822345215589
 30
0.0
 11
15.648243445953501
 21
53.890822345215589
 31
0.0
  0
LINE
  5
E7E
  8
3
 10
15.648243445953501
 20
53.593679488072752
 30
0.0
 11
15.796814874524889
 21
53.742250916644132
 31
0.0
  0
LINE
  5
E7F
  8
3
 10
15.35014820785827
 20
53.742250916644132
 30
0.0
 11
15.4987196364297
 21
53.593679488072752
 31
0.0
  0
LINE
  5
E80
  8
3
 10
15.4987196364297
 20
53.444155678548952
 30
0.0
 11
15.35014820785827
 21
53.295584249977509
 31
0.0
  0
LINE
  5
E81
  8
3
 10
15.648243445953501
 20
53.444155678548952
 30
0.0
 11
15.796814874524889
 21
53.295584249977509
 31
0.0
  0
LINE
  5
E82
  8
3
 10
15.648243445953501
 20
53.593679488072738
 30
0.0
 11
15.648243445953501
 21
53.44415567854896
 31
0.0
  0
LINE
  5
E83
  8
3
 10
15.4987196364297
 20
53.593679488072752
 30
0.0
 11
15.4987196364297
 21
53.44415567854896
 31
0.0
  0
LINE
  5
E84
  8
3
 10
15.4987196364297
 20
53.593679488072752
 30
0.0
 11
15.64824344595349
 21
53.593679488072738
 31
0.0
  0
LINE
  5
E85
  8
3
 10
15.4987196364297
 20
53.44415567854896
 30
0.0
 11
15.648243445953501
 21
53.44415567854896
 31
0.0
  0
LINE
  5
E86
  8
3
 10
15.648243445953501
 20
53.147012821406108
 30
0.0
 11
15.796814874524889
 21
53.295584249977509
 31
0.0
  0
LINE
  5
E87
  8
3
 10
15.35014820785827
 20
53.295584249977509
 30
0.0
 11
15.4987196364297
 21
53.147012821406108
 31
0.0
  0
LINE
  5
E88
  8
3
 10
15.4987196364297
 20
52.997489011882323
 30
0.0
 11
15.35014820785827
 21
52.848917583310879
 31
0.0
  0
LINE
  5
E89
  8
3
 10
15.648243445953501
 20
52.997489011882323
 30
0.0
 11
15.796814874524889
 21
52.848917583310879
 31
0.0
  0
LINE
  5
E8A
  8
3
 10
15.648243445953501
 20
53.147012821406101
 30
0.0
 11
15.648243445953501
 21
52.99748901188233
 31
0.0
  0
LINE
  5
E8B
  8
3
 10
15.4987196364297
 20
53.147012821406108
 30
0.0
 11
15.4987196364297
 21
52.99748901188233
 31
0.0
  0
LINE
  5
E8C
  8
3
 10
15.4987196364297
 20
53.147012821406108
 30
0.0
 11
15.64824344595349
 21
53.147012821406101
 31
0.0
  0
LINE
  5
E8D
  8
3
 10
15.4987196364297
 20
52.99748901188233
 30
0.0
 11
15.648243445953501
 21
52.99748901188233
 31
0.0
  0
LINE
  5
E8E
  8
3
 10
15.648243445953501
 20
52.700346154739492
 30
0.0
 11
15.796814874524889
 21
52.848917583310879
 31
0.0
  0
LINE
  5
E8F
  8
3
 10
15.35014820785827
 20
52.848917583310879
 30
0.0
 11
15.4987196364297
 21
52.700346154739492
 31
0.0
  0
LINE
  5
E90
  8
3
 10
15.4987196364297
 20
52.550822345215693
 30
0.0
 11
15.35014820785827
 21
52.402250916644249
 31
0.0
  0
LINE
  5
E91
  8
3
 10
15.648243445953501
 20
52.550822345215693
 30
0.0
 11
15.796814874524889
 21
52.402250916644249
 31
0.0
  0
LINE
  5
E92
  8
3
 10
15.648243445953501
 20
52.700346154739478
 30
0.0
 11
15.648243445953501
 21
52.550822345215693
 31
0.0
  0
LINE
  5
E93
  8
3
 10
15.4987196364297
 20
52.700346154739492
 30
0.0
 11
15.4987196364297
 21
52.550822345215693
 31
0.0
  0
LINE
  5
E94
  8
3
 10
15.4987196364297
 20
52.700346154739492
 30
0.0
 11
15.64824344595349
 21
52.700346154739478
 31
0.0
  0
LINE
  5
E95
  8
3
 10
15.4987196364297
 20
52.550822345215693
 30
0.0
 11
15.648243445953501
 21
52.550822345215693
 31
0.0
  0
LINE
  5
E96
  8
3
 10
15.648243445953501
 20
52.253679488072848
 30
0.0
 11
15.796814874524889
 21
52.402250916644249
 31
0.0
  0
LINE
  5
E97
  8
3
 10
15.35014820785827
 20
52.402250916644249
 30
0.0
 11
15.4987196364297
 21
52.253679488072848
 31
0.0
  0
LINE
  5
E98
  8
3
 10
15.4987196364297
 20
52.104155678549063
 30
0.0
 11
15.35014820785827
 21
51.955584249977619
 31
0.0
  0
LINE
  5
E99
  8
3
 10
15.648243445953501
 20
52.104155678549063
 30
0.0
 11
15.796814874524889
 21
51.955584249977619
 31
0.0
  0
LINE
  5
E9A
  8
3
 10
15.648243445953501
 20
52.253679488072848
 30
0.0
 11
15.648243445953501
 21
52.10415567854907
 31
0.0
  0
LINE
  5
E9B
  8
3
 10
15.4987196364297
 20
52.253679488072848
 30
0.0
 11
15.4987196364297
 21
52.10415567854907
 31
0.0
  0
LINE
  5
E9C
  8
3
 10
15.4987196364297
 20
52.253679488072848
 30
0.0
 11
15.64824344595349
 21
52.253679488072848
 31
0.0
  0
LINE
  5
E9D
  8
3
 10
15.4987196364297
 20
52.10415567854907
 30
0.0
 11
15.648243445953501
 21
52.10415567854907
 31
0.0
  0
LINE
  5
E9E
  8
3
 10
15.648243445953501
 20
51.807012821406218
 30
0.0
 11
15.796814874524889
 21
51.955584249977619
 31
0.0
  0
LINE
  5
E9F
  8
3
 10
15.35014820785827
 20
51.955584249977619
 30
0.0
 11
15.4987196364297
 21
51.807012821406218
 31
0.0
  0
LINE
  5
EA0
  8
3
 10
15.4987196364297
 20
51.657489011882433
 30
0.0
 11
15.35014820785827
 21
51.508917583310982
 31
0.0
  0
LINE
  5
EA1
  8
3
 10
15.648243445953501
 20
51.657489011882433
 30
0.0
 11
15.796814874524889
 21
51.508917583310982
 31
0.0
  0
LINE
  5
EA2
  8
3
 10
15.648243445953501
 20
51.807012821406211
 30
0.0
 11
15.648243445953501
 21
51.65748901188244
 31
0.0
  0
LINE
  5
EA3
  8
3
 10
15.4987196364297
 20
51.807012821406218
 30
0.0
 11
15.4987196364297
 21
51.65748901188244
 31
0.0
  0
LINE
  5
EA4
  8
3
 10
15.4987196364297
 20
51.807012821406218
 30
0.0
 11
15.64824344595349
 21
51.807012821406211
 31
0.0
  0
LINE
  5
EA5
  8
3
 10
15.4987196364297
 20
51.65748901188244
 30
0.0
 11
15.648243445953501
 21
51.65748901188244
 31
0.0
  0
LINE
  5
EA6
  8
3
 10
15.648243445953501
 20
51.360346154739602
 30
0.0
 11
15.796814874524889
 21
51.508917583310982
 31
0.0
  0
LINE
  5
EA7
  8
3
 10
15.35014820785827
 20
51.508917583310982
 30
0.0
 11
15.4987196364297
 21
51.360346154739602
 31
0.0
  0
LINE
  5
EA8
  8
3
 10
15.4987196364297
 20
51.210822345215803
 30
0.0
 11
15.35014820785827
 21
51.062250916644359
 31
0.0
  0
LINE
  5
EA9
  8
3
 10
15.648243445953501
 20
51.210822345215803
 30
0.0
 11
15.796814874524889
 21
51.062250916644359
 31
0.0
  0
LINE
  5
EAA
  8
3
 10
15.648243445953501
 20
51.360346154739588
 30
0.0
 11
15.648243445953501
 21
51.21082234521581
 31
0.0
  0
LINE
  5
EAB
  8
3
 10
15.4987196364297
 20
51.360346154739602
 30
0.0
 11
15.4987196364297
 21
51.21082234521581
 31
0.0
  0
LINE
  5
EAC
  8
3
 10
15.4987196364297
 20
51.360346154739602
 30
0.0
 11
15.64824344595349
 21
51.360346154739588
 31
0.0
  0
LINE
  5
EAD
  8
3
 10
15.4987196364297
 20
51.21082234521581
 30
0.0
 11
15.648243445953501
 21
51.21082234521581
 31
0.0
  0
LINE
  5
EAE
  8
3
 10
15.4987196364297
 20
50.76415567854918
 30
0.0
 11
15.648243445953501
 21
50.76415567854918
 31
0.0
  0
LINE
  5
EAF
  8
3
 10
15.4987196364297
 20
50.913679488072958
 30
0.0
 11
15.64824344595349
 21
50.913679488072951
 31
0.0
  0
LINE
  5
EB0
  8
3
 10
15.4987196364297
 20
50.913679488072958
 30
0.0
 11
15.4987196364297
 21
50.76415567854918
 31
0.0
  0
LINE
  5
EB1
  8
3
 10
15.648243445953501
 20
50.913679488072951
 30
0.0
 11
15.648243445953501
 21
50.76415567854918
 31
0.0
  0
LINE
  5
EB2
  8
3
 10
15.648243445953501
 20
50.764155678549173
 30
0.0
 11
15.796814874524889
 21
50.615584249977729
 31
0.0
  0
LINE
  5
EB3
  8
3
 10
15.4987196364297
 20
50.764155678549173
 30
0.0
 11
15.35014820785827
 21
50.615584249977729
 31
0.0
  0
LINE
  5
EB4
  8
3
 10
15.35014820785827
 20
51.062250916644359
 30
0.0
 11
15.4987196364297
 21
50.913679488072958
 31
0.0
  0
LINE
  5
EB5
  8
3
 10
15.648243445953501
 20
50.913679488072958
 30
0.0
 11
15.796814874524889
 21
51.062250916644359
 31
0.0
  0
LINE
  5
EB6
  8
3
 10
15.20157677928751
 20
56.570822345215923
 30
0.0
 11
15.350148207858879
 21
56.422250916644501
 31
0.0
  0
LINE
  5
EB7
  8
3
 10
15.052052969763711
 20
56.570822345215952
 30
0.0
 11
14.903481541192249
 21
56.4222509166446
 31
0.0
  0
LINE
  5
EB8
  8
3
 10
15.052052969763711
 20
56.570822345215952
 30
0.0
 11
15.20157677928751
 21
56.570822345215923
 31
0.0
  0
LINE
  5
EB9
  8
3
 10
15.201576779287411
 20
56.1241556785493
 30
0.0
 11
15.35014820785878
 21
55.975584249977878
 31
0.0
  0
LINE
  5
EBA
  8
3
 10
14.90348154119215
 20
55.97558424997797
 30
0.0
 11
15.05205296976362
 21
56.124155678549343
 31
0.0
  0
LINE
  5
EBB
  8
3
 10
15.05205296976365
 20
56.273679488073128
 30
0.0
 11
14.903481541192249
 21
56.4222509166446
 31
0.0
  0
LINE
  5
EBC
  8
3
 10
15.201576779287439
 20
56.273679488073093
 30
0.0
 11
15.350148207858879
 21
56.422250916644501
 31
0.0
  0
LINE
  5
EBD
  8
3
 10
15.201576779287411
 20
56.124155678549307
 30
0.0
 11
15.201576779287439
 21
56.273679488073078
 31
0.0
  0
LINE
  5
EBE
  8
3
 10
15.05205296976361
 20
56.124155678549343
 30
0.0
 11
15.05205296976365
 21
56.273679488073121
 31
0.0
  0
LINE
  5
EBF
  8
3
 10
15.05205296976361
 20
56.124155678549343
 30
0.0
 11
15.201576779287411
 21
56.124155678549307
 31
0.0
  0
LINE
  5
EC0
  8
3
 10
15.05205296976365
 20
56.273679488073121
 30
0.0
 11
15.201576779287439
 21
56.273679488073078
 31
0.0
  0
LINE
  5
EC1
  8
3
 10
15.20157677928686
 20
55.827012821405901
 30
0.0
 11
15.35014820785827
 21
55.975584249977281
 31
0.0
  0
LINE
  5
EC2
  8
3
 10
14.90348154119164
 20
55.975584249977281
 30
0.0
 11
15.05205296976307
 21
55.827012821405901
 31
0.0
  0
LINE
  5
EC3
  8
3
 10
15.05205296976307
 20
55.677489011882102
 30
0.0
 11
14.90348154119164
 21
55.528917583310658
 31
0.0
  0
LINE
  5
EC4
  8
3
 10
15.20157677928686
 20
55.677489011882102
 30
0.0
 11
15.35014820785827
 21
55.528917583310658
 31
0.0
  0
LINE
  5
EC5
  8
3
 10
15.20157677928686
 20
55.827012821405887
 30
0.0
 11
15.20157677928686
 21
55.677489011882109
 31
0.0
  0
LINE
  5
EC6
  8
3
 10
15.052052969763061
 20
55.827012821405901
 30
0.0
 11
15.05205296976307
 21
55.677489011882109
 31
0.0
  0
LINE
  5
EC7
  8
3
 10
15.052052969763061
 20
55.827012821405901
 30
0.0
 11
15.20157677928686
 21
55.827012821405887
 31
0.0
  0
LINE
  5
EC8
  8
3
 10
15.05205296976307
 20
55.677489011882109
 30
0.0
 11
15.20157677928686
 21
55.677489011882109
 31
0.0
  0
LINE
  5
EC9
  8
3
 10
15.20157677928686
 20
55.380346154739257
 30
0.0
 11
15.35014820785827
 21
55.528917583310658
 31
0.0
  0
LINE
  5
ECA
  8
3
 10
14.90348154119164
 20
55.528917583310658
 30
0.0
 11
15.05205296976307
 21
55.380346154739257
 31
0.0
  0
LINE
  5
ECB
  8
3
 10
15.05205296976307
 20
55.230822345215472
 30
0.0
 11
14.90348154119164
 21
55.082250916644028
 31
0.0
  0
LINE
  5
ECC
  8
3
 10
15.20157677928686
 20
55.230822345215472
 30
0.0
 11
15.35014820785827
 21
55.082250916644028
 31
0.0
  0
LINE
  5
ECD
  8
3
 10
15.20157677928686
 20
55.38034615473925
 30
0.0
 11
15.20157677928686
 21
55.230822345215479
 31
0.0
  0
LINE
  5
ECE
  8
3
 10
15.052052969763061
 20
55.380346154739257
 30
0.0
 11
15.05205296976307
 21
55.230822345215479
 31
0.0
  0
LINE
  5
ECF
  8
3
 10
15.052052969763061
 20
55.380346154739257
 30
0.0
 11
15.20157677928686
 21
55.38034615473925
 31
0.0
  0
LINE
  5
ED0
  8
3
 10
15.05205296976307
 20
55.230822345215479
 30
0.0
 11
15.20157677928686
 21
55.230822345215479
 31
0.0
  0
LINE
  5
ED1
  8
3
 10
15.20157677928686
 20
54.933679488072627
 30
0.0
 11
15.35014820785827
 21
55.082250916644028
 31
0.0
  0
LINE
  5
ED2
  8
3
 10
14.90348154119164
 20
55.082250916644028
 30
0.0
 11
15.05205296976307
 21
54.933679488072627
 31
0.0
  0
LINE
  5
ED3
  8
3
 10
15.05205296976307
 20
54.784155678548842
 30
0.0
 11
14.90348154119164
 21
54.635584249977398
 31
0.0
  0
LINE
  5
ED4
  8
3
 10
15.20157677928686
 20
54.784155678548842
 30
0.0
 11
15.35014820785827
 21
54.635584249977398
 31
0.0
  0
LINE
  5
ED5
  8
3
 10
15.20157677928686
 20
54.933679488072627
 30
0.0
 11
15.20157677928686
 21
54.784155678548842
 31
0.0
  0
LINE
  5
ED6
  8
3
 10
15.052052969763061
 20
54.933679488072627
 30
0.0
 11
15.05205296976307
 21
54.784155678548842
 31
0.0
  0
LINE
  5
ED7
  8
3
 10
15.052052969763061
 20
54.933679488072627
 30
0.0
 11
15.20157677928686
 21
54.933679488072627
 31
0.0
  0
LINE
  5
ED8
  8
3
 10
15.05205296976307
 20
54.784155678548842
 30
0.0
 11
15.20157677928686
 21
54.784155678548842
 31
0.0
  0
LINE
  5
ED9
  8
3
 10
15.20157677928686
 20
54.487012821405997
 30
0.0
 11
15.35014820785827
 21
54.635584249977398
 31
0.0
  0
LINE
  5
EDA
  8
3
 10
14.90348154119164
 20
54.635584249977398
 30
0.0
 11
15.05205296976307
 21
54.487012821405997
 31
0.0
  0
LINE
  5
EDB
  8
3
 10
15.05205296976307
 20
54.337489011882212
 30
0.0
 11
14.90348154119164
 21
54.188917583310769
 31
0.0
  0
LINE
  5
EDC
  8
3
 10
15.20157677928686
 20
54.337489011882212
 30
0.0
 11
15.35014820785827
 21
54.188917583310769
 31
0.0
  0
LINE
  5
EDD
  8
3
 10
15.20157677928686
 20
54.487012821405997
 30
0.0
 11
15.20157677928686
 21
54.337489011882219
 31
0.0
  0
LINE
  5
EDE
  8
3
 10
15.052052969763061
 20
54.487012821405997
 30
0.0
 11
15.05205296976307
 21
54.337489011882219
 31
0.0
  0
LINE
  5
EDF
  8
3
 10
15.052052969763061
 20
54.487012821405997
 30
0.0
 11
15.20157677928686
 21
54.487012821405997
 31
0.0
  0
LINE
  5
EE0
  8
3
 10
15.05205296976307
 20
54.337489011882219
 30
0.0
 11
15.20157677928686
 21
54.337489011882219
 31
0.0
  0
LINE
  5
EE1
  8
3
 10
15.20157677928686
 20
54.040346154739368
 30
0.0
 11
15.35014820785827
 21
54.188917583310769
 31
0.0
  0
LINE
  5
EE2
  8
3
 10
14.90348154119164
 20
54.188917583310769
 30
0.0
 11
15.05205296976307
 21
54.040346154739368
 31
0.0
  0
LINE
  5
EE3
  8
3
 10
15.05205296976307
 20
53.890822345215582
 30
0.0
 11
14.90348154119164
 21
53.742250916644132
 31
0.0
  0
LINE
  5
EE4
  8
3
 10
15.20157677928686
 20
53.890822345215582
 30
0.0
 11
15.35014820785827
 21
53.742250916644132
 31
0.0
  0
LINE
  5
EE5
  8
3
 10
15.20157677928686
 20
54.04034615473936
 30
0.0
 11
15.20157677928686
 21
53.890822345215589
 31
0.0
  0
LINE
  5
EE6
  8
3
 10
15.052052969763061
 20
54.040346154739368
 30
0.0
 11
15.05205296976307
 21
53.890822345215589
 31
0.0
  0
LINE
  5
EE7
  8
3
 10
15.052052969763061
 20
54.040346154739368
 30
0.0
 11
15.20157677928686
 21
54.04034615473936
 31
0.0
  0
LINE
  5
EE8
  8
3
 10
15.05205296976307
 20
53.890822345215589
 30
0.0
 11
15.20157677928686
 21
53.890822345215589
 31
0.0
  0
LINE
  5
EE9
  8
3
 10
15.20157677928686
 20
53.593679488072752
 30
0.0
 11
15.35014820785827
 21
53.742250916644132
 31
0.0
  0
LINE
  5
EEA
  8
3
 10
14.90348154119164
 20
53.742250916644132
 30
0.0
 11
15.05205296976307
 21
53.593679488072752
 31
0.0
  0
LINE
  5
EEB
  8
3
 10
15.05205296976307
 20
53.444155678548952
 30
0.0
 11
14.90348154119164
 21
53.295584249977509
 31
0.0
  0
LINE
  5
EEC
  8
3
 10
15.20157677928686
 20
53.444155678548952
 30
0.0
 11
15.35014820785827
 21
53.295584249977509
 31
0.0
  0
LINE
  5
EED
  8
3
 10
15.20157677928686
 20
53.593679488072738
 30
0.0
 11
15.20157677928686
 21
53.44415567854896
 31
0.0
  0
LINE
  5
EEE
  8
3
 10
15.052052969763061
 20
53.593679488072752
 30
0.0
 11
15.05205296976307
 21
53.44415567854896
 31
0.0
  0
LINE
  5
EEF
  8
3
 10
15.052052969763061
 20
53.593679488072752
 30
0.0
 11
15.20157677928686
 21
53.593679488072738
 31
0.0
  0
LINE
  5
EF0
  8
3
 10
15.05205296976307
 20
53.44415567854896
 30
0.0
 11
15.20157677928686
 21
53.44415567854896
 31
0.0
  0
LINE
  5
EF1
  8
3
 10
15.20157677928686
 20
53.147012821406108
 30
0.0
 11
15.35014820785827
 21
53.295584249977509
 31
0.0
  0
LINE
  5
EF2
  8
3
 10
14.90348154119164
 20
53.295584249977509
 30
0.0
 11
15.05205296976307
 21
53.147012821406108
 31
0.0
  0
LINE
  5
EF3
  8
3
 10
15.05205296976307
 20
52.997489011882323
 30
0.0
 11
14.90348154119164
 21
52.848917583310879
 31
0.0
  0
LINE
  5
EF4
  8
3
 10
15.20157677928686
 20
52.997489011882323
 30
0.0
 11
15.35014820785827
 21
52.848917583310879
 31
0.0
  0
LINE
  5
EF5
  8
3
 10
15.20157677928686
 20
53.147012821406101
 30
0.0
 11
15.20157677928686
 21
52.99748901188233
 31
0.0
  0
LINE
  5
EF6
  8
3
 10
15.052052969763061
 20
53.147012821406108
 30
0.0
 11
15.05205296976307
 21
52.99748901188233
 31
0.0
  0
LINE
  5
EF7
  8
3
 10
15.052052969763061
 20
53.147012821406108
 30
0.0
 11
15.20157677928686
 21
53.147012821406101
 31
0.0
  0
LINE
  5
EF8
  8
3
 10
15.05205296976307
 20
52.99748901188233
 30
0.0
 11
15.20157677928686
 21
52.99748901188233
 31
0.0
  0
LINE
  5
EF9
  8
3
 10
15.20157677928686
 20
52.700346154739492
 30
0.0
 11
15.35014820785827
 21
52.848917583310879
 31
0.0
  0
LINE
  5
EFA
  8
3
 10
14.90348154119164
 20
52.848917583310879
 30
0.0
 11
15.05205296976307
 21
52.700346154739492
 31
0.0
  0
LINE
  5
EFB
  8
3
 10
15.05205296976307
 20
52.550822345215693
 30
0.0
 11
14.90348154119164
 21
52.402250916644249
 31
0.0
  0
LINE
  5
EFC
  8
3
 10
15.20157677928686
 20
52.550822345215693
 30
0.0
 11
15.35014820785827
 21
52.402250916644249
 31
0.0
  0
LINE
  5
EFD
  8
3
 10
15.20157677928686
 20
52.700346154739478
 30
0.0
 11
15.20157677928686
 21
52.550822345215693
 31
0.0
  0
LINE
  5
EFE
  8
3
 10
15.052052969763061
 20
52.700346154739492
 30
0.0
 11
15.05205296976307
 21
52.550822345215693
 31
0.0
  0
LINE
  5
EFF
  8
3
 10
15.052052969763061
 20
52.700346154739492
 30
0.0
 11
15.20157677928686
 21
52.700346154739478
 31
0.0
  0
LINE
  5
F00
  8
3
 10
15.05205296976307
 20
52.550822345215693
 30
0.0
 11
15.20157677928686
 21
52.550822345215693
 31
0.0
  0
LINE
  5
F01
  8
3
 10
15.20157677928686
 20
52.253679488072848
 30
0.0
 11
15.35014820785827
 21
52.402250916644249
 31
0.0
  0
LINE
  5
F02
  8
3
 10
14.90348154119164
 20
52.402250916644249
 30
0.0
 11
15.05205296976307
 21
52.253679488072848
 31
0.0
  0
LINE
  5
F03
  8
3
 10
15.05205296976307
 20
52.104155678549063
 30
0.0
 11
14.90348154119164
 21
51.955584249977619
 31
0.0
  0
LINE
  5
F04
  8
3
 10
15.20157677928686
 20
52.104155678549063
 30
0.0
 11
15.35014820785827
 21
51.955584249977619
 31
0.0
  0
LINE
  5
F05
  8
3
 10
15.20157677928686
 20
52.253679488072848
 30
0.0
 11
15.20157677928686
 21
52.10415567854907
 31
0.0
  0
LINE
  5
F06
  8
3
 10
15.052052969763061
 20
52.253679488072848
 30
0.0
 11
15.05205296976307
 21
52.10415567854907
 31
0.0
  0
LINE
  5
F07
  8
3
 10
15.052052969763061
 20
52.253679488072848
 30
0.0
 11
15.20157677928686
 21
52.253679488072848
 31
0.0
  0
LINE
  5
F08
  8
3
 10
15.05205296976307
 20
52.10415567854907
 30
0.0
 11
15.20157677928686
 21
52.10415567854907
 31
0.0
  0
LINE
  5
F09
  8
3
 10
15.20157677928686
 20
51.807012821406218
 30
0.0
 11
15.35014820785827
 21
51.955584249977619
 31
0.0
  0
LINE
  5
F0A
  8
3
 10
14.90348154119164
 20
51.955584249977619
 30
0.0
 11
15.05205296976307
 21
51.807012821406218
 31
0.0
  0
LINE
  5
F0B
  8
3
 10
15.05205296976307
 20
51.657489011882433
 30
0.0
 11
14.90348154119164
 21
51.508917583310982
 31
0.0
  0
LINE
  5
F0C
  8
3
 10
15.20157677928686
 20
51.657489011882433
 30
0.0
 11
15.35014820785827
 21
51.508917583310982
 31
0.0
  0
LINE
  5
F0D
  8
3
 10
15.20157677928686
 20
51.807012821406211
 30
0.0
 11
15.20157677928686
 21
51.65748901188244
 31
0.0
  0
LINE
  5
F0E
  8
3
 10
15.052052969763061
 20
51.807012821406218
 30
0.0
 11
15.05205296976307
 21
51.65748901188244
 31
0.0
  0
LINE
  5
F0F
  8
3
 10
15.052052969763061
 20
51.807012821406218
 30
0.0
 11
15.20157677928686
 21
51.807012821406211
 31
0.0
  0
LINE
  5
F10
  8
3
 10
15.05205296976307
 20
51.65748901188244
 30
0.0
 11
15.20157677928686
 21
51.65748901188244
 31
0.0
  0
LINE
  5
F11
  8
3
 10
15.20157677928686
 20
51.360346154739602
 30
0.0
 11
15.35014820785827
 21
51.508917583310982
 31
0.0
  0
LINE
  5
F12
  8
3
 10
14.90348154119164
 20
51.508917583310982
 30
0.0
 11
15.05205296976307
 21
51.360346154739602
 31
0.0
  0
LINE
  5
F13
  8
3
 10
15.05205296976307
 20
51.210822345215803
 30
0.0
 11
14.90348154119164
 21
51.062250916644359
 31
0.0
  0
LINE
  5
F14
  8
3
 10
15.20157677928686
 20
51.210822345215803
 30
0.0
 11
15.35014820785827
 21
51.062250916644359
 31
0.0
  0
LINE
  5
F15
  8
3
 10
15.20157677928686
 20
51.360346154739588
 30
0.0
 11
15.20157677928686
 21
51.21082234521581
 31
0.0
  0
LINE
  5
F16
  8
3
 10
15.052052969763061
 20
51.360346154739602
 30
0.0
 11
15.05205296976307
 21
51.21082234521581
 31
0.0
  0
LINE
  5
F17
  8
3
 10
15.052052969763061
 20
51.360346154739602
 30
0.0
 11
15.20157677928686
 21
51.360346154739588
 31
0.0
  0
LINE
  5
F18
  8
3
 10
15.05205296976307
 20
51.21082234521581
 30
0.0
 11
15.20157677928686
 21
51.21082234521581
 31
0.0
  0
LINE
  5
F19
  8
3
 10
15.05205296976307
 20
50.76415567854918
 30
0.0
 11
15.20157677928686
 21
50.76415567854918
 31
0.0
  0
LINE
  5
F1A
  8
3
 10
15.052052969763061
 20
50.913679488072958
 30
0.0
 11
15.20157677928686
 21
50.913679488072951
 31
0.0
  0
LINE
  5
F1B
  8
3
 10
15.052052969763061
 20
50.913679488072958
 30
0.0
 11
15.05205296976307
 21
50.76415567854918
 31
0.0
  0
LINE
  5
F1C
  8
3
 10
15.20157677928686
 20
50.913679488072951
 30
0.0
 11
15.20157677928686
 21
50.76415567854918
 31
0.0
  0
LINE
  5
F1D
  8
3
 10
15.20157677928686
 20
50.764155678549173
 30
0.0
 11
15.35014820785827
 21
50.615584249977729
 31
0.0
  0
LINE
  5
F1E
  8
3
 10
15.05205296976307
 20
50.764155678549173
 30
0.0
 11
14.90348154119164
 21
50.615584249977729
 31
0.0
  0
LINE
  5
F1F
  8
3
 10
14.90348154119164
 20
51.062250916644359
 30
0.0
 11
15.05205296976307
 21
50.913679488072958
 31
0.0
  0
LINE
  5
F20
  8
3
 10
15.20157677928686
 20
50.913679488072958
 30
0.0
 11
15.35014820785827
 21
51.062250916644359
 31
0.0
  0
LINE
  5
F21
  8
3
 10
14.75491011262088
 20
56.570822345215923
 30
0.0
 11
14.903481541192249
 21
56.422250916644501
 31
0.0
  0
LINE
  5
F22
  8
3
 10
14.576417446850851
 20
56.541853488969743
 30
0.0
 11
14.45681487452562
 21
56.4222509166446
 31
0.0
  0
LINE
  5
F23
  8
3
 10
14.638707899968759
 20
56.570822345215937
 30
0.0
 11
14.75491011262088
 21
56.570822345215923
 31
0.0
  0
LINE
  5
F24
  8
3
 10
14.754910112620779
 20
56.1241556785493
 30
0.0
 11
14.90348154119215
 21
55.975584249977878
 31
0.0
  0
LINE
  5
F25
  8
3
 10
14.45681487452552
 20
55.97558424997797
 30
0.0
 11
14.60538630309699
 21
56.124155678549343
 31
0.0
  0
LINE
  5
F26
  8
3
 10
14.605386303097021
 20
56.273679488073128
 30
0.0
 11
14.45681487452562
 21
56.4222509166446
 31
0.0
  0
LINE
  5
F27
  8
3
 10
14.754910112620809
 20
56.273679488073093
 30
0.0
 11
14.903481541192249
 21
56.422250916644501
 31
0.0
  0
LINE
  5
F28
  8
3
 10
14.754910112620779
 20
56.124155678549307
 30
0.0
 11
14.754910112620809
 21
56.273679488073078
 31
0.0
  0
LINE
  5
F29
  8
3
 10
14.60538630309698
 20
56.124155678549343
 30
0.0
 11
14.605386303097021
 21
56.273679488073121
 31
0.0
  0
LINE
  5
F2A
  8
3
 10
14.60538630309698
 20
56.124155678549343
 30
0.0
 11
14.754910112620779
 21
56.124155678549307
 31
0.0
  0
LINE
  5
F2B
  8
3
 10
14.605386303097021
 20
56.273679488073121
 30
0.0
 11
14.754910112620809
 21
56.273679488073078
 31
0.0
  0
LINE
  5
F2C
  8
3
 10
14.754910112620241
 20
55.827012821405901
 30
0.0
 11
14.90348154119164
 21
55.975584249977281
 31
0.0
  0
LINE
  5
F2D
  8
3
 10
14.45681487452501
 20
55.975584249977281
 30
0.0
 11
14.60538630309644
 21
55.827012821405901
 31
0.0
  0
LINE
  5
F2E
  8
3
 10
14.60538630309644
 20
55.677489011882102
 30
0.0
 11
14.45681487452501
 21
55.528917583310658
 31
0.0
  0
LINE
  5
F2F
  8
3
 10
14.754910112620241
 20
55.677489011882102
 30
0.0
 11
14.90348154119164
 21
55.528917583310658
 31
0.0
  0
LINE
  5
F30
  8
3
 10
14.754910112620241
 20
55.827012821405887
 30
0.0
 11
14.754910112620241
 21
55.677489011882109
 31
0.0
  0
LINE
  5
F31
  8
3
 10
14.60538630309644
 20
55.827012821405901
 30
0.0
 11
14.60538630309644
 21
55.677489011882109
 31
0.0
  0
LINE
  5
F32
  8
3
 10
14.60538630309644
 20
55.827012821405901
 30
0.0
 11
14.75491011262023
 21
55.827012821405887
 31
0.0
  0
LINE
  5
F33
  8
3
 10
14.60538630309644
 20
55.677489011882109
 30
0.0
 11
14.754910112620241
 21
55.677489011882109
 31
0.0
  0
LINE
  5
F34
  8
3
 10
14.754910112620241
 20
55.380346154739257
 30
0.0
 11
14.90348154119164
 21
55.528917583310658
 31
0.0
  0
LINE
  5
F35
  8
3
 10
14.45681487452501
 20
55.528917583310658
 30
0.0
 11
14.60538630309644
 21
55.380346154739257
 31
0.0
  0
LINE
  5
F36
  8
3
 10
14.60538630309644
 20
55.230822345215472
 30
0.0
 11
14.45681487452501
 21
55.082250916644028
 31
0.0
  0
LINE
  5
F37
  8
3
 10
14.754910112620241
 20
55.230822345215472
 30
0.0
 11
14.90348154119164
 21
55.082250916644028
 31
0.0
  0
LINE
  5
F38
  8
3
 10
14.754910112620241
 20
55.38034615473925
 30
0.0
 11
14.754910112620241
 21
55.230822345215479
 31
0.0
  0
LINE
  5
F39
  8
3
 10
14.60538630309644
 20
55.380346154739257
 30
0.0
 11
14.60538630309644
 21
55.230822345215479
 31
0.0
  0
LINE
  5
F3A
  8
3
 10
14.60538630309644
 20
55.380346154739257
 30
0.0
 11
14.75491011262023
 21
55.38034615473925
 31
0.0
  0
LINE
  5
F3B
  8
3
 10
14.60538630309644
 20
55.230822345215479
 30
0.0
 11
14.754910112620241
 21
55.230822345215479
 31
0.0
  0
LINE
  5
F3C
  8
3
 10
14.754910112620241
 20
54.933679488072627
 30
0.0
 11
14.90348154119164
 21
55.082250916644028
 31
0.0
  0
LINE
  5
F3D
  8
3
 10
14.45681487452501
 20
55.082250916644028
 30
0.0
 11
14.60538630309644
 21
54.933679488072627
 31
0.0
  0
LINE
  5
F3E
  8
3
 10
14.60538630309644
 20
54.784155678548842
 30
0.0
 11
14.45681487452501
 21
54.635584249977398
 31
0.0
  0
LINE
  5
F3F
  8
3
 10
14.754910112620241
 20
54.784155678548842
 30
0.0
 11
14.90348154119164
 21
54.635584249977398
 31
0.0
  0
LINE
  5
F40
  8
3
 10
14.754910112620241
 20
54.933679488072627
 30
0.0
 11
14.754910112620241
 21
54.784155678548842
 31
0.0
  0
LINE
  5
F41
  8
3
 10
14.60538630309644
 20
54.933679488072627
 30
0.0
 11
14.60538630309644
 21
54.784155678548842
 31
0.0
  0
LINE
  5
F42
  8
3
 10
14.60538630309644
 20
54.933679488072627
 30
0.0
 11
14.75491011262023
 21
54.933679488072627
 31
0.0
  0
LINE
  5
F43
  8
3
 10
14.60538630309644
 20
54.784155678548842
 30
0.0
 11
14.754910112620241
 21
54.784155678548842
 31
0.0
  0
LINE
  5
F44
  8
3
 10
14.754910112620241
 20
54.487012821405997
 30
0.0
 11
14.90348154119164
 21
54.635584249977398
 31
0.0
  0
LINE
  5
F45
  8
3
 10
14.45681487452501
 20
54.635584249977398
 30
0.0
 11
14.60538630309644
 21
54.487012821405997
 31
0.0
  0
LINE
  5
F46
  8
3
 10
14.60538630309644
 20
54.337489011882212
 30
0.0
 11
14.45681487452501
 21
54.188917583310769
 31
0.0
  0
LINE
  5
F47
  8
3
 10
14.754910112620241
 20
54.337489011882212
 30
0.0
 11
14.90348154119164
 21
54.188917583310769
 31
0.0
  0
LINE
  5
F48
  8
3
 10
14.754910112620241
 20
54.487012821405997
 30
0.0
 11
14.754910112620241
 21
54.337489011882219
 31
0.0
  0
LINE
  5
F49
  8
3
 10
14.60538630309644
 20
54.487012821405997
 30
0.0
 11
14.60538630309644
 21
54.337489011882219
 31
0.0
  0
LINE
  5
F4A
  8
3
 10
14.60538630309644
 20
54.487012821405997
 30
0.0
 11
14.75491011262023
 21
54.487012821405997
 31
0.0
  0
LINE
  5
F4B
  8
3
 10
14.60538630309644
 20
54.337489011882219
 30
0.0
 11
14.754910112620241
 21
54.337489011882219
 31
0.0
  0
LINE
  5
F4C
  8
3
 10
14.754910112620241
 20
54.040346154739368
 30
0.0
 11
14.90348154119164
 21
54.188917583310769
 31
0.0
  0
LINE
  5
F4D
  8
3
 10
14.45681487452501
 20
54.188917583310769
 30
0.0
 11
14.60538630309644
 21
54.040346154739368
 31
0.0
  0
LINE
  5
F4E
  8
3
 10
14.60538630309644
 20
53.890822345215582
 30
0.0
 11
14.45681487452501
 21
53.742250916644132
 31
0.0
  0
LINE
  5
F4F
  8
3
 10
14.754910112620241
 20
53.890822345215582
 30
0.0
 11
14.90348154119164
 21
53.742250916644132
 31
0.0
  0
LINE
  5
F50
  8
3
 10
14.754910112620241
 20
54.04034615473936
 30
0.0
 11
14.754910112620241
 21
53.890822345215589
 31
0.0
  0
LINE
  5
F51
  8
3
 10
14.60538630309644
 20
54.040346154739368
 30
0.0
 11
14.60538630309644
 21
53.890822345215589
 31
0.0
  0
LINE
  5
F52
  8
3
 10
14.60538630309644
 20
54.040346154739368
 30
0.0
 11
14.75491011262023
 21
54.04034615473936
 31
0.0
  0
LINE
  5
F53
  8
3
 10
14.60538630309644
 20
53.890822345215589
 30
0.0
 11
14.754910112620241
 21
53.890822345215589
 31
0.0
  0
LINE
  5
F54
  8
3
 10
14.754910112620241
 20
53.593679488072752
 30
0.0
 11
14.90348154119164
 21
53.742250916644132
 31
0.0
  0
LINE
  5
F55
  8
3
 10
14.45681487452501
 20
53.742250916644132
 30
0.0
 11
14.60538630309644
 21
53.593679488072752
 31
0.0
  0
LINE
  5
F56
  8
3
 10
14.60538630309644
 20
53.444155678548952
 30
0.0
 11
14.45681487452501
 21
53.295584249977509
 31
0.0
  0
LINE
  5
F57
  8
3
 10
14.754910112620241
 20
53.444155678548952
 30
0.0
 11
14.90348154119164
 21
53.295584249977509
 31
0.0
  0
LINE
  5
F58
  8
3
 10
14.754910112620241
 20
53.593679488072738
 30
0.0
 11
14.754910112620241
 21
53.44415567854896
 31
0.0
  0
LINE
  5
F59
  8
3
 10
14.60538630309644
 20
53.593679488072752
 30
0.0
 11
14.60538630309644
 21
53.44415567854896
 31
0.0
  0
LINE
  5
F5A
  8
3
 10
14.60538630309644
 20
53.593679488072752
 30
0.0
 11
14.75491011262023
 21
53.593679488072738
 31
0.0
  0
LINE
  5
F5B
  8
3
 10
14.60538630309644
 20
53.44415567854896
 30
0.0
 11
14.754910112620241
 21
53.44415567854896
 31
0.0
  0
LINE
  5
F5C
  8
3
 10
14.754910112620241
 20
53.147012821406108
 30
0.0
 11
14.90348154119164
 21
53.295584249977509
 31
0.0
  0
LINE
  5
F5D
  8
3
 10
14.45681487452501
 20
53.295584249977509
 30
0.0
 11
14.60538630309644
 21
53.147012821406108
 31
0.0
  0
LINE
  5
F5E
  8
3
 10
14.60538630309644
 20
52.997489011882323
 30
0.0
 11
14.45681487452501
 21
52.848917583310879
 31
0.0
  0
LINE
  5
F5F
  8
3
 10
14.754910112620241
 20
52.997489011882323
 30
0.0
 11
14.90348154119164
 21
52.848917583310879
 31
0.0
  0
LINE
  5
F60
  8
3
 10
14.754910112620241
 20
53.147012821406101
 30
0.0
 11
14.754910112620241
 21
52.99748901188233
 31
0.0
  0
LINE
  5
F61
  8
3
 10
14.60538630309644
 20
53.147012821406108
 30
0.0
 11
14.60538630309644
 21
52.99748901188233
 31
0.0
  0
LINE
  5
F62
  8
3
 10
14.60538630309644
 20
53.147012821406108
 30
0.0
 11
14.75491011262023
 21
53.147012821406101
 31
0.0
  0
LINE
  5
F63
  8
3
 10
14.60538630309644
 20
52.99748901188233
 30
0.0
 11
14.754910112620241
 21
52.99748901188233
 31
0.0
  0
LINE
  5
F64
  8
3
 10
14.754910112620241
 20
52.700346154739492
 30
0.0
 11
14.90348154119164
 21
52.848917583310879
 31
0.0
  0
LINE
  5
F65
  8
3
 10
14.45681487452501
 20
52.848917583310879
 30
0.0
 11
14.60538630309644
 21
52.700346154739492
 31
0.0
  0
LINE
  5
F66
  8
3
 10
14.60538630309644
 20
52.550822345215693
 30
0.0
 11
14.45681487452501
 21
52.402250916644249
 31
0.0
  0
LINE
  5
F67
  8
3
 10
14.754910112620241
 20
52.550822345215693
 30
0.0
 11
14.90348154119164
 21
52.402250916644249
 31
0.0
  0
LINE
  5
F68
  8
3
 10
14.754910112620241
 20
52.700346154739478
 30
0.0
 11
14.754910112620241
 21
52.550822345215693
 31
0.0
  0
LINE
  5
F69
  8
3
 10
14.60538630309644
 20
52.700346154739492
 30
0.0
 11
14.60538630309644
 21
52.550822345215693
 31
0.0
  0
LINE
  5
F6A
  8
3
 10
14.60538630309644
 20
52.700346154739492
 30
0.0
 11
14.75491011262023
 21
52.700346154739478
 31
0.0
  0
LINE
  5
F6B
  8
3
 10
14.60538630309644
 20
52.550822345215693
 30
0.0
 11
14.754910112620241
 21
52.550822345215693
 31
0.0
  0
LINE
  5
F6C
  8
3
 10
14.754910112620241
 20
52.253679488072848
 30
0.0
 11
14.90348154119164
 21
52.402250916644249
 31
0.0
  0
LINE
  5
F6D
  8
3
 10
14.45681487452501
 20
52.402250916644249
 30
0.0
 11
14.60538630309644
 21
52.253679488072848
 31
0.0
  0
LINE
  5
F6E
  8
3
 10
14.60538630309644
 20
52.104155678549063
 30
0.0
 11
14.45681487452501
 21
51.955584249977619
 31
0.0
  0
LINE
  5
F6F
  8
3
 10
14.754910112620241
 20
52.104155678549063
 30
0.0
 11
14.90348154119164
 21
51.955584249977619
 31
0.0
  0
LINE
  5
F70
  8
3
 10
14.754910112620241
 20
52.253679488072848
 30
0.0
 11
14.754910112620241
 21
52.10415567854907
 31
0.0
  0
LINE
  5
F71
  8
3
 10
14.60538630309644
 20
52.253679488072848
 30
0.0
 11
14.60538630309644
 21
52.10415567854907
 31
0.0
  0
LINE
  5
F72
  8
3
 10
14.60538630309644
 20
52.253679488072848
 30
0.0
 11
14.75491011262023
 21
52.253679488072848
 31
0.0
  0
LINE
  5
F73
  8
3
 10
14.60538630309644
 20
52.10415567854907
 30
0.0
 11
14.754910112620241
 21
52.10415567854907
 31
0.0
  0
LINE
  5
F74
  8
3
 10
14.754910112620241
 20
51.807012821406218
 30
0.0
 11
14.90348154119164
 21
51.955584249977619
 31
0.0
  0
LINE
  5
F75
  8
3
 10
14.45681487452501
 20
51.955584249977619
 30
0.0
 11
14.60538630309644
 21
51.807012821406218
 31
0.0
  0
LINE
  5
F76
  8
3
 10
14.60538630309644
 20
51.657489011882433
 30
0.0
 11
14.45681487452501
 21
51.508917583310982
 31
0.0
  0
LINE
  5
F77
  8
3
 10
14.754910112620241
 20
51.657489011882433
 30
0.0
 11
14.90348154119164
 21
51.508917583310982
 31
0.0
  0
LINE
  5
F78
  8
3
 10
14.754910112620241
 20
51.807012821406211
 30
0.0
 11
14.754910112620241
 21
51.65748901188244
 31
0.0
  0
LINE
  5
F79
  8
3
 10
14.60538630309644
 20
51.807012821406218
 30
0.0
 11
14.60538630309644
 21
51.65748901188244
 31
0.0
  0
LINE
  5
F7A
  8
3
 10
14.60538630309644
 20
51.807012821406218
 30
0.0
 11
14.75491011262023
 21
51.807012821406211
 31
0.0
  0
LINE
  5
F7B
  8
3
 10
14.60538630309644
 20
51.65748901188244
 30
0.0
 11
14.754910112620241
 21
51.65748901188244
 31
0.0
  0
LINE
  5
F7C
  8
3
 10
14.754910112620241
 20
51.360346154739602
 30
0.0
 11
14.90348154119164
 21
51.508917583310982
 31
0.0
  0
LINE
  5
F7D
  8
3
 10
14.45681487452501
 20
51.508917583310982
 30
0.0
 11
14.60538630309644
 21
51.360346154739602
 31
0.0
  0
LINE
  5
F7E
  8
3
 10
14.60538630309644
 20
51.210822345215803
 30
0.0
 11
14.45681487452501
 21
51.062250916644359
 31
0.0
  0
LINE
  5
F7F
  8
3
 10
14.754910112620241
 20
51.210822345215803
 30
0.0
 11
14.90348154119164
 21
51.062250916644359
 31
0.0
  0
LINE
  5
F80
  8
3
 10
14.754910112620241
 20
51.360346154739588
 30
0.0
 11
14.754910112620241
 21
51.21082234521581
 31
0.0
  0
LINE
  5
F81
  8
3
 10
14.60538630309644
 20
51.360346154739602
 30
0.0
 11
14.60538630309644
 21
51.21082234521581
 31
0.0
  0
LINE
  5
F82
  8
3
 10
14.60538630309644
 20
51.360346154739602
 30
0.0
 11
14.75491011262023
 21
51.360346154739588
 31
0.0
  0
LINE
  5
F83
  8
3
 10
14.60538630309644
 20
51.21082234521581
 30
0.0
 11
14.754910112620241
 21
51.21082234521581
 31
0.0
  0
LINE
  5
F84
  8
3
 10
14.60538630309644
 20
50.76415567854918
 30
0.0
 11
14.754910112620241
 21
50.76415567854918
 31
0.0
  0
LINE
  5
F85
  8
3
 10
14.60538630309644
 20
50.913679488072958
 30
0.0
 11
14.75491011262023
 21
50.913679488072951
 31
0.0
  0
LINE
  5
F86
  8
3
 10
14.60538630309644
 20
50.913679488072958
 30
0.0
 11
14.60538630309644
 21
50.76415567854918
 31
0.0
  0
LINE
  5
F87
  8
3
 10
14.754910112620241
 20
50.913679488072951
 30
0.0
 11
14.754910112620241
 21
50.76415567854918
 31
0.0
  0
LINE
  5
F88
  8
3
 10
14.754910112620241
 20
50.764155678549173
 30
0.0
 11
14.90348154119164
 21
50.615584249977729
 31
0.0
  0
LINE
  5
F89
  8
3
 10
14.60538630309644
 20
50.764155678549173
 30
0.0
 11
14.45681487452501
 21
50.615584249977729
 31
0.0
  0
LINE
  5
F8A
  8
3
 10
14.45681487452501
 20
51.062250916644359
 30
0.0
 11
14.60538630309644
 21
50.913679488072958
 31
0.0
  0
LINE
  5
F8B
  8
3
 10
14.754910112620241
 20
50.913679488072958
 30
0.0
 11
14.90348154119164
 21
51.062250916644359
 31
0.0
  0
LINE
  5
F8F
  8
3
 10
14.41806766351182
 20
56.460998127658222
 30
0.0
 11
14.45681487452552
 21
56.422250916644501
 31
0.0
  0
LINE
  5
F97
  8
3
 10
14.308243445953609
 20
56.273679488072517
 30
0.0
 11
14.45681487452501
 21
56.422250916643918
 31
0.0
  0
LINE
  5
F98
  8
3
 10
14.140500431271519
 20
56.29189869323082
 30
0.0
 11
14.15871963642981
 21
56.273679488072517
 31
0.0
  0
LINE
  5
F99
  8
3
 10
14.15871963642981
 20
56.124155678548732
 30
0.0
 11
14.01014820785838
 21
55.975584249977281
 31
0.0
  0
LINE
  5
F9A
  8
3
 10
14.308243445953609
 20
56.124155678548732
 30
0.0
 11
14.45681487452501
 21
55.975584249977281
 31
0.0
  0
LINE
  5
F9B
  8
3
 10
14.308243445953609
 20
56.27367948807251
 30
0.0
 11
14.308243445953609
 21
56.124155678548739
 31
0.0
  0
LINE
  5
F9C
  8
3
 10
14.15871963642981
 20
56.273679488072517
 30
0.0
 11
14.15871963642981
 21
56.124155678548739
 31
0.0
  0
LINE
  5
F9D
  8
3
 10
14.15871963642981
 20
56.273679488072517
 30
0.0
 11
14.3082434459536
 21
56.27367948807251
 31
0.0
  0
LINE
  5
F9E
  8
3
 10
14.15871963642981
 20
56.124155678548739
 30
0.0
 11
14.308243445953609
 21
56.124155678548739
 31
0.0
  0
LINE
  5
F9F
  8
3
 10
14.308243445953609
 20
55.827012821405901
 30
0.0
 11
14.45681487452501
 21
55.975584249977281
 31
0.0
  0
LINE
  5
FA0
  8
3
 10
14.01014820785838
 20
55.975584249977281
 30
0.0
 11
14.15871963642981
 21
55.827012821405901
 31
0.0
  0
LINE
  5
FA1
  8
3
 10
14.15871963642981
 20
55.677489011882102
 30
0.0
 11
14.01014820785838
 21
55.528917583310658
 31
0.0
  0
LINE
  5
FA2
  8
3
 10
14.308243445953609
 20
55.677489011882102
 30
0.0
 11
14.45681487452501
 21
55.528917583310658
 31
0.0
  0
LINE
  5
FA3
  8
3
 10
14.308243445953609
 20
55.827012821405887
 30
0.0
 11
14.308243445953609
 21
55.677489011882109
 31
0.0
  0
LINE
  5
FA4
  8
3
 10
14.15871963642981
 20
55.827012821405901
 30
0.0
 11
14.15871963642981
 21
55.677489011882109
 31
0.0
  0
LINE
  5
FA5
  8
3
 10
14.15871963642981
 20
55.827012821405901
 30
0.0
 11
14.3082434459536
 21
55.827012821405887
 31
0.0
  0
LINE
  5
FA6
  8
3
 10
14.15871963642981
 20
55.677489011882109
 30
0.0
 11
14.308243445953609
 21
55.677489011882109
 31
0.0
  0
LINE
  5
FA7
  8
3
 10
14.308243445953609
 20
55.380346154739257
 30
0.0
 11
14.45681487452501
 21
55.528917583310658
 31
0.0
  0
LINE
  5
FA8
  8
3
 10
14.01014820785838
 20
55.528917583310658
 30
0.0
 11
14.15871963642981
 21
55.380346154739257
 31
0.0
  0
LINE
  5
FA9
  8
3
 10
14.15871963642981
 20
55.230822345215472
 30
0.0
 11
14.01014820785838
 21
55.082250916644028
 31
0.0
  0
LINE
  5
FAA
  8
3
 10
14.308243445953609
 20
55.230822345215472
 30
0.0
 11
14.45681487452501
 21
55.082250916644028
 31
0.0
  0
LINE
  5
FAB
  8
3
 10
14.308243445953609
 20
55.38034615473925
 30
0.0
 11
14.308243445953609
 21
55.230822345215479
 31
0.0
  0
LINE
  5
FAC
  8
3
 10
14.15871963642981
 20
55.380346154739257
 30
0.0
 11
14.15871963642981
 21
55.230822345215479
 31
0.0
  0
LINE
  5
FAD
  8
3
 10
14.15871963642981
 20
55.380346154739257
 30
0.0
 11
14.3082434459536
 21
55.38034615473925
 31
0.0
  0
LINE
  5
FAE
  8
3
 10
14.15871963642981
 20
55.230822345215479
 30
0.0
 11
14.308243445953609
 21
55.230822345215479
 31
0.0
  0
LINE
  5
FAF
  8
3
 10
14.308243445953609
 20
54.933679488072627
 30
0.0
 11
14.45681487452501
 21
55.082250916644028
 31
0.0
  0
LINE
  5
FB0
  8
3
 10
14.01014820785838
 20
55.082250916644028
 30
0.0
 11
14.15871963642981
 21
54.933679488072627
 31
0.0
  0
LINE
  5
FB1
  8
3
 10
14.15871963642981
 20
54.784155678548842
 30
0.0
 11
14.01014820785838
 21
54.635584249977398
 31
0.0
  0
LINE
  5
FB2
  8
3
 10
14.308243445953609
 20
54.784155678548842
 30
0.0
 11
14.45681487452501
 21
54.635584249977398
 31
0.0
  0
LINE
  5
FB3
  8
3
 10
14.308243445953609
 20
54.933679488072627
 30
0.0
 11
14.308243445953609
 21
54.784155678548842
 31
0.0
  0
LINE
  5
FB4
  8
3
 10
14.15871963642981
 20
54.933679488072627
 30
0.0
 11
14.15871963642981
 21
54.784155678548842
 31
0.0
  0
LINE
  5
FB5
  8
3
 10
14.15871963642981
 20
54.933679488072627
 30
0.0
 11
14.3082434459536
 21
54.933679488072627
 31
0.0
  0
LINE
  5
FB6
  8
3
 10
14.15871963642981
 20
54.784155678548842
 30
0.0
 11
14.308243445953609
 21
54.784155678548842
 31
0.0
  0
LINE
  5
FB7
  8
3
 10
14.308243445953609
 20
54.487012821405997
 30
0.0
 11
14.45681487452501
 21
54.635584249977398
 31
0.0
  0
LINE
  5
FB8
  8
3
 10
14.01014820785838
 20
54.635584249977398
 30
0.0
 11
14.15871963642981
 21
54.487012821405997
 31
0.0
  0
LINE
  5
FB9
  8
3
 10
14.15871963642981
 20
54.337489011882212
 30
0.0
 11
14.01014820785838
 21
54.188917583310769
 31
0.0
  0
LINE
  5
FBA
  8
3
 10
14.308243445953609
 20
54.337489011882212
 30
0.0
 11
14.45681487452501
 21
54.188917583310769
 31
0.0
  0
LINE
  5
FBB
  8
3
 10
14.308243445953609
 20
54.487012821405997
 30
0.0
 11
14.308243445953609
 21
54.337489011882219
 31
0.0
  0
LINE
  5
FBC
  8
3
 10
14.15871963642981
 20
54.487012821405997
 30
0.0
 11
14.15871963642981
 21
54.337489011882219
 31
0.0
  0
LINE
  5
FBD
  8
3
 10
14.15871963642981
 20
54.487012821405997
 30
0.0
 11
14.3082434459536
 21
54.487012821405997
 31
0.0
  0
LINE
  5
FBE
  8
3
 10
14.15871963642981
 20
54.337489011882219
 30
0.0
 11
14.308243445953609
 21
54.337489011882219
 31
0.0
  0
LINE
  5
FBF
  8
3
 10
14.308243445953609
 20
54.040346154739368
 30
0.0
 11
14.45681487452501
 21
54.188917583310769
 31
0.0
  0
LINE
  5
FC0
  8
3
 10
14.01014820785838
 20
54.188917583310769
 30
0.0
 11
14.15871963642981
 21
54.040346154739368
 31
0.0
  0
LINE
  5
FC1
  8
3
 10
14.15871963642981
 20
53.890822345215582
 30
0.0
 11
14.01014820785838
 21
53.742250916644132
 31
0.0
  0
LINE
  5
FC2
  8
3
 10
14.308243445953609
 20
53.890822345215582
 30
0.0
 11
14.45681487452501
 21
53.742250916644132
 31
0.0
  0
LINE
  5
FC3
  8
3
 10
14.308243445953609
 20
54.04034615473936
 30
0.0
 11
14.308243445953609
 21
53.890822345215589
 31
0.0
  0
LINE
  5
FC4
  8
3
 10
14.15871963642981
 20
54.040346154739368
 30
0.0
 11
14.15871963642981
 21
53.890822345215589
 31
0.0
  0
LINE
  5
FC5
  8
3
 10
14.15871963642981
 20
54.040346154739368
 30
0.0
 11
14.3082434459536
 21
54.04034615473936
 31
0.0
  0
LINE
  5
FC6
  8
3
 10
14.15871963642981
 20
53.890822345215589
 30
0.0
 11
14.308243445953609
 21
53.890822345215589
 31
0.0
  0
LINE
  5
FC7
  8
3
 10
14.308243445953609
 20
53.593679488072752
 30
0.0
 11
14.45681487452501
 21
53.742250916644132
 31
0.0
  0
LINE
  5
FC8
  8
3
 10
14.01014820785838
 20
53.742250916644132
 30
0.0
 11
14.15871963642981
 21
53.593679488072752
 31
0.0
  0
LINE
  5
FC9
  8
3
 10
14.15871963642981
 20
53.444155678548952
 30
0.0
 11
14.01014820785838
 21
53.295584249977509
 31
0.0
  0
LINE
  5
FCA
  8
3
 10
14.308243445953609
 20
53.444155678548952
 30
0.0
 11
14.45681487452501
 21
53.295584249977509
 31
0.0
  0
LINE
  5
FCB
  8
3
 10
14.308243445953609
 20
53.593679488072738
 30
0.0
 11
14.308243445953609
 21
53.44415567854896
 31
0.0
  0
LINE
  5
FCC
  8
3
 10
14.15871963642981
 20
53.593679488072752
 30
0.0
 11
14.15871963642981
 21
53.44415567854896
 31
0.0
  0
LINE
  5
FCD
  8
3
 10
14.15871963642981
 20
53.593679488072752
 30
0.0
 11
14.3082434459536
 21
53.593679488072738
 31
0.0
  0
LINE
  5
FCE
  8
3
 10
14.15871963642981
 20
53.44415567854896
 30
0.0
 11
14.308243445953609
 21
53.44415567854896
 31
0.0
  0
LINE
  5
FCF
  8
3
 10
14.308243445953609
 20
53.147012821406108
 30
0.0
 11
14.45681487452501
 21
53.295584249977509
 31
0.0
  0
LINE
  5
FD0
  8
3
 10
14.01014820785838
 20
53.295584249977509
 30
0.0
 11
14.15871963642981
 21
53.147012821406108
 31
0.0
  0
LINE
  5
FD1
  8
3
 10
14.15871963642981
 20
52.997489011882323
 30
0.0
 11
14.01014820785838
 21
52.848917583310879
 31
0.0
  0
LINE
  5
FD2
  8
3
 10
14.308243445953609
 20
52.997489011882323
 30
0.0
 11
14.45681487452501
 21
52.848917583310879
 31
0.0
  0
LINE
  5
FD3
  8
3
 10
14.308243445953609
 20
53.147012821406101
 30
0.0
 11
14.308243445953609
 21
52.99748901188233
 31
0.0
  0
LINE
  5
FD4
  8
3
 10
14.15871963642981
 20
53.147012821406108
 30
0.0
 11
14.15871963642981
 21
52.99748901188233
 31
0.0
  0
LINE
  5
FD5
  8
3
 10
14.15871963642981
 20
53.147012821406108
 30
0.0
 11
14.3082434459536
 21
53.147012821406101
 31
0.0
  0
LINE
  5
FD6
  8
3
 10
14.15871963642981
 20
52.99748901188233
 30
0.0
 11
14.308243445953609
 21
52.99748901188233
 31
0.0
  0
LINE
  5
FD7
  8
3
 10
14.308243445953609
 20
52.700346154739492
 30
0.0
 11
14.45681487452501
 21
52.848917583310879
 31
0.0
  0
LINE
  5
FD8
  8
3
 10
14.01014820785838
 20
52.848917583310879
 30
0.0
 11
14.15871963642981
 21
52.700346154739492
 31
0.0
  0
LINE
  5
FD9
  8
3
 10
14.15871963642981
 20
52.550822345215693
 30
0.0
 11
14.01014820785838
 21
52.402250916644249
 31
0.0
  0
LINE
  5
FDA
  8
3
 10
14.308243445953609
 20
52.550822345215693
 30
0.0
 11
14.45681487452501
 21
52.402250916644249
 31
0.0
  0
LINE
  5
FDB
  8
3
 10
14.308243445953609
 20
52.700346154739478
 30
0.0
 11
14.308243445953609
 21
52.550822345215693
 31
0.0
  0
LINE
  5
FDC
  8
3
 10
14.15871963642981
 20
52.700346154739492
 30
0.0
 11
14.15871963642981
 21
52.550822345215693
 31
0.0
  0
LINE
  5
FDD
  8
3
 10
14.15871963642981
 20
52.700346154739492
 30
0.0
 11
14.3082434459536
 21
52.700346154739478
 31
0.0
  0
LINE
  5
FDE
  8
3
 10
14.15871963642981
 20
52.550822345215693
 30
0.0
 11
14.308243445953609
 21
52.550822345215693
 31
0.0
  0
LINE
  5
FDF
  8
3
 10
14.308243445953609
 20
52.253679488072848
 30
0.0
 11
14.45681487452501
 21
52.402250916644249
 31
0.0
  0
LINE
  5
FE0
  8
3
 10
14.01014820785838
 20
52.402250916644249
 30
0.0
 11
14.15871963642981
 21
52.253679488072848
 31
0.0
  0
LINE
  5
FE1
  8
3
 10
14.15871963642981
 20
52.104155678549063
 30
0.0
 11
14.01014820785838
 21
51.955584249977619
 31
0.0
  0
LINE
  5
FE2
  8
3
 10
14.308243445953609
 20
52.104155678549063
 30
0.0
 11
14.45681487452501
 21
51.955584249977619
 31
0.0
  0
LINE
  5
FE3
  8
3
 10
14.308243445953609
 20
52.253679488072848
 30
0.0
 11
14.308243445953609
 21
52.10415567854907
 31
0.0
  0
LINE
  5
FE4
  8
3
 10
14.15871963642981
 20
52.253679488072848
 30
0.0
 11
14.15871963642981
 21
52.10415567854907
 31
0.0
  0
LINE
  5
FE5
  8
3
 10
14.15871963642981
 20
52.253679488072848
 30
0.0
 11
14.3082434459536
 21
52.253679488072848
 31
0.0
  0
LINE
  5
FE6
  8
3
 10
14.15871963642981
 20
52.10415567854907
 30
0.0
 11
14.308243445953609
 21
52.10415567854907
 31
0.0
  0
LINE
  5
FE7
  8
3
 10
14.308243445953609
 20
51.807012821406218
 30
0.0
 11
14.45681487452501
 21
51.955584249977619
 31
0.0
  0
LINE
  5
FE8
  8
3
 10
14.01014820785838
 20
51.955584249977619
 30
0.0
 11
14.15871963642981
 21
51.807012821406218
 31
0.0
  0
LINE
  5
FE9
  8
3
 10
14.15871963642981
 20
51.657489011882433
 30
0.0
 11
14.01014820785838
 21
51.508917583310982
 31
0.0
  0
LINE
  5
FEA
  8
3
 10
14.308243445953609
 20
51.657489011882433
 30
0.0
 11
14.45681487452501
 21
51.508917583310982
 31
0.0
  0
LINE
  5
FEB
  8
3
 10
14.308243445953609
 20
51.807012821406211
 30
0.0
 11
14.308243445953609
 21
51.65748901188244
 31
0.0
  0
LINE
  5
FEC
  8
3
 10
14.15871963642981
 20
51.807012821406218
 30
0.0
 11
14.15871963642981
 21
51.65748901188244
 31
0.0
  0
LINE
  5
FED
  8
3
 10
14.15871963642981
 20
51.807012821406218
 30
0.0
 11
14.3082434459536
 21
51.807012821406211
 31
0.0
  0
LINE
  5
FEE
  8
3
 10
14.15871963642981
 20
51.65748901188244
 30
0.0
 11
14.308243445953609
 21
51.65748901188244
 31
0.0
  0
LINE
  5
FEF
  8
3
 10
14.15871963642981
 20
51.21082234521581
 30
0.0
 11
14.308243445953609
 21
51.21082234521581
 31
0.0
  0
LINE
  5
FF0
  8
3
 10
14.15871963642981
 20
51.360346154739602
 30
0.0
 11
14.3082434459536
 21
51.360346154739588
 31
0.0
  0
LINE
  5
FF1
  8
3
 10
14.15871963642981
 20
51.360346154739602
 30
0.0
 11
14.15871963642981
 21
51.21082234521581
 31
0.0
  0
LINE
  5
FF2
  8
3
 10
14.308243445953609
 20
51.360346154739588
 30
0.0
 11
14.308243445953609
 21
51.21082234521581
 31
0.0
  0
LINE
  5
FF3
  8
3
 10
14.308243445953609
 20
51.210822345215803
 30
0.0
 11
14.45681487452501
 21
51.062250916644359
 31
0.0
  0
LINE
  5
FF4
  8
3
 10
14.15871963642981
 20
51.210822345215803
 30
0.0
 11
14.01014820785838
 21
51.062250916644359
 31
0.0
  0
LINE
  5
FF5
  8
3
 10
14.01014820785838
 20
51.508917583310982
 30
0.0
 11
14.15871963642981
 21
51.360346154739602
 31
0.0
  0
LINE
  5
FF6
  8
3
 10
14.308243445953609
 20
51.360346154739602
 30
0.0
 11
14.45681487452501
 21
51.508917583310982
 31
0.0
  0
LINE
  5
1005
  8
3
 10
13.885225358707901
 20
56.100507099127803
 30
0.0
 11
14.01014820785838
 21
55.975584249977281
 31
0.0
  0
LINE
  5
100A
  8
3
 10
13.861576779286979
 20
55.827012821405901
 30
0.0
 11
14.01014820785838
 21
55.975584249977281
 31
0.0
  0
LINE
  5
100B
  8
3
 10
13.651340490883291
 20
55.887725300285773
 30
0.0
 11
13.71205296976318
 21
55.827012821405901
 31
0.0
  0
LINE
  5
100C
  8
3
 10
13.71205296976318
 20
55.677489011882102
 30
0.0
 11
13.56348154119175
 21
55.528917583310658
 31
0.0
  0
LINE
  5
100D
  8
3
 10
13.861576779286979
 20
55.677489011882102
 30
0.0
 11
14.01014820785838
 21
55.528917583310658
 31
0.0
  0
LINE
  5
100E
  8
3
 10
13.861576779286979
 20
55.827012821405887
 30
0.0
 11
13.861576779286979
 21
55.677489011882109
 31
0.0
  0
LINE
  5
100F
  8
3
 10
13.71205296976318
 20
55.827012821405901
 30
0.0
 11
13.71205296976318
 21
55.677489011882109
 31
0.0
  0
LINE
  5
1010
  8
3
 10
13.71205296976318
 20
55.827012821405901
 30
0.0
 11
13.86157677928697
 21
55.827012821405887
 31
0.0
  0
LINE
  5
1011
  8
3
 10
13.71205296976318
 20
55.677489011882109
 30
0.0
 11
13.861576779286979
 21
55.677489011882109
 31
0.0
  0
LINE
  5
1012
  8
3
 10
13.861576779286979
 20
55.380346154739257
 30
0.0
 11
14.01014820785838
 21
55.528917583310658
 31
0.0
  0
LINE
  5
1013
  8
3
 10
13.56348154119175
 20
55.528917583310658
 30
0.0
 11
13.71205296976318
 21
55.380346154739257
 31
0.0
  0
LINE
  5
1014
  8
3
 10
13.71205296976318
 20
55.230822345215472
 30
0.0
 11
13.56348154119175
 21
55.082250916644028
 31
0.0
  0
LINE
  5
1015
  8
3
 10
13.861576779286979
 20
55.230822345215472
 30
0.0
 11
14.01014820785838
 21
55.082250916644028
 31
0.0
  0
LINE
  5
1016
  8
3
 10
13.861576779286979
 20
55.38034615473925
 30
0.0
 11
13.861576779286979
 21
55.230822345215479
 31
0.0
  0
LINE
  5
1017
  8
3
 10
13.71205296976318
 20
55.380346154739257
 30
0.0
 11
13.71205296976318
 21
55.230822345215479
 31
0.0
  0
LINE
  5
1018
  8
3
 10
13.71205296976318
 20
55.380346154739257
 30
0.0
 11
13.86157677928697
 21
55.38034615473925
 31
0.0
  0
LINE
  5
1019
  8
3
 10
13.71205296976318
 20
55.230822345215479
 30
0.0
 11
13.861576779286979
 21
55.230822345215479
 31
0.0
  0
LINE
  5
101A
  8
3
 10
13.861576779286979
 20
54.933679488072627
 30
0.0
 11
14.01014820785838
 21
55.082250916644028
 31
0.0
  0
LINE
  5
101B
  8
3
 10
13.56348154119175
 20
55.082250916644028
 30
0.0
 11
13.71205296976318
 21
54.933679488072627
 31
0.0
  0
LINE
  5
101C
  8
3
 10
13.71205296976318
 20
54.784155678548842
 30
0.0
 11
13.56348154119175
 21
54.635584249977398
 31
0.0
  0
LINE
  5
101D
  8
3
 10
13.861576779286979
 20
54.784155678548842
 30
0.0
 11
14.01014820785838
 21
54.635584249977398
 31
0.0
  0
LINE
  5
101E
  8
3
 10
13.861576779286979
 20
54.933679488072627
 30
0.0
 11
13.861576779286979
 21
54.784155678548842
 31
0.0
  0
LINE
  5
101F
  8
3
 10
13.71205296976318
 20
54.933679488072627
 30
0.0
 11
13.71205296976318
 21
54.784155678548842
 31
0.0
  0
LINE
  5
1020
  8
3
 10
13.71205296976318
 20
54.933679488072627
 30
0.0
 11
13.86157677928697
 21
54.933679488072627
 31
0.0
  0
LINE
  5
1021
  8
3
 10
13.71205296976318
 20
54.784155678548842
 30
0.0
 11
13.861576779286979
 21
54.784155678548842
 31
0.0
  0
LINE
  5
1022
  8
3
 10
13.861576779286979
 20
54.487012821405997
 30
0.0
 11
14.01014820785838
 21
54.635584249977398
 31
0.0
  0
LINE
  5
1023
  8
3
 10
13.56348154119175
 20
54.635584249977398
 30
0.0
 11
13.71205296976318
 21
54.487012821405997
 31
0.0
  0
LINE
  5
1024
  8
3
 10
13.71205296976318
 20
54.337489011882212
 30
0.0
 11
13.56348154119175
 21
54.188917583310769
 31
0.0
  0
LINE
  5
1025
  8
3
 10
13.861576779286979
 20
54.337489011882212
 30
0.0
 11
14.01014820785838
 21
54.188917583310769
 31
0.0
  0
LINE
  5
1026
  8
3
 10
13.861576779286979
 20
54.487012821405997
 30
0.0
 11
13.861576779286979
 21
54.337489011882219
 31
0.0
  0
LINE
  5
1027
  8
3
 10
13.71205296976318
 20
54.487012821405997
 30
0.0
 11
13.71205296976318
 21
54.337489011882219
 31
0.0
  0
LINE
  5
1028
  8
3
 10
13.71205296976318
 20
54.487012821405997
 30
0.0
 11
13.86157677928697
 21
54.487012821405997
 31
0.0
  0
LINE
  5
1029
  8
3
 10
13.71205296976318
 20
54.337489011882219
 30
0.0
 11
13.861576779286979
 21
54.337489011882219
 31
0.0
  0
LINE
  5
102A
  8
3
 10
13.861576779286979
 20
54.040346154739368
 30
0.0
 11
14.01014820785838
 21
54.188917583310769
 31
0.0
  0
LINE
  5
102B
  8
3
 10
13.56348154119175
 20
54.188917583310769
 30
0.0
 11
13.71205296976318
 21
54.040346154739368
 31
0.0
  0
LINE
  5
102C
  8
3
 10
13.71205296976318
 20
53.890822345215582
 30
0.0
 11
13.56348154119175
 21
53.742250916644132
 31
0.0
  0
LINE
  5
102D
  8
3
 10
13.861576779286979
 20
53.890822345215582
 30
0.0
 11
14.01014820785838
 21
53.742250916644132
 31
0.0
  0
LINE
  5
102E
  8
3
 10
13.861576779286979
 20
54.04034615473936
 30
0.0
 11
13.861576779286979
 21
53.890822345215589
 31
0.0
  0
LINE
  5
102F
  8
3
 10
13.71205296976318
 20
54.040346154739368
 30
0.0
 11
13.71205296976318
 21
53.890822345215589
 31
0.0
  0
LINE
  5
1030
  8
3
 10
13.71205296976318
 20
54.040346154739368
 30
0.0
 11
13.86157677928697
 21
54.04034615473936
 31
0.0
  0
LINE
  5
1031
  8
3
 10
13.71205296976318
 20
53.890822345215589
 30
0.0
 11
13.861576779286979
 21
53.890822345215589
 31
0.0
  0
LINE
  5
1032
  8
3
 10
13.861576779286979
 20
53.593679488072752
 30
0.0
 11
14.01014820785838
 21
53.742250916644132
 31
0.0
  0
LINE
  5
1033
  8
3
 10
13.56348154119175
 20
53.742250916644132
 30
0.0
 11
13.71205296976318
 21
53.593679488072752
 31
0.0
  0
LINE
  5
1034
  8
3
 10
13.71205296976318
 20
53.444155678548952
 30
0.0
 11
13.56348154119175
 21
53.295584249977509
 31
0.0
  0
LINE
  5
1035
  8
3
 10
13.861576779286979
 20
53.444155678548952
 30
0.0
 11
14.01014820785838
 21
53.295584249977509
 31
0.0
  0
LINE
  5
1036
  8
3
 10
13.861576779286979
 20
53.593679488072738
 30
0.0
 11
13.861576779286979
 21
53.44415567854896
 31
0.0
  0
LINE
  5
1037
  8
3
 10
13.71205296976318
 20
53.593679488072752
 30
0.0
 11
13.71205296976318
 21
53.44415567854896
 31
0.0
  0
LINE
  5
1038
  8
3
 10
13.71205296976318
 20
53.593679488072752
 30
0.0
 11
13.86157677928697
 21
53.593679488072738
 31
0.0
  0
LINE
  5
1039
  8
3
 10
13.71205296976318
 20
53.44415567854896
 30
0.0
 11
13.861576779286979
 21
53.44415567854896
 31
0.0
  0
LINE
  5
103A
  8
3
 10
13.861576779286979
 20
53.147012821406108
 30
0.0
 11
14.01014820785838
 21
53.295584249977509
 31
0.0
  0
LINE
  5
103B
  8
3
 10
13.56348154119175
 20
53.295584249977509
 30
0.0
 11
13.71205296976318
 21
53.147012821406108
 31
0.0
  0
LINE
  5
103C
  8
3
 10
13.71205296976318
 20
52.997489011882323
 30
0.0
 11
13.56348154119175
 21
52.848917583310879
 31
0.0
  0
LINE
  5
103D
  8
3
 10
13.861576779286979
 20
52.997489011882323
 30
0.0
 11
14.01014820785838
 21
52.848917583310879
 31
0.0
  0
LINE
  5
103E
  8
3
 10
13.861576779286979
 20
53.147012821406101
 30
0.0
 11
13.861576779286979
 21
52.99748901188233
 31
0.0
  0
LINE
  5
103F
  8
3
 10
13.71205296976318
 20
53.147012821406108
 30
0.0
 11
13.71205296976318
 21
52.99748901188233
 31
0.0
  0
LINE
  5
1040
  8
3
 10
13.71205296976318
 20
53.147012821406108
 30
0.0
 11
13.86157677928697
 21
53.147012821406101
 31
0.0
  0
LINE
  5
1041
  8
3
 10
13.71205296976318
 20
52.99748901188233
 30
0.0
 11
13.861576779286979
 21
52.99748901188233
 31
0.0
  0
LINE
  5
1042
  8
3
 10
13.861576779286979
 20
52.700346154739492
 30
0.0
 11
14.01014820785838
 21
52.848917583310879
 31
0.0
  0
LINE
  5
1043
  8
3
 10
13.56348154119175
 20
52.848917583310879
 30
0.0
 11
13.71205296976318
 21
52.700346154739492
 31
0.0
  0
LINE
  5
1044
  8
3
 10
13.71205296976318
 20
52.550822345215693
 30
0.0
 11
13.56348154119175
 21
52.402250916644249
 31
0.0
  0
LINE
  5
1045
  8
3
 10
13.861576779286979
 20
52.550822345215693
 30
0.0
 11
14.01014820785838
 21
52.402250916644249
 31
0.0
  0
LINE
  5
1046
  8
3
 10
13.861576779286979
 20
52.700346154739478
 30
0.0
 11
13.861576779286979
 21
52.550822345215693
 31
0.0
  0
LINE
  5
1047
  8
3
 10
13.71205296976318
 20
52.700346154739492
 30
0.0
 11
13.71205296976318
 21
52.550822345215693
 31
0.0
  0
LINE
  5
1048
  8
3
 10
13.71205296976318
 20
52.700346154739492
 30
0.0
 11
13.86157677928697
 21
52.700346154739478
 31
0.0
  0
LINE
  5
1049
  8
3
 10
13.71205296976318
 20
52.550822345215693
 30
0.0
 11
13.861576779286979
 21
52.550822345215693
 31
0.0
  0
LINE
  5
104A
  8
3
 10
13.861576779286979
 20
52.253679488072848
 30
0.0
 11
14.01014820785838
 21
52.402250916644249
 31
0.0
  0
LINE
  5
104B
  8
3
 10
13.56348154119175
 20
52.402250916644249
 30
0.0
 11
13.71205296976318
 21
52.253679488072848
 31
0.0
  0
LINE
  5
104C
  8
3
 10
13.71205296976318
 20
52.104155678549063
 30
0.0
 11
13.56348154119175
 21
51.955584249977619
 31
0.0
  0
LINE
  5
104D
  8
3
 10
13.861576779286979
 20
52.104155678549063
 30
0.0
 11
14.01014820785838
 21
51.955584249977619
 31
0.0
  0
LINE
  5
104E
  8
3
 10
13.861576779286979
 20
52.253679488072848
 30
0.0
 11
13.861576779286979
 21
52.10415567854907
 31
0.0
  0
LINE
  5
104F
  8
3
 10
13.71205296976318
 20
52.253679488072848
 30
0.0
 11
13.71205296976318
 21
52.10415567854907
 31
0.0
  0
LINE
  5
1050
  8
3
 10
13.71205296976318
 20
52.253679488072848
 30
0.0
 11
13.86157677928697
 21
52.253679488072848
 31
0.0
  0
LINE
  5
1051
  8
3
 10
13.71205296976318
 20
52.10415567854907
 30
0.0
 11
13.861576779286979
 21
52.10415567854907
 31
0.0
  0
LINE
  5
1052
  8
3
 10
13.861576779286979
 20
51.807012821406218
 30
0.0
 11
14.01014820785838
 21
51.955584249977619
 31
0.0
  0
LINE
  5
1053
  8
3
 10
13.56348154119175
 20
51.955584249977619
 30
0.0
 11
13.71205296976318
 21
51.807012821406218
 31
0.0
  0
LINE
  5
1054
  8
3
 10
13.71205296976318
 20
51.657489011882433
 30
0.0
 11
13.56348154119175
 21
51.508917583310982
 31
0.0
  0
LINE
  5
1055
  8
3
 10
13.861576779286979
 20
51.657489011882433
 30
0.0
 11
14.01014820785838
 21
51.508917583310982
 31
0.0
  0
LINE
  5
1056
  8
3
 10
13.861576779286979
 20
51.807012821406211
 30
0.0
 11
13.861576779286979
 21
51.65748901188244
 31
0.0
  0
LINE
  5
1057
  8
3
 10
13.71205296976318
 20
51.807012821406218
 30
0.0
 11
13.71205296976318
 21
51.65748901188244
 31
0.0
  0
LINE
  5
1058
  8
3
 10
13.71205296976318
 20
51.807012821406218
 30
0.0
 11
13.86157677928697
 21
51.807012821406211
 31
0.0
  0
LINE
  5
1059
  8
3
 10
13.71205296976318
 20
51.65748901188244
 30
0.0
 11
13.861576779286979
 21
51.65748901188244
 31
0.0
  0
LINE
  5
105A
  8
3
 10
13.71205296976318
 20
51.21082234521581
 30
0.0
 11
13.861576779286979
 21
51.21082234521581
 31
0.0
  0
LINE
  5
105B
  8
3
 10
13.71205296976318
 20
51.360346154739602
 30
0.0
 11
13.86157677928697
 21
51.360346154739588
 31
0.0
  0
LINE
  5
105C
  8
3
 10
13.71205296976318
 20
51.360346154739602
 30
0.0
 11
13.71205296976318
 21
51.21082234521581
 31
0.0
  0
LINE
  5
105D
  8
3
 10
13.861576779286979
 20
51.360346154739588
 30
0.0
 11
13.861576779286979
 21
51.21082234521581
 31
0.0
  0
LINE
  5
105E
  8
3
 10
13.861576779286979
 20
51.210822345215803
 30
0.0
 11
14.01014820785838
 21
51.062250916644359
 31
0.0
  0
LINE
  5
105F
  8
3
 10
13.71205296976318
 20
51.210822345215803
 30
0.0
 11
13.65134049088355
 21
51.150109866336173
 31
0.0
  0
LINE
  5
1060
  8
3
 10
13.56348154119175
 20
51.508917583310982
 30
0.0
 11
13.71205296976318
 21
51.360346154739602
 31
0.0
  0
LINE
  5
1061
  8
3
 10
13.861576779286979
 20
51.360346154739602
 30
0.0
 11
14.01014820785838
 21
51.508917583310982
 31
0.0
  0
LINE
  5
1066
  8
3
 10
17.583481541191929
 20
56.4222509166446
 30
0.0
 11
17.62222875220542
 21
56.460998127658073
 31
0.0
  0
LINE
  5
106D
  8
3
 10
17.88157677928665
 20
56.273679488072517
 30
0.0
 11
17.899795984445149
 21
56.291898693231019
 31
0.0
  0
LINE
  5
106E
  8
3
 10
17.583481541191421
 20
56.422250916643918
 30
0.0
 11
17.732052969762851
 21
56.273679488072517
 31
0.0
  0
LINE
  5
106F
  8
3
 10
17.732052969762851
 20
56.124155678548732
 30
0.0
 11
17.583481541191421
 21
55.975584249977281
 31
0.0
  0
LINE
  5
1070
  8
3
 10
17.88157677928665
 20
56.124155678548732
 30
0.0
 11
18.030148207858041
 21
55.975584249977281
 31
0.0
  0
LINE
  5
1071
  8
3
 10
17.88157677928665
 20
56.27367948807251
 30
0.0
 11
17.88157677928665
 21
56.124155678548739
 31
0.0
  0
LINE
  5
1072
  8
3
 10
17.732052969762851
 20
56.273679488072517
 30
0.0
 11
17.732052969762851
 21
56.124155678548739
 31
0.0
  0
LINE
  5
1073
  8
3
 10
17.732052969762851
 20
56.273679488072517
 30
0.0
 11
17.88157677928664
 21
56.27367948807251
 31
0.0
  0
LINE
  5
1074
  8
3
 10
17.732052969762851
 20
56.124155678548739
 30
0.0
 11
17.88157677928665
 21
56.124155678548739
 31
0.0
  0
LINE
  5
1075
  8
3
 10
17.88157677928665
 20
55.827012821405901
 30
0.0
 11
18.030148207858041
 21
55.975584249977281
 31
0.0
  0
LINE
  5
1076
  8
3
 10
17.583481541191421
 20
55.975584249977281
 30
0.0
 11
17.732052969762851
 21
55.827012821405901
 31
0.0
  0
LINE
  5
1077
  8
3
 10
17.732052969762851
 20
55.677489011882102
 30
0.0
 11
17.583481541191421
 21
55.528917583310658
 31
0.0
  0
LINE
  5
1078
  8
3
 10
17.88157677928665
 20
55.677489011882102
 30
0.0
 11
18.030148207858041
 21
55.528917583310658
 31
0.0
  0
LINE
  5
1079
  8
3
 10
17.88157677928665
 20
55.827012821405887
 30
0.0
 11
17.88157677928665
 21
55.677489011882109
 31
0.0
  0
LINE
  5
107A
  8
3
 10
17.732052969762851
 20
55.827012821405901
 30
0.0
 11
17.732052969762851
 21
55.677489011882109
 31
0.0
  0
LINE
  5
107B
  8
3
 10
17.732052969762851
 20
55.827012821405901
 30
0.0
 11
17.88157677928664
 21
55.827012821405887
 31
0.0
  0
LINE
  5
107C
  8
3
 10
17.732052969762851
 20
55.677489011882109
 30
0.0
 11
17.88157677928665
 21
55.677489011882109
 31
0.0
  0
LINE
  5
107D
  8
3
 10
17.88157677928665
 20
55.380346154739257
 30
0.0
 11
18.030148207858041
 21
55.528917583310658
 31
0.0
  0
LINE
  5
107E
  8
3
 10
17.583481541191421
 20
55.528917583310658
 30
0.0
 11
17.732052969762851
 21
55.380346154739257
 31
0.0
  0
LINE
  5
107F
  8
3
 10
17.732052969762851
 20
55.230822345215472
 30
0.0
 11
17.583481541191421
 21
55.082250916644028
 31
0.0
  0
LINE
  5
1080
  8
3
 10
17.88157677928665
 20
55.230822345215472
 30
0.0
 11
18.030148207858041
 21
55.082250916644028
 31
0.0
  0
LINE
  5
1081
  8
3
 10
17.88157677928665
 20
55.38034615473925
 30
0.0
 11
17.88157677928665
 21
55.230822345215479
 31
0.0
  0
LINE
  5
1082
  8
3
 10
17.732052969762851
 20
55.380346154739257
 30
0.0
 11
17.732052969762851
 21
55.230822345215479
 31
0.0
  0
LINE
  5
1083
  8
3
 10
17.732052969762851
 20
55.380346154739257
 30
0.0
 11
17.88157677928664
 21
55.38034615473925
 31
0.0
  0
LINE
  5
1084
  8
3
 10
17.732052969762851
 20
55.230822345215479
 30
0.0
 11
17.88157677928665
 21
55.230822345215479
 31
0.0
  0
LINE
  5
1085
  8
3
 10
17.88157677928665
 20
54.933679488072627
 30
0.0
 11
18.030148207858041
 21
55.082250916644028
 31
0.0
  0
LINE
  5
1086
  8
3
 10
17.583481541191421
 20
55.082250916644028
 30
0.0
 11
17.732052969762851
 21
54.933679488072627
 31
0.0
  0
LINE
  5
1087
  8
3
 10
17.732052969762851
 20
54.784155678548842
 30
0.0
 11
17.583481541191421
 21
54.635584249977398
 31
0.0
  0
LINE
  5
1088
  8
3
 10
17.88157677928665
 20
54.784155678548842
 30
0.0
 11
18.030148207858041
 21
54.635584249977398
 31
0.0
  0
LINE
  5
1089
  8
3
 10
17.88157677928665
 20
54.933679488072627
 30
0.0
 11
17.88157677928665
 21
54.784155678548842
 31
0.0
  0
LINE
  5
108A
  8
3
 10
17.732052969762851
 20
54.933679488072627
 30
0.0
 11
17.732052969762851
 21
54.784155678548842
 31
0.0
  0
LINE
  5
108B
  8
3
 10
17.732052969762851
 20
54.933679488072627
 30
0.0
 11
17.88157677928664
 21
54.933679488072627
 31
0.0
  0
LINE
  5
108C
  8
3
 10
17.732052969762851
 20
54.784155678548842
 30
0.0
 11
17.88157677928665
 21
54.784155678548842
 31
0.0
  0
LINE
  5
108D
  8
3
 10
17.88157677928665
 20
54.487012821405997
 30
0.0
 11
18.030148207858041
 21
54.635584249977398
 31
0.0
  0
LINE
  5
108E
  8
3
 10
17.583481541191421
 20
54.635584249977398
 30
0.0
 11
17.732052969762851
 21
54.487012821405997
 31
0.0
  0
LINE
  5
108F
  8
3
 10
17.732052969762851
 20
54.337489011882212
 30
0.0
 11
17.583481541191421
 21
54.188917583310769
 31
0.0
  0
LINE
  5
1090
  8
3
 10
17.88157677928665
 20
54.337489011882212
 30
0.0
 11
18.030148207858041
 21
54.188917583310769
 31
0.0
  0
LINE
  5
1091
  8
3
 10
17.88157677928665
 20
54.487012821405997
 30
0.0
 11
17.88157677928665
 21
54.337489011882219
 31
0.0
  0
LINE
  5
1092
  8
3
 10
17.732052969762851
 20
54.487012821405997
 30
0.0
 11
17.732052969762851
 21
54.337489011882219
 31
0.0
  0
LINE
  5
1093
  8
3
 10
17.732052969762851
 20
54.487012821405997
 30
0.0
 11
17.88157677928664
 21
54.487012821405997
 31
0.0
  0
LINE
  5
1094
  8
3
 10
17.732052969762851
 20
54.337489011882219
 30
0.0
 11
17.88157677928665
 21
54.337489011882219
 31
0.0
  0
LINE
  5
1095
  8
3
 10
17.88157677928665
 20
54.040346154739368
 30
0.0
 11
18.030148207858041
 21
54.188917583310769
 31
0.0
  0
LINE
  5
1096
  8
3
 10
17.583481541191421
 20
54.188917583310769
 30
0.0
 11
17.732052969762851
 21
54.040346154739368
 31
0.0
  0
LINE
  5
1097
  8
3
 10
17.732052969762851
 20
53.890822345215582
 30
0.0
 11
17.583481541191421
 21
53.742250916644132
 31
0.0
  0
LINE
  5
1098
  8
3
 10
17.88157677928665
 20
53.890822345215582
 30
0.0
 11
18.030148207858041
 21
53.742250916644132
 31
0.0
  0
LINE
  5
1099
  8
3
 10
17.88157677928665
 20
54.04034615473936
 30
0.0
 11
17.88157677928665
 21
53.890822345215589
 31
0.0
  0
LINE
  5
109A
  8
3
 10
17.732052969762851
 20
54.040346154739368
 30
0.0
 11
17.732052969762851
 21
53.890822345215589
 31
0.0
  0
LINE
  5
109B
  8
3
 10
17.732052969762851
 20
54.040346154739368
 30
0.0
 11
17.88157677928664
 21
54.04034615473936
 31
0.0
  0
LINE
  5
109C
  8
3
 10
17.732052969762851
 20
53.890822345215589
 30
0.0
 11
17.88157677928665
 21
53.890822345215589
 31
0.0
  0
LINE
  5
109D
  8
3
 10
17.88157677928665
 20
53.593679488072752
 30
0.0
 11
18.030148207858041
 21
53.742250916644132
 31
0.0
  0
LINE
  5
109E
  8
3
 10
17.583481541191421
 20
53.742250916644132
 30
0.0
 11
17.732052969762851
 21
53.593679488072752
 31
0.0
  0
LINE
  5
109F
  8
3
 10
17.732052969762851
 20
53.444155678548952
 30
0.0
 11
17.583481541191421
 21
53.295584249977509
 31
0.0
  0
LINE
  5
10A0
  8
3
 10
17.88157677928665
 20
53.444155678548952
 30
0.0
 11
18.030148207858041
 21
53.295584249977509
 31
0.0
  0
LINE
  5
10A1
  8
3
 10
17.88157677928665
 20
53.593679488072738
 30
0.0
 11
17.88157677928665
 21
53.44415567854896
 31
0.0
  0
LINE
  5
10A2
  8
3
 10
17.732052969762851
 20
53.593679488072752
 30
0.0
 11
17.732052969762851
 21
53.44415567854896
 31
0.0
  0
LINE
  5
10A3
  8
3
 10
17.732052969762851
 20
53.593679488072752
 30
0.0
 11
17.88157677928664
 21
53.593679488072738
 31
0.0
  0
LINE
  5
10A4
  8
3
 10
17.732052969762851
 20
53.44415567854896
 30
0.0
 11
17.88157677928665
 21
53.44415567854896
 31
0.0
  0
LINE
  5
10A5
  8
3
 10
17.88157677928665
 20
53.147012821406108
 30
0.0
 11
18.030148207858041
 21
53.295584249977509
 31
0.0
  0
LINE
  5
10A6
  8
3
 10
17.583481541191421
 20
53.295584249977509
 30
0.0
 11
17.732052969762851
 21
53.147012821406108
 31
0.0
  0
LINE
  5
10A7
  8
3
 10
17.732052969762851
 20
52.997489011882323
 30
0.0
 11
17.583481541191421
 21
52.848917583310879
 31
0.0
  0
LINE
  5
10A8
  8
3
 10
17.88157677928665
 20
52.997489011882323
 30
0.0
 11
18.030148207858041
 21
52.848917583310879
 31
0.0
  0
LINE
  5
10A9
  8
3
 10
17.88157677928665
 20
53.147012821406101
 30
0.0
 11
17.88157677928665
 21
52.99748901188233
 31
0.0
  0
LINE
  5
10AA
  8
3
 10
17.732052969762851
 20
53.147012821406108
 30
0.0
 11
17.732052969762851
 21
52.99748901188233
 31
0.0
  0
LINE
  5
10AB
  8
3
 10
17.732052969762851
 20
53.147012821406108
 30
0.0
 11
17.88157677928664
 21
53.147012821406101
 31
0.0
  0
LINE
  5
10AC
  8
3
 10
17.732052969762851
 20
52.99748901188233
 30
0.0
 11
17.88157677928665
 21
52.99748901188233
 31
0.0
  0
LINE
  5
10AD
  8
3
 10
17.88157677928665
 20
52.700346154739492
 30
0.0
 11
18.030148207858041
 21
52.848917583310879
 31
0.0
  0
LINE
  5
10AE
  8
3
 10
17.583481541191421
 20
52.848917583310879
 30
0.0
 11
17.732052969762851
 21
52.700346154739492
 31
0.0
  0
LINE
  5
10AF
  8
3
 10
17.732052969762851
 20
52.550822345215693
 30
0.0
 11
17.583481541191421
 21
52.402250916644249
 31
0.0
  0
LINE
  5
10B0
  8
3
 10
17.88157677928665
 20
52.550822345215693
 30
0.0
 11
18.030148207858041
 21
52.402250916644249
 31
0.0
  0
LINE
  5
10B1
  8
3
 10
17.88157677928665
 20
52.700346154739478
 30
0.0
 11
17.88157677928665
 21
52.550822345215693
 31
0.0
  0
LINE
  5
10B2
  8
3
 10
17.732052969762851
 20
52.700346154739492
 30
0.0
 11
17.732052969762851
 21
52.550822345215693
 31
0.0
  0
LINE
  5
10B3
  8
3
 10
17.732052969762851
 20
52.700346154739492
 30
0.0
 11
17.88157677928664
 21
52.700346154739478
 31
0.0
  0
LINE
  5
10B4
  8
3
 10
17.732052969762851
 20
52.550822345215693
 30
0.0
 11
17.88157677928665
 21
52.550822345215693
 31
0.0
  0
LINE
  5
10B5
  8
3
 10
17.88157677928665
 20
52.253679488072848
 30
0.0
 11
18.030148207858041
 21
52.402250916644249
 31
0.0
  0
LINE
  5
10B6
  8
3
 10
17.583481541191421
 20
52.402250916644249
 30
0.0
 11
17.732052969762851
 21
52.253679488072848
 31
0.0
  0
LINE
  5
10B7
  8
3
 10
17.732052969762851
 20
52.104155678549063
 30
0.0
 11
17.583481541191421
 21
51.955584249977619
 31
0.0
  0
LINE
  5
10B8
  8
3
 10
17.88157677928665
 20
52.104155678549063
 30
0.0
 11
18.030148207858041
 21
51.955584249977619
 31
0.0
  0
LINE
  5
10B9
  8
3
 10
17.88157677928665
 20
52.253679488072848
 30
0.0
 11
17.88157677928665
 21
52.10415567854907
 31
0.0
  0
LINE
  5
10BA
  8
3
 10
17.732052969762851
 20
52.253679488072848
 30
0.0
 11
17.732052969762851
 21
52.10415567854907
 31
0.0
  0
LINE
  5
10BB
  8
3
 10
17.732052969762851
 20
52.253679488072848
 30
0.0
 11
17.88157677928664
 21
52.253679488072848
 31
0.0
  0
LINE
  5
10BC
  8
3
 10
17.732052969762851
 20
52.10415567854907
 30
0.0
 11
17.88157677928665
 21
52.10415567854907
 31
0.0
  0
LINE
  5
10BD
  8
3
 10
17.88157677928665
 20
51.807012821406218
 30
0.0
 11
18.030148207858041
 21
51.955584249977619
 31
0.0
  0
LINE
  5
10BE
  8
3
 10
17.583481541191421
 20
51.955584249977619
 30
0.0
 11
17.732052969762851
 21
51.807012821406218
 31
0.0
  0
LINE
  5
10BF
  8
3
 10
17.732052969762851
 20
51.657489011882433
 30
0.0
 11
17.583481541191421
 21
51.508917583310982
 31
0.0
  0
LINE
  5
10C0
  8
3
 10
17.88157677928665
 20
51.657489011882433
 30
0.0
 11
18.030148207858041
 21
51.508917583310982
 31
0.0
  0
LINE
  5
10C1
  8
3
 10
17.88157677928665
 20
51.807012821406211
 30
0.0
 11
17.88157677928665
 21
51.65748901188244
 31
0.0
  0
LINE
  5
10C2
  8
3
 10
17.732052969762851
 20
51.807012821406218
 30
0.0
 11
17.732052969762851
 21
51.65748901188244
 31
0.0
  0
LINE
  5
10C3
  8
3
 10
17.732052969762851
 20
51.807012821406218
 30
0.0
 11
17.88157677928664
 21
51.807012821406211
 31
0.0
  0
LINE
  5
10C4
  8
3
 10
17.732052969762851
 20
51.65748901188244
 30
0.0
 11
17.88157677928665
 21
51.65748901188244
 31
0.0
  0
LINE
  5
10C5
  8
3
 10
17.732052969762851
 20
51.21082234521581
 30
0.0
 11
17.88157677928665
 21
51.21082234521581
 31
0.0
  0
LINE
  5
10C6
  8
3
 10
17.732052969762851
 20
51.360346154739602
 30
0.0
 11
17.88157677928664
 21
51.360346154739588
 31
0.0
  0
LINE
  5
10C7
  8
3
 10
17.732052969762851
 20
51.360346154739602
 30
0.0
 11
17.732052969762851
 21
51.21082234521581
 31
0.0
  0
LINE
  5
10C8
  8
3
 10
17.88157677928665
 20
51.360346154739588
 30
0.0
 11
17.88157677928665
 21
51.21082234521581
 31
0.0
  0
LINE
  5
10C9
  8
3
 10
17.88157677928665
 20
51.210822345215803
 30
0.0
 11
18.030148207858041
 21
51.062250916644359
 31
0.0
  0
LINE
  5
10CA
  8
3
 10
17.732052969762851
 20
51.210822345215803
 30
0.0
 11
17.583481541191421
 21
51.062250916644359
 31
0.0
  0
LINE
  5
10CB
  8
3
 10
17.583481541191421
 20
51.508917583310982
 30
0.0
 11
17.732052969762851
 21
51.360346154739602
 31
0.0
  0
LINE
  5
10CC
  8
3
 10
17.88157677928665
 20
51.360346154739602
 30
0.0
 11
18.030148207858041
 21
51.508917583310982
 31
0.0
  0
LINE
  5
10CD
  8
3
 10
13.438558692041539
 20
51.383994734160787
 30
0.0
 11
13.56348154119175
 21
51.508917583310982
 31
0.0
  0
LINE
  5
10D5
  8
3
 10
13.26538630309655
 20
51.65748901188244
 30
0.0
 11
13.414910112620349
 21
51.65748901188244
 31
0.0
  0
LINE
  5
10D6
  8
3
 10
13.26538630309655
 20
51.807012821406218
 30
0.0
 11
13.41491011262034
 21
51.807012821406211
 31
0.0
  0
LINE
  5
10D7
  8
3
 10
13.26538630309655
 20
51.807012821406218
 30
0.0
 11
13.26538630309655
 21
51.65748901188244
 31
0.0
  0
LINE
  5
10D8
  8
3
 10
13.414910112620349
 20
51.807012821406211
 30
0.0
 11
13.414910112620349
 21
51.65748901188244
 31
0.0
  0
LINE
  5
10D9
  8
3
 10
13.414910112620349
 20
51.657489011882433
 30
0.0
 11
13.56348154119175
 21
51.508917583310982
 31
0.0
  0
LINE
  5
10DA
  8
3
 10
13.26538630309655
 20
51.657489011882433
 30
0.0
 11
13.247167097938551
 21
51.639269806724421
 31
0.0
  0
LINE
  5
10DB
  8
3
 10
13.116814874525121
 20
51.955584249977619
 30
0.0
 11
13.26538630309655
 21
51.807012821406218
 31
0.0
  0
LINE
  5
10DC
  8
3
 10
13.414910112620349
 20
51.807012821406218
 30
0.0
 11
13.56348154119175
 21
51.955584249977619
 31
0.0
  0
LINE
  5
10DD
  8
3
 10
13.26538630309655
 20
52.10415567854907
 30
0.0
 11
13.414910112620349
 21
52.10415567854907
 31
0.0
  0
LINE
  5
10DE
  8
3
 10
13.26538630309655
 20
52.253679488072848
 30
0.0
 11
13.41491011262034
 21
52.253679488072848
 31
0.0
  0
LINE
  5
10DF
  8
3
 10
13.26538630309655
 20
52.253679488072848
 30
0.0
 11
13.26538630309655
 21
52.10415567854907
 31
0.0
  0
LINE
  5
10E0
  8
3
 10
13.414910112620349
 20
52.253679488072848
 30
0.0
 11
13.414910112620349
 21
52.10415567854907
 31
0.0
  0
LINE
  5
10E1
  8
3
 10
13.414910112620349
 20
52.104155678549063
 30
0.0
 11
13.56348154119175
 21
51.955584249977619
 31
0.0
  0
LINE
  5
10E2
  8
3
 10
13.26538630309655
 20
52.104155678549063
 30
0.0
 11
13.078067663511559
 21
51.916837038964061
 31
0.0
  0
LINE
  5
10E3
  8
3
 10
13.116814874525121
 20
52.402250916644249
 30
0.0
 11
13.26538630309655
 21
52.253679488072848
 31
0.0
  0
LINE
  5
10E4
  8
3
 10
13.414910112620349
 20
52.253679488072848
 30
0.0
 11
13.56348154119175
 21
52.402250916644249
 31
0.0
  0
LINE
  5
10E5
  8
3
 10
13.26538630309655
 20
52.550822345215693
 30
0.0
 11
13.414910112620349
 21
52.550822345215693
 31
0.0
  0
LINE
  5
10E6
  8
3
 10
13.26538630309655
 20
52.700346154739492
 30
0.0
 11
13.41491011262034
 21
52.700346154739478
 31
0.0
  0
LINE
  5
10E7
  8
3
 10
13.26538630309655
 20
52.700346154739492
 30
0.0
 11
13.26538630309655
 21
52.550822345215693
 31
0.0
  0
LINE
  5
10E8
  8
3
 10
13.414910112620349
 20
52.700346154739478
 30
0.0
 11
13.414910112620349
 21
52.550822345215693
 31
0.0
  0
LINE
  5
10E9
  8
3
 10
13.414910112620349
 20
52.550822345215693
 30
0.0
 11
13.56348154119175
 21
52.402250916644249
 31
0.0
  0
LINE
  5
10EA
  8
3
 10
13.26538630309655
 20
52.550822345215693
 30
0.0
 11
13.116814874525121
 21
52.402250916644249
 31
0.0
  0
LINE
  5
10EB
  8
3
 10
13.116814874525121
 20
52.848917583310879
 30
0.0
 11
13.26538630309655
 21
52.700346154739492
 31
0.0
  0
LINE
  5
10EC
  8
3
 10
13.414910112620349
 20
52.700346154739492
 30
0.0
 11
13.56348154119175
 21
52.848917583310879
 31
0.0
  0
LINE
  5
10ED
  8
3
 10
13.26538630309655
 20
52.99748901188233
 30
0.0
 11
13.414910112620349
 21
52.99748901188233
 31
0.0
  0
LINE
  5
10EE
  8
3
 10
13.26538630309655
 20
53.147012821406108
 30
0.0
 11
13.41491011262034
 21
53.147012821406101
 31
0.0
  0
LINE
  5
10EF
  8
3
 10
13.26538630309655
 20
53.147012821406108
 30
0.0
 11
13.26538630309655
 21
52.99748901188233
 31
0.0
  0
LINE
  5
10F0
  8
3
 10
13.414910112620349
 20
53.147012821406101
 30
0.0
 11
13.414910112620349
 21
52.99748901188233
 31
0.0
  0
LINE
  5
10F1
  8
3
 10
13.414910112620349
 20
52.997489011882323
 30
0.0
 11
13.56348154119175
 21
52.848917583310879
 31
0.0
  0
LINE
  5
10F2
  8
3
 10
13.26538630309655
 20
52.997489011882323
 30
0.0
 11
13.116814874525121
 21
52.848917583310879
 31
0.0
  0
LINE
  5
10F3
  8
3
 10
13.116814874525121
 20
53.295584249977509
 30
0.0
 11
13.26538630309655
 21
53.147012821406108
 31
0.0
  0
LINE
  5
10F4
  8
3
 10
13.414910112620349
 20
53.147012821406108
 30
0.0
 11
13.56348154119175
 21
53.295584249977509
 31
0.0
  0
LINE
  5
10F5
  8
3
 10
13.26538630309655
 20
53.44415567854896
 30
0.0
 11
13.414910112620349
 21
53.44415567854896
 31
0.0
  0
LINE
  5
10F6
  8
3
 10
13.26538630309655
 20
53.593679488072752
 30
0.0
 11
13.41491011262034
 21
53.593679488072738
 31
0.0
  0
LINE
  5
10F7
  8
3
 10
13.26538630309655
 20
53.593679488072752
 30
0.0
 11
13.26538630309655
 21
53.44415567854896
 31
0.0
  0
LINE
  5
10F8
  8
3
 10
13.414910112620349
 20
53.593679488072738
 30
0.0
 11
13.414910112620349
 21
53.44415567854896
 31
0.0
  0
LINE
  5
10F9
  8
3
 10
13.414910112620349
 20
53.444155678548952
 30
0.0
 11
13.56348154119175
 21
53.295584249977509
 31
0.0
  0
LINE
  5
10FA
  8
3
 10
13.26538630309655
 20
53.444155678548952
 30
0.0
 11
13.116814874525121
 21
53.295584249977509
 31
0.0
  0
LINE
  5
10FB
  8
3
 10
13.116814874525121
 20
53.742250916644132
 30
0.0
 11
13.26538630309655
 21
53.593679488072752
 31
0.0
  0
LINE
  5
10FC
  8
3
 10
13.414910112620349
 20
53.593679488072752
 30
0.0
 11
13.56348154119175
 21
53.742250916644132
 31
0.0
  0
LINE
  5
10FD
  8
3
 10
13.26538630309655
 20
53.890822345215589
 30
0.0
 11
13.414910112620349
 21
53.890822345215589
 31
0.0
  0
LINE
  5
10FE
  8
3
 10
13.26538630309655
 20
54.040346154739368
 30
0.0
 11
13.41491011262034
 21
54.04034615473936
 31
0.0
  0
LINE
  5
10FF
  8
3
 10
13.26538630309655
 20
54.040346154739368
 30
0.0
 11
13.26538630309655
 21
53.890822345215589
 31
0.0
  0
LINE
  5
1100
  8
3
 10
13.414910112620349
 20
54.04034615473936
 30
0.0
 11
13.414910112620349
 21
53.890822345215589
 31
0.0
  0
LINE
  5
1101
  8
3
 10
13.414910112620349
 20
53.890822345215582
 30
0.0
 11
13.56348154119175
 21
53.742250916644132
 31
0.0
  0
LINE
  5
1102
  8
3
 10
13.26538630309655
 20
53.890822345215582
 30
0.0
 11
13.116814874525121
 21
53.742250916644132
 31
0.0
  0
LINE
  5
1103
  8
3
 10
13.116814874525121
 20
54.188917583310769
 30
0.0
 11
13.26538630309655
 21
54.040346154739368
 31
0.0
  0
LINE
  5
1104
  8
3
 10
13.414910112620349
 20
54.040346154739368
 30
0.0
 11
13.56348154119175
 21
54.188917583310769
 31
0.0
  0
LINE
  5
1105
  8
3
 10
13.26538630309655
 20
54.337489011882219
 30
0.0
 11
13.414910112620349
 21
54.337489011882219
 31
0.0
  0
LINE
  5
1106
  8
3
 10
13.26538630309655
 20
54.487012821405997
 30
0.0
 11
13.41491011262034
 21
54.487012821405997
 31
0.0
  0
LINE
  5
1107
  8
3
 10
13.26538630309655
 20
54.487012821405997
 30
0.0
 11
13.26538630309655
 21
54.337489011882219
 31
0.0
  0
LINE
  5
1108
  8
3
 10
13.414910112620349
 20
54.487012821405997
 30
0.0
 11
13.414910112620349
 21
54.337489011882219
 31
0.0
  0
LINE
  5
1109
  8
3
 10
13.414910112620349
 20
54.337489011882212
 30
0.0
 11
13.56348154119175
 21
54.188917583310769
 31
0.0
  0
LINE
  5
110A
  8
3
 10
13.26538630309655
 20
54.337489011882212
 30
0.0
 11
13.116814874525121
 21
54.188917583310769
 31
0.0
  0
LINE
  5
110B
  8
3
 10
13.116814874525121
 20
54.635584249977398
 30
0.0
 11
13.26538630309655
 21
54.487012821405997
 31
0.0
  0
LINE
  5
110C
  8
3
 10
13.414910112620349
 20
54.487012821405997
 30
0.0
 11
13.56348154119175
 21
54.635584249977398
 31
0.0
  0
LINE
  5
110D
  8
3
 10
13.26538630309655
 20
54.784155678548842
 30
0.0
 11
13.414910112620349
 21
54.784155678548842
 31
0.0
  0
LINE
  5
110E
  8
3
 10
13.26538630309655
 20
54.933679488072627
 30
0.0
 11
13.41491011262034
 21
54.933679488072627
 31
0.0
  0
LINE
  5
110F
  8
3
 10
13.26538630309655
 20
54.933679488072627
 30
0.0
 11
13.26538630309655
 21
54.784155678548842
 31
0.0
  0
LINE
  5
1110
  8
3
 10
13.414910112620349
 20
54.933679488072627
 30
0.0
 11
13.414910112620349
 21
54.784155678548842
 31
0.0
  0
LINE
  5
1111
  8
3
 10
13.414910112620349
 20
54.784155678548842
 30
0.0
 11
13.56348154119175
 21
54.635584249977398
 31
0.0
  0
LINE
  5
1112
  8
3
 10
13.26538630309655
 20
54.784155678548842
 30
0.0
 11
13.116814874525121
 21
54.635584249977398
 31
0.0
  0
LINE
  5
1113
  8
3
 10
13.07806766351136
 20
55.120998127657757
 30
0.0
 11
13.26538630309655
 21
54.933679488072627
 31
0.0
  0
LINE
  5
1114
  8
3
 10
13.414910112620349
 20
54.933679488072627
 30
0.0
 11
13.56348154119175
 21
55.082250916644028
 31
0.0
  0
LINE
  5
1115
  8
3
 10
13.26538630309655
 20
55.230822345215479
 30
0.0
 11
13.414910112620349
 21
55.230822345215479
 31
0.0
  0
LINE
  5
1116
  8
3
 10
13.26538630309655
 20
55.380346154739257
 30
0.0
 11
13.41491011262034
 21
55.38034615473925
 31
0.0
  0
LINE
  5
1117
  8
3
 10
13.26538630309655
 20
55.380346154739257
 30
0.0
 11
13.26538630309655
 21
55.230822345215479
 31
0.0
  0
LINE
  5
1118
  8
3
 10
13.414910112620349
 20
55.38034615473925
 30
0.0
 11
13.414910112620349
 21
55.230822345215479
 31
0.0
  0
LINE
  5
1119
  8
3
 10
13.414910112620349
 20
55.230822345215472
 30
0.0
 11
13.56348154119175
 21
55.082250916644028
 31
0.0
  0
LINE
  5
111A
  8
3
 10
13.26538630309655
 20
55.230822345215472
 30
0.0
 11
13.116814874525121
 21
55.082250916644028
 31
0.0
  0
LINE
  5
111B
  8
3
 10
13.24716709793835
 20
55.398565359897461
 30
0.0
 11
13.26538630309655
 21
55.380346154739257
 31
0.0
  0
LINE
  5
111C
  8
3
 10
13.414910112620349
 20
55.380346154739257
 30
0.0
 11
13.56348154119175
 21
55.528917583310658
 31
0.0
  0
LINE
  5
111D
  8
3
 10
12.99721230219985
 20
54.962648344318772
 30
0.0
 11
13.116814874525121
 21
55.082250916644028
 31
0.0
  0
LINE
  5
111F
  8
3
 10
12.968243445953711
 20
54.784155678548842
 30
0.0
 11
13.116814874525121
 21
54.635584249977398
 31
0.0
  0
LINE
  5
1120
  8
3
 10
12.968243445953711
 20
54.900357891200997
 30
0.0
 11
12.968243445953711
 21
54.784155678548849
 31
0.0
  0
LINE
  5
1123
  8
3
 10
12.91826610784902
 20
54.784155678548849
 30
0.0
 11
12.968243445953711
 21
54.784155678548849
 31
0.0
  0
LINE
  5
1124
  8
3
 10
12.968243445953711
 20
54.487012821406012
 30
0.0
 11
13.116814874525121
 21
54.635584249977398
 31
0.0
  0
LINE
  5
1125
  8
3
 10
12.81438950024296
 20
54.491342957592963
 30
0.0
 11
12.81871963642992
 21
54.487012821406012
 31
0.0
  0
LINE
  5
1126
  8
3
 10
12.81871963642992
 20
54.337489011882219
 30
0.0
 11
12.75669298328912
 21
54.275462358741422
 31
0.0
  0
LINE
  5
1127
  8
3
 10
12.968243445953711
 20
54.337489011882219
 30
0.0
 11
13.116814874525121
 21
54.188917583310783
 31
0.0
  0
LINE
  5
1128
  8
3
 10
12.968243445953711
 20
54.487012821405997
 30
0.0
 11
12.968243445953711
 21
54.337489011882226
 31
0.0
  0
LINE
  5
1129
  8
3
 10
12.81871963642992
 20
54.487012821406012
 30
0.0
 11
12.81871963642992
 21
54.337489011882226
 31
0.0
  0
LINE
  5
112A
  8
3
 10
12.81871963642992
 20
54.487012821406012
 30
0.0
 11
12.968243445953711
 21
54.487012821405997
 31
0.0
  0
LINE
  5
112B
  8
3
 10
12.81871963642992
 20
54.337489011882226
 30
0.0
 11
12.968243445953711
 21
54.337489011882226
 31
0.0
  0
LINE
  5
112C
  8
3
 10
12.968243445953711
 20
54.040346154739382
 30
0.0
 11
13.116814874525121
 21
54.188917583310783
 31
0.0
  0
LINE
  5
112D
  8
3
 10
12.72677932308526
 20
54.132286468084011
 30
0.0
 11
12.81871963642992
 21
54.040346154739382
 31
0.0
  0
LINE
  5
112E
  8
3
 10
12.81871963642992
 20
53.890822345215589
 30
0.0
 11
12.678144850239571
 21
53.75024755902524
 31
0.0
  0
LINE
  5
112F
  8
3
 10
12.968243445953711
 20
53.890822345215589
 30
0.0
 11
13.116814874525121
 21
53.742250916644139
 31
0.0
  0
LINE
  5
1130
  8
3
 10
12.968243445953711
 20
54.040346154739368
 30
0.0
 11
12.968243445953711
 21
53.890822345215589
 31
0.0
  0
LINE
  5
1131
  8
3
 10
12.81871963642992
 20
54.040346154739382
 30
0.0
 11
12.81871963642992
 21
53.890822345215589
 31
0.0
  0
LINE
  5
1132
  8
3
 10
12.81871963642992
 20
54.040346154739382
 30
0.0
 11
12.968243445953711
 21
54.040346154739368
 31
0.0
  0
LINE
  5
1133
  8
3
 10
12.81871963642992
 20
53.890822345215589
 30
0.0
 11
12.968243445953711
 21
53.890822345215589
 31
0.0
  0
LINE
  5
1134
  8
3
 10
12.968243445953711
 20
53.593679488072752
 30
0.0
 11
13.116814874525121
 21
53.742250916644139
 31
0.0
  0
LINE
  5
1135
  8
3
 10
12.67714105921827
 20
53.735258065284363
 30
0.0
 11
12.81871963642992
 21
53.593679488072752
 31
0.0
  0
LINE
  5
1136
  8
3
 10
12.81871963642992
 20
53.44415567854896
 30
0.0
 11
12.677141059218309
 21
53.302577101337327
 31
0.0
  0
LINE
  5
1137
  8
3
 10
12.968243445953711
 20
53.44415567854896
 30
0.0
 11
13.116814874525121
 21
53.295584249977523
 31
0.0
  0
LINE
  5
1138
  8
3
 10
12.968243445953711
 20
53.593679488072752
 30
0.0
 11
12.968243445953711
 21
53.444155678548967
 31
0.0
  0
LINE
  5
1139
  8
3
 10
12.81871963642992
 20
53.593679488072752
 30
0.0
 11
12.81871963642992
 21
53.444155678548967
 31
0.0
  0
LINE
  5
113A
  8
3
 10
12.81871963642992
 20
53.593679488072752
 30
0.0
 11
12.968243445953711
 21
53.593679488072752
 31
0.0
  0
LINE
  5
113B
  8
3
 10
12.81871963642992
 20
53.444155678548967
 30
0.0
 11
12.968243445953711
 21
53.444155678548967
 31
0.0
  0
LINE
  5
113C
  8
3
 10
12.968243445953711
 20
53.147012821406122
 30
0.0
 11
13.116814874525121
 21
53.295584249977523
 31
0.0
  0
LINE
  5
113D
  8
3
 10
12.67814485023961
 20
53.287587607596379
 30
0.0
 11
12.81871963642992
 21
53.147012821406122
 31
0.0
  0
LINE
  5
113E
  8
3
 10
12.81871963642992
 20
52.99748901188233
 30
0.0
 11
12.72677932308534
 21
52.905548698537743
 31
0.0
  0
LINE
  5
113F
  8
3
 10
12.968243445953711
 20
52.99748901188233
 30
0.0
 11
13.116814874525121
 21
52.848917583310879
 31
0.0
  0
LINE
  5
1140
  8
3
 10
12.968243445953711
 20
53.147012821406108
 30
0.0
 11
12.968243445953711
 21
52.997489011882337
 31
0.0
  0
LINE
  5
1141
  8
3
 10
12.81871963642992
 20
53.147012821406122
 30
0.0
 11
12.81871963642992
 21
52.997489011882337
 31
0.0
  0
LINE
  5
1142
  8
3
 10
12.81871963642992
 20
53.147012821406122
 30
0.0
 11
12.968243445953711
 21
53.147012821406108
 31
0.0
  0
LINE
  5
1143
  8
3
 10
12.81871963642992
 20
52.997489011882337
 30
0.0
 11
12.968243445953711
 21
52.997489011882337
 31
0.0
  0
LINE
  5
1144
  8
3
 10
12.968243445953711
 20
52.700346154739492
 30
0.0
 11
13.116814874525121
 21
52.848917583310879
 31
0.0
  0
LINE
  5
1145
  8
3
 10
12.75669298328927
 20
52.762372807880119
 30
0.0
 11
12.81871963642992
 21
52.700346154739492
 31
0.0
  0
LINE
  5
1146
  8
3
 10
12.81871963642992
 20
52.550822345215693
 30
0.0
 11
12.81438950024307
 21
52.546492209028848
 31
0.0
  0
LINE
  5
1147
  8
3
 10
12.968243445953711
 20
52.550822345215693
 30
0.0
 11
13.116814874525121
 21
52.402250916644249
 31
0.0
  0
LINE
  5
1148
  8
3
 10
12.968243445953711
 20
52.700346154739492
 30
0.0
 11
12.968243445953711
 21
52.5508223452157
 31
0.0
  0
LINE
  5
1149
  8
3
 10
12.81871963642992
 20
52.700346154739492
 30
0.0
 11
12.81871963642992
 21
52.5508223452157
 31
0.0
  0
LINE
  5
114A
  8
3
 10
12.81871963642992
 20
52.700346154739492
 30
0.0
 11
12.968243445953711
 21
52.700346154739492
 31
0.0
  0
LINE
  5
114B
  8
3
 10
12.81871963642992
 20
52.5508223452157
 30
0.0
 11
12.968243445953711
 21
52.5508223452157
 31
0.0
  0
LINE
  5
114C
  8
3
 10
12.968243445953711
 20
52.253679488072862
 30
0.0
 11
13.116814874525121
 21
52.402250916644249
 31
0.0
  0
LINE
  5
114E
  8
3
 10
12.9972123022003
 20
52.07518682230247
 30
0.0
 11
13.116814874525121
 21
51.955584249977633
 31
0.0
  0
LINE
  5
114F
  8
3
 10
12.968243445953711
 20
52.253679488072848
 30
0.0
 11
12.968243445953711
 21
52.137477275421183
 31
0.0
  0
LINE
  5
1151
  8
3
 10
12.91826610784922
 20
52.253679488072862
 30
0.0
 11
12.968243445953711
 21
52.253679488072848
 31
0.0
  0
LINE
  5
1153
  8
3
 10
13.078067663511559
 20
51.916837038964069
 30
0.0
 11
13.116814874525121
 21
51.955584249977633
 31
0.0
  0
LINE
  5
115C
  8
3
 10
14.308243445953609
 20
50.913679488072958
 30
0.0
 11
14.45681487452501
 21
51.062250916644359
 31
0.0
  0
LINE
  5
115D
  8
3
 10
14.01014820785838
 20
51.062250916644359
 30
0.0
 11
14.15871963642981
 21
50.913679488072958
 31
0.0
  0
LINE
  5
115E
  8
3
 10
14.15871963642981
 20
50.764155678549173
 30
0.0
 11
14.140500431271811
 21
50.745936473391168
 31
0.0
  0
LINE
  5
115F
  8
3
 10
14.308243445953609
 20
50.764155678549173
 30
0.0
 11
14.45681487452501
 21
50.615584249977729
 31
0.0
  0
LINE
  5
1160
  8
3
 10
14.308243445953609
 20
50.913679488072951
 30
0.0
 11
14.308243445953609
 21
50.76415567854918
 31
0.0
  0
LINE
  5
1161
  8
3
 10
14.15871963642981
 20
50.913679488072958
 30
0.0
 11
14.15871963642981
 21
50.76415567854918
 31
0.0
  0
LINE
  5
1162
  8
3
 10
14.15871963642981
 20
50.913679488072958
 30
0.0
 11
14.3082434459536
 21
50.913679488072951
 31
0.0
  0
LINE
  5
1163
  8
3
 10
14.15871963642981
 20
50.76415567854918
 30
0.0
 11
14.308243445953609
 21
50.76415567854918
 31
0.0
  0
LINE
  5
1168
  8
3
 10
13.885225358708171
 20
50.937328067494157
 30
0.0
 11
14.01014820785838
 21
51.062250916644359
 31
0.0
  0
LINE
  5
1169
  8
3
 10
15.64824344595546
 20
56.720346154738444
 30
0.0
 11
15.796814874526889
 21
56.861464848827929
 31
0.0
  0
LINE
  5
116A
  8
3
 10
15.64824344595543
 20
56.570822345214637
 30
0.0
 11
15.64824344595546
 21
56.720346154738444
 31
0.0
  0
LINE
  5
116B
  8
3
 10
15.498719636431661
 20
56.720346154738472
 30
0.0
 11
15.64824344595546
 21
56.720346154738444
 31
0.0
  0
LINE
  5
116C
  8
3
 10
15.498719636431661
 20
56.720346154738472
 30
0.0
 11
15.40272205767392
 21
56.81152824190228
 31
0.0
  0
LINE
  5
116D
  8
3
 10
15.49871963643163
 20
56.570822345214673
 30
0.0
 11
15.498719636431661
 21
56.720346154738472
 31
0.0
  0
LINE
  5
116E
  8
3
 10
15.20157677928883
 20
56.720346154738444
 30
0.0
 11
15.267932589071689
 21
56.78337338219292
 31
0.0
  0
LINE
  5
116F
  8
3
 10
15.2015767792888
 20
56.570822345214637
 30
0.0
 11
15.20157677928883
 21
56.720346154738444
 31
0.0
  0
LINE
  5
1170
  8
3
 10
15.052052969765031
 20
56.720346154738472
 30
0.0
 11
15.20157677928883
 21
56.720346154738444
 31
0.0
  0
LINE
  5
1171
  8
3
 10
15.052052969765031
 20
56.720346154738472
 30
0.0
 11
15.04754950899664
 21
56.724623710043893
 31
0.0
  0
LINE
  5
1172
  8
3
 10
15.052052969765001
 20
56.570822345214673
 30
0.0
 11
15.052052969765031
 21
56.720346154738472
 31
0.0
  0
LINE
  5
1174
  8
3
 10
14.75491011262088
 20
56.57082234521593
 30
0.0
 11
14.75491011262088
 21
56.620799683320612
 31
0.0
  0
LINE
  5
1178
  8
3
 10
16.541576779287428
 20
56.720346154738401
 30
0.0
 11
16.63757435804489
 21
56.811528241901918
 31
0.0
  0
LINE
  5
1179
  8
3
 10
16.5415767792874
 20
56.570822345214602
 30
0.0
 11
16.541576779287428
 21
56.720346154738401
 31
0.0
  0
LINE
  5
117A
  8
3
 10
16.392052969763629
 20
56.720346154738444
 30
0.0
 11
16.541576779287428
 21
56.720346154738401
 31
0.0
  0
LINE
  5
117B
  8
3
 10
16.392052969763629
 20
56.720346154738444
 30
0.0
 11
16.243481541192232
 21
56.86146484882795
 31
0.0
  0
LINE
  5
117C
  8
3
 10
16.392052969763601
 20
56.570822345214637
 30
0.0
 11
16.392052969763629
 21
56.720346154738451
 31
0.0
  0
LINE
  5
117D
  8
3
 10
16.988243445955352
 20
56.720346154738444
 30
0.0
 11
16.99274690672295
 21
56.724623710043097
 31
0.0
  0
LINE
  5
117E
  8
3
 10
16.98824344595532
 20
56.570822345214637
 30
0.0
 11
16.988243445955352
 21
56.720346154738444
 31
0.0
  0
LINE
  5
117F
  8
3
 10
16.838719636431549
 20
56.720346154738472
 30
0.0
 11
16.988243445955352
 21
56.720346154738444
 31
0.0
  0
LINE
  5
1180
  8
3
 10
16.838719636431549
 20
56.720346154738472
 30
0.0
 11
16.772363826649869
 21
56.783373382191847
 31
0.0
  0
LINE
  5
1181
  8
3
 10
16.83871963643152
 20
56.570822345214673
 30
0.0
 11
16.838719636431549
 21
56.720346154738472
 31
0.0
  0
LINE
  5
1186
  8
3
 10
17.285386303098061
 20
56.570822345214673
 30
0.0
 11
17.285386303098068
 21
56.620799683319802
 31
0.0
  0
LINE
  5
1187
  8
3
 10
14.754910112620241
 20
50.467012821406342
 30
0.0
 11
14.90348154119164
 21
50.615584249977729
 31
0.0
  0
LINE
  5
1188
  8
3
 10
14.45681487452501
 20
50.615584249977729
 30
0.0
 11
14.576417446849851
 21
50.495981677652921
 31
0.0
  0
LINE
  5
118B
  8
3
 10
14.754910112620241
 20
50.467012821406342
 30
0.0
 11
14.754910112620241
 21
50.417035483301831
 31
0.0
  0
LINE
  5
118D
  8
3
 10
14.63870789996855
 20
50.467012821406342
 30
0.0
 11
14.75491011262023
 21
50.467012821406342
 31
0.0
  0
LINE
  5
118F
  8
3
 10
15.20157677928686
 20
50.467012821406342
 30
0.0
 11
15.35014820785827
 21
50.615584249977729
 31
0.0
  0
LINE
  5
1190
  8
3
 10
14.90348154119164
 20
50.615584249977729
 30
0.0
 11
15.05205296976307
 21
50.467012821406342
 31
0.0
  0
LINE
  5
1191
  8
3
 10
15.05205296976307
 20
50.31748901188255
 30
0.0
 11
15.047722833576209
 21
50.313158875695692
 31
0.0
  0
LINE
  5
1192
  8
3
 10
15.20157677928686
 20
50.31748901188255
 30
0.0
 11
15.263603432427519
 21
50.25546235874188
 31
0.0
  0
LINE
  5
1193
  8
3
 10
15.20157677928686
 20
50.467012821406342
 30
0.0
 11
15.20157677928686
 21
50.31748901188255
 31
0.0
  0
LINE
  5
1194
  8
3
 10
15.052052969763061
 20
50.467012821406342
 30
0.0
 11
15.05205296976307
 21
50.31748901188255
 31
0.0
  0
LINE
  5
1195
  8
3
 10
15.052052969763061
 20
50.467012821406342
 30
0.0
 11
15.20157677928686
 21
50.467012821406342
 31
0.0
  0
LINE
  5
1196
  8
3
 10
15.05205296976307
 20
50.31748901188255
 30
0.0
 11
15.20157677928686
 21
50.31748901188255
 31
0.0
  0
LINE
  5
1197
  8
3
 10
15.648243445953501
 20
50.467012821406342
 30
0.0
 11
15.796814874524889
 21
50.615584249977729
 31
0.0
  0
LINE
  5
1198
  8
3
 10
15.35014820785827
 20
50.615584249977729
 30
0.0
 11
15.4987196364297
 21
50.467012821406342
 31
0.0
  0
LINE
  5
1199
  8
3
 10
15.4987196364297
 20
50.31748901188255
 30
0.0
 11
15.406779323085109
 21
50.225548698537949
 31
0.0
  0
LINE
  5
119A
  8
3
 10
15.648243445953501
 20
50.31748901188255
 30
0.0
 11
15.78881823214379
 21
50.176914225692222
 31
0.0
  0
LINE
  5
119B
  8
3
 10
15.648243445953501
 20
50.467012821406342
 30
0.0
 11
15.648243445953501
 21
50.31748901188255
 31
0.0
  0
LINE
  5
119C
  8
3
 10
15.4987196364297
 20
50.467012821406342
 30
0.0
 11
15.4987196364297
 21
50.31748901188255
 31
0.0
  0
LINE
  5
119D
  8
3
 10
15.4987196364297
 20
50.467012821406342
 30
0.0
 11
15.64824344595349
 21
50.467012821406342
 31
0.0
  0
LINE
  5
119E
  8
3
 10
15.4987196364297
 20
50.31748901188255
 30
0.0
 11
15.648243445953501
 21
50.31748901188255
 31
0.0
  0
LINE
  5
119F
  8
3
 10
17.46387896886613
 20
50.495981677652452
 30
0.0
 11
17.583481541191421
 21
50.615584249977729
 31
0.0
  0
LINE
  5
11A0
  8
3
 10
17.136814874524791
 20
50.615584249977729
 30
0.0
 11
17.28538630309621
 21
50.467012821406342
 31
0.0
  0
LINE
  5
11A4
  8
3
 10
17.28538630309621
 20
50.467012821406342
 30
0.0
 11
17.285386303096221
 21
50.417035483301618
 31
0.0
  0
LINE
  5
11A5
  8
3
 10
17.28538630309621
 20
50.467012821406342
 30
0.0
 11
17.401588515748401
 21
50.467012821406328
 31
0.0
  0
LINE
  5
11A7
  8
3
 10
16.98824344595338
 20
50.467012821406342
 30
0.0
 11
17.136814874524781
 21
50.615584249977729
 31
0.0
  0
LINE
  5
11A8
  8
3
 10
16.690148207858151
 20
50.615584249977729
 30
0.0
 11
16.838719636429591
 21
50.467012821406342
 31
0.0
  0
LINE
  5
11A9
  8
3
 10
16.838719636429591
 20
50.31748901188255
 30
0.0
 11
16.776692983288768
 21
50.255462358741717
 31
0.0
  0
LINE
  5
11AA
  8
3
 10
16.98824344595338
 20
50.31748901188255
 30
0.0
 11
16.992573582140349
 21
50.313158875695571
 31
0.0
  0
LINE
  5
11AB
  8
3
 10
16.98824344595338
 20
50.467012821406328
 30
0.0
 11
16.98824344595338
 21
50.31748901188255
 31
0.0
  0
LINE
  5
11AC
  8
3
 10
16.83871963642958
 20
50.467012821406342
 30
0.0
 11
16.838719636429591
 21
50.31748901188255
 31
0.0
  0
LINE
  5
11AD
  8
3
 10
16.83871963642958
 20
50.467012821406342
 30
0.0
 11
16.98824344595338
 21
50.467012821406328
 31
0.0
  0
LINE
  5
11AE
  8
3
 10
16.838719636429591
 20
50.31748901188255
 30
0.0
 11
16.98824344595338
 21
50.31748901188255
 31
0.0
  0
LINE
  5
11AF
  8
3
 10
16.54157677928675
 20
50.467012821406342
 30
0.0
 11
16.690148207858162
 21
50.615584249977729
 31
0.0
  0
LINE
  5
11B0
  8
3
 10
16.243481541191532
 20
50.615584249977729
 30
0.0
 11
16.392052969762961
 21
50.467012821406342
 31
0.0
  0
LINE
  5
11B1
  8
3
 10
16.392052969762961
 20
50.31748901188255
 30
0.0
 11
16.251478183572608
 21
50.17691422569218
 31
0.0
  0
LINE
  5
11B2
  8
3
 10
16.54157677928675
 20
50.31748901188255
 30
0.0
 11
16.633517092631401
 21
50.225548698537878
 31
0.0
  0
LINE
  5
11B3
  8
3
 10
16.54157677928675
 20
50.467012821406328
 30
0.0
 11
16.54157677928675
 21
50.31748901188255
 31
0.0
  0
LINE
  5
11B4
  8
3
 10
16.392052969762961
 20
50.467012821406342
 30
0.0
 11
16.392052969762961
 21
50.31748901188255
 31
0.0
  0
LINE
  5
11B5
  8
3
 10
16.392052969762961
 20
50.467012821406342
 30
0.0
 11
16.54157677928675
 21
50.467012821406328
 31
0.0
  0
LINE
  5
11B6
  8
3
 10
16.392052969762961
 20
50.31748901188255
 30
0.0
 11
16.54157677928675
 21
50.31748901188255
 31
0.0
  0
LINE
  5
11B7
  8
3
 10
17.88157677928665
 20
50.913679488072972
 30
0.0
 11
18.030148207858041
 21
51.062250916644373
 31
0.0
  0
LINE
  5
11B8
  8
3
 10
17.583481541191421
 20
51.062250916644373
 30
0.0
 11
17.732052969762851
 21
50.913679488072972
 31
0.0
  0
LINE
  5
11B9
  8
3
 10
17.732052969762851
 20
50.76415567854918
 30
0.0
 11
17.583481541191421
 21
50.615584249977729
 31
0.0
  0
LINE
  5
11BA
  8
3
 10
17.88157677928665
 20
50.76415567854918
 30
0.0
 11
17.89979598444485
 21
50.745936473390969
 31
0.0
  0
LINE
  5
11BB
  8
3
 10
17.88157677928665
 20
50.913679488072958
 30
0.0
 11
17.88157677928665
 21
50.764155678549187
 31
0.0
  0
LINE
  5
11BC
  8
3
 10
17.732052969762851
 20
50.913679488072972
 30
0.0
 11
17.732052969762851
 21
50.764155678549187
 31
0.0
  0
LINE
  5
11BD
  8
3
 10
17.732052969762851
 20
50.913679488072972
 30
0.0
 11
17.88157677928664
 21
50.913679488072958
 31
0.0
  0
LINE
  5
11BE
  8
3
 10
17.732052969762851
 20
50.764155678549187
 30
0.0
 11
17.88157677928665
 21
50.764155678549187
 31
0.0
  0
LINE
  5
11BF
  8
3
 10
18.1550710570089
 20
50.937328067494249
 30
0.0
 11
18.030148207858691
 21
51.062250916644452
 31
0.0
  0
LINE
  5
11C0
  8
3
 10
18.96222875220548
 20
51.916837038964189
 30
0.0
 11
18.923481541191919
 21
51.955584249977747
 31
0.0
  0
LINE
  5
11C1
  8
3
 10
19.122030307867799
 20
52.25367948807299
 30
0.0
 11
19.072052969763309
 21
52.25367948807299
 31
0.0
  0
LINE
  5
11C2
  8
3
 10
19.072052969763298
 20
52.25367948807299
 30
0.0
 11
19.072052969763309
 21
52.137477275421318
 31
0.0
  0
LINE
  5
11C3
  8
3
 10
19.04308411351672
 20
52.075186822302612
 30
0.0
 11
18.923481541191919
 21
51.955584249977747
 31
0.0
  0
LINE
  5
11C4
  8
3
 10
19.072052969763298
 20
52.25367948807299
 30
0.0
 11
18.923481541191901
 21
52.402250916644377
 31
0.0
  0
LINE
  5
11C5
  8
3
 10
19.221576779287091
 20
52.550822345215849
 30
0.0
 11
19.072052969763291
 21
52.550822345215842
 31
0.0
  0
LINE
  5
11C6
  8
3
 10
19.22157677928708
 20
52.700346154739641
 30
0.0
 11
19.072052969763291
 21
52.70034615473962
 31
0.0
  0
LINE
  5
11C7
  8
3
 10
19.22157677928708
 20
52.700346154739641
 30
0.0
 11
19.221576779287091
 21
52.550822345215849
 31
0.0
  0
LINE
  5
11C8
  8
3
 10
19.072052969763281
 20
52.70034615473962
 30
0.0
 11
19.072052969763291
 21
52.550822345215842
 31
0.0
  0
LINE
  5
11C9
  8
3
 10
19.072052969763291
 20
52.550822345215842
 30
0.0
 11
18.923481541191901
 21
52.402250916644377
 31
0.0
  0
LINE
  5
11CA
  8
3
 10
19.221576779287091
 20
52.550822345215842
 30
0.0
 11
19.225906915473931
 21
52.546492209028997
 31
0.0
  0
LINE
  5
11CB
  8
3
 10
19.283603432427721
 20
52.762372807880261
 30
0.0
 11
19.22157677928708
 21
52.700346154739641
 31
0.0
  0
LINE
  5
11CC
  8
3
 10
19.072052969763281
 20
52.700346154739627
 30
0.0
 11
18.923481541191869
 21
52.848917583311007
 31
0.0
  0
LINE
  5
11CD
  8
3
 10
19.221576779287069
 20
52.997489011882479
 30
0.0
 11
19.07205296976327
 21
52.997489011882472
 31
0.0
  0
LINE
  5
11CE
  8
3
 10
19.221576779287059
 20
53.147012821406257
 30
0.0
 11
19.07205296976327
 21
53.147012821406243
 31
0.0
  0
LINE
  5
11CF
  8
3
 10
19.221576779287059
 20
53.147012821406257
 30
0.0
 11
19.221576779287069
 21
52.997489011882479
 31
0.0
  0
LINE
  5
11D0
  8
3
 10
19.072052969763259
 20
53.147012821406243
 30
0.0
 11
19.07205296976327
 21
52.997489011882472
 31
0.0
  0
LINE
  5
11D1
  8
3
 10
19.07205296976327
 20
52.997489011882458
 30
0.0
 11
18.923481541191869
 21
52.848917583311007
 31
0.0
  0
LINE
  5
11D2
  8
3
 10
19.221576779287069
 20
52.997489011882472
 30
0.0
 11
19.313517092631649
 21
52.905548698537899
 31
0.0
  0
LINE
  5
11D3
  8
3
 10
19.362151565477362
 20
53.287587607596542
 30
0.0
 11
19.221576779287059
 21
53.147012821406257
 31
0.0
  0
LINE
  5
11D4
  8
3
 10
19.072052969763259
 20
53.14701282140625
 30
0.0
 11
18.923481541191862
 21
53.295584249977637
 31
0.0
  0
LINE
  5
11D5
  8
3
 10
19.221576779287052
 20
53.444155678549109
 30
0.0
 11
19.072052969763249
 21
53.444155678549102
 31
0.0
  0
LINE
  5
11D6
  8
3
 10
19.221576779287052
 20
53.593679488072887
 30
0.0
 11
19.072052969763249
 21
53.59367948807288
 31
0.0
  0
LINE
  5
11D7
  8
3
 10
19.221576779287052
 20
53.593679488072887
 30
0.0
 11
19.221576779287052
 21
53.444155678549109
 31
0.0
  0
LINE
  5
11D8
  8
3
 10
19.072052969763249
 20
53.59367948807288
 30
0.0
 11
19.072052969763249
 21
53.444155678549102
 31
0.0
  0
LINE
  5
11D9
  8
3
 10
19.072052969763249
 20
53.444155678549087
 30
0.0
 11
18.923481541191862
 21
53.295584249977637
 31
0.0
  0
LINE
  5
11DA
  8
3
 10
19.221576779287052
 20
53.444155678549102
 30
0.0
 11
19.36315535649867
 21
53.302577101337477
 31
0.0
  0
LINE
  5
11DB
  8
3
 10
19.36315535649868
 20
53.735258065284512
 30
0.0
 11
19.221576779287041
 21
53.593679488072887
 31
0.0
  0
LINE
  5
11DC
  8
3
 10
19.072052969763249
 20
53.593679488072887
 30
0.0
 11
18.92348154119184
 21
53.742250916644281
 31
0.0
  0
LINE
  5
11DD
  8
3
 10
19.22157677928703
 20
53.890822345215732
 30
0.0
 11
19.072052969763231
 21
53.890822345215732
 31
0.0
  0
LINE
  5
11DE
  8
3
 10
19.22157677928703
 20
54.040346154739517
 30
0.0
 11
19.072052969763231
 21
54.04034615473951
 31
0.0
  0
LINE
  5
11DF
  8
3
 10
19.22157677928703
 20
54.040346154739517
 30
0.0
 11
19.22157677928703
 21
53.890822345215732
 31
0.0
  0
LINE
  5
11E0
  8
3
 10
19.072052969763231
 20
54.04034615473951
 30
0.0
 11
19.072052969763231
 21
53.890822345215732
 31
0.0
  0
LINE
  5
11E1
  8
3
 10
19.072052969763231
 20
53.890822345215717
 30
0.0
 11
18.92348154119184
 21
53.742250916644281
 31
0.0
  0
LINE
  5
11E2
  8
3
 10
19.22157677928703
 20
53.890822345215732
 30
0.0
 11
19.362151565477379
 21
53.750247559025389
 31
0.0
  0
LINE
  5
11E3
  8
3
 10
19.313517092631681
 20
54.13228646808416
 30
0.0
 11
19.22157677928703
 21
54.040346154739517
 31
0.0
  0
LINE
  5
11E4
  8
3
 10
19.072052969763231
 20
54.040346154739517
 30
0.0
 11
18.923481541191819
 21
54.188917583310896
 31
0.0
  0
LINE
  5
11E5
  8
3
 10
19.221576779286998
 20
54.337489011882369
 30
0.0
 11
19.07205296976321
 21
54.337489011882361
 31
0.0
  0
LINE
  5
11E6
  8
3
 10
19.221576779286998
 20
54.487012821406147
 30
0.0
 11
19.07205296976321
 21
54.48701282140614
 31
0.0
  0
LINE
  5
11E7
  8
3
 10
19.221576779286998
 20
54.487012821406147
 30
0.0
 11
19.221576779287009
 21
54.337489011882369
 31
0.0
  0
LINE
  5
11E8
  8
3
 10
19.072052969763199
 20
54.48701282140614
 30
0.0
 11
19.07205296976321
 21
54.337489011882361
 31
0.0
  0
LINE
  5
11E9
  8
3
 10
19.07205296976321
 20
54.337489011882347
 30
0.0
 11
18.923481541191819
 21
54.188917583310896
 31
0.0
  0
LINE
  5
11EA
  8
3
 10
19.221576779287009
 20
54.337489011882361
 30
0.0
 11
19.28360343242781
 21
54.275462358741571
 31
0.0
  0
LINE
  5
11EB
  8
3
 10
19.22590691547396
 20
54.491342957593112
 30
0.0
 11
19.221576779286998
 21
54.487012821406147
 31
0.0
  0
LINE
  5
11EC
  8
3
 10
19.072052969763199
 20
54.48701282140614
 30
0.0
 11
18.923481541191791
 21
54.635584249977533
 31
0.0
  0
LINE
  5
11ED
  8
3
 10
19.122030307867892
 20
54.784155678548991
 30
0.0
 11
19.072052969763192
 21
54.784155678548991
 31
0.0
  0
LINE
  5
11EE
  8
3
 10
19.072052969763192
 20
54.900357891201132
 30
0.0
 11
19.072052969763192
 21
54.784155678548991
 31
0.0
  0
LINE
  5
11EF
  8
3
 10
19.072052969763192
 20
54.784155678548991
 30
0.0
 11
18.923481541191791
 21
54.635584249977533
 31
0.0
  0
LINE
  5
11F0
  8
3
 10
19.04308411351705
 20
54.9626483443189
 30
0.0
 11
18.92348154119178
 21
55.082250916644163
 31
0.0
  0
LINE
  5
11F1
  8
3
 10
18.625386303096541
 20
55.380346154739378
 30
0.0
 11
18.476814874525129
 21
55.528917583310758
 31
0.0
  0
LINE
  5
11F2
  8
3
 10
18.793129317778529
 20
55.398565359897582
 30
0.0
 11
18.774910112620329
 21
55.380346154739392
 31
0.0
  0
LINE
  5
11F3
  8
3
 10
18.77491011262034
 20
55.230822345215593
 30
0.0
 11
18.92348154119178
 21
55.082250916644149
 31
0.0
  0
LINE
  5
11F4
  8
3
 10
18.625386303096541
 20
55.230822345215593
 30
0.0
 11
18.47681487452515
 21
55.082250916644142
 31
0.0
  0
LINE
  5
11F5
  8
3
 10
18.625386303096541
 20
55.380346154739371
 30
0.0
 11
18.625386303096541
 21
55.230822345215593
 31
0.0
  0
LINE
  5
11F6
  8
3
 10
18.77491011262034
 20
55.380346154739392
 30
0.0
 11
18.77491011262034
 21
55.230822345215593
 31
0.0
  0
LINE
  5
11F7
  8
3
 10
18.77491011262034
 20
55.380346154739392
 30
0.0
 11
18.625386303096541
 21
55.380346154739371
 31
0.0
  0
LINE
  5
11F8
  8
3
 10
18.77491011262034
 20
55.230822345215593
 30
0.0
 11
18.625386303096541
 21
55.230822345215593
 31
0.0
  0
LINE
  5
11F9
  8
3
 10
18.625386303096558
 20
54.933679488072748
 30
0.0
 11
18.47681487452515
 21
55.082250916644142
 31
0.0
  0
LINE
  5
11FA
  8
3
 10
18.96222875220553
 20
55.120998127657892
 30
0.0
 11
18.774910112620351
 21
54.933679488072748
 31
0.0
  0
LINE
  5
11FB
  8
3
 10
18.774910112620361
 20
54.784155678548963
 30
0.0
 11
18.923481541191791
 21
54.635584249977533
 31
0.0
  0
LINE
  5
11FC
  8
3
 10
18.625386303096558
 20
54.784155678548949
 30
0.0
 11
18.476814874525171
 21
54.635584249977498
 31
0.0
  0
LINE
  5
11FD
  8
3
 10
18.625386303096558
 20
54.933679488072741
 30
0.0
 11
18.625386303096558
 21
54.784155678548963
 31
0.0
  0
LINE
  5
11FE
  8
3
 10
18.774910112620351
 20
54.933679488072748
 30
0.0
 11
18.774910112620361
 21
54.78415567854897
 31
0.0
  0
LINE
  5
11FF
  8
3
 10
18.774910112620351
 20
54.933679488072748
 30
0.0
 11
18.625386303096558
 21
54.933679488072741
 31
0.0
  0
LINE
  5
1200
  8
3
 10
18.774910112620351
 20
54.78415567854897
 30
0.0
 11
18.625386303096558
 21
54.784155678548963
 31
0.0
  0
LINE
  5
1201
  8
3
 10
18.625386303096569
 20
54.487012821406118
 30
0.0
 11
18.476814874525171
 21
54.635584249977498
 31
0.0
  0
LINE
  5
1202
  8
3
 10
18.923481541191791
 20
54.635584249977533
 30
0.0
 11
18.774910112620368
 21
54.487012821406118
 31
0.0
  0
LINE
  5
1203
  8
3
 10
18.774910112620379
 20
54.337489011882333
 30
0.0
 11
18.923481541191819
 21
54.188917583310889
 31
0.0
  0
LINE
  5
1204
  8
3
 10
18.62538630309658
 20
54.337489011882319
 30
0.0
 11
18.476814874525189
 21
54.188917583310882
 31
0.0
  0
LINE
  5
1205
  8
3
 10
18.625386303096569
 20
54.487012821406111
 30
0.0
 11
18.62538630309658
 21
54.337489011882333
 31
0.0
  0
LINE
  5
1206
  8
3
 10
18.774910112620368
 20
54.487012821406118
 30
0.0
 11
18.774910112620379
 21
54.33748901188234
 31
0.0
  0
LINE
  5
1207
  8
3
 10
18.774910112620368
 20
54.487012821406118
 30
0.0
 11
18.62538630309658
 21
54.487012821406111
 31
0.0
  0
LINE
  5
1208
  8
3
 10
18.774910112620368
 20
54.33748901188234
 30
0.0
 11
18.62538630309658
 21
54.337489011882333
 31
0.0
  0
LINE
  5
1209
  8
3
 10
18.625386303096601
 20
54.040346154739488
 30
0.0
 11
18.476814874525189
 21
54.188917583310882
 31
0.0
  0
LINE
  5
120A
  8
3
 10
18.923481541191819
 20
54.188917583310889
 30
0.0
 11
18.7749101126204
 21
54.040346154739503
 31
0.0
  0
LINE
  5
120B
  8
3
 10
18.7749101126204
 20
53.890822345215703
 30
0.0
 11
18.92348154119184
 21
53.742250916644267
 31
0.0
  0
LINE
  5
120C
  8
3
 10
18.625386303096601
 20
53.890822345215703
 30
0.0
 11
18.476814874525211
 21
53.742250916644238
 31
0.0
  0
LINE
  5
120D
  8
3
 10
18.625386303096601
 20
54.040346154739481
 30
0.0
 11
18.625386303096601
 21
53.890822345215703
 31
0.0
  0
LINE
  5
120E
  8
3
 10
18.7749101126204
 20
54.040346154739503
 30
0.0
 11
18.7749101126204
 21
53.89082234521571
 31
0.0
  0
LINE
  5
120F
  8
3
 10
18.7749101126204
 20
54.040346154739503
 30
0.0
 11
18.625386303096601
 21
54.040346154739481
 31
0.0
  0
LINE
  5
1210
  8
3
 10
18.7749101126204
 20
53.89082234521571
 30
0.0
 11
18.625386303096601
 21
53.890822345215703
 31
0.0
  0
LINE
  5
1211
  8
3
 10
18.625386303096619
 20
53.593679488072851
 30
0.0
 11
18.476814874525211
 21
53.742250916644238
 31
0.0
  0
LINE
  5
1212
  8
3
 10
18.92348154119184
 20
53.742250916644267
 30
0.0
 11
18.774910112620411
 21
53.593679488072858
 31
0.0
  0
LINE
  5
1213
  8
3
 10
18.774910112620422
 20
53.444155678549073
 30
0.0
 11
18.923481541191862
 21
53.29558424997763
 31
0.0
  0
LINE
  5
1214
  8
3
 10
18.625386303096619
 20
53.444155678549059
 30
0.0
 11
18.476814874525228
 21
53.295584249977608
 31
0.0
  0
LINE
  5
1215
  8
3
 10
18.625386303096619
 20
53.593679488072851
 30
0.0
 11
18.625386303096619
 21
53.444155678549073
 31
0.0
  0
LINE
  5
1216
  8
3
 10
18.774910112620422
 20
53.593679488072858
 30
0.0
 11
18.774910112620422
 21
53.44415567854908
 31
0.0
  0
LINE
  5
1217
  8
3
 10
18.774910112620422
 20
53.593679488072858
 30
0.0
 11
18.625386303096619
 21
53.593679488072851
 31
0.0
  0
LINE
  5
1218
  8
3
 10
18.774910112620422
 20
53.44415567854908
 30
0.0
 11
18.625386303096619
 21
53.444155678549073
 31
0.0
  0
LINE
  5
1219
  8
3
 10
18.62538630309664
 20
53.147012821406229
 30
0.0
 11
18.476814874525228
 21
53.295584249977608
 31
0.0
  0
LINE
  5
121A
  8
3
 10
18.923481541191862
 20
53.29558424997763
 30
0.0
 11
18.774910112620429
 21
53.147012821406243
 31
0.0
  0
LINE
  5
121B
  8
3
 10
18.774910112620439
 20
52.99748901188245
 30
0.0
 11
18.923481541191869
 21
52.848917583311007
 31
0.0
  0
LINE
  5
121C
  8
3
 10
18.62538630309664
 20
52.997489011882443
 30
0.0
 11
18.476814874525239
 21
52.848917583310993
 31
0.0
  0
LINE
  5
121D
  8
3
 10
18.62538630309664
 20
53.147012821406221
 30
0.0
 11
18.62538630309664
 21
52.99748901188245
 31
0.0
  0
LINE
  5
121E
  8
3
 10
18.774910112620429
 20
53.147012821406243
 30
0.0
 11
18.774910112620439
 21
52.99748901188245
 31
0.0
  0
LINE
  5
121F
  8
3
 10
18.774910112620429
 20
53.147012821406243
 30
0.0
 11
18.62538630309664
 21
53.147012821406221
 31
0.0
  0
LINE
  5
1220
  8
3
 10
18.774910112620439
 20
52.99748901188245
 30
0.0
 11
18.62538630309664
 21
52.99748901188245
 31
0.0
  0
LINE
  5
1221
  8
3
 10
18.625386303096651
 20
52.700346154739599
 30
0.0
 11
18.476814874525239
 21
52.848917583310993
 31
0.0
  0
LINE
  5
1222
  8
3
 10
18.923481541191869
 20
52.848917583311007
 30
0.0
 11
18.77491011262045
 21
52.700346154739599
 31
0.0
  0
LINE
  5
1223
  8
3
 10
18.774910112620461
 20
52.550822345215813
 30
0.0
 11
18.923481541191901
 21
52.402250916644377
 31
0.0
  0
LINE
  5
1224
  8
3
 10
18.625386303096661
 20
52.550822345215799
 30
0.0
 11
18.476814874525271
 21
52.402250916644348
 31
0.0
  0
LINE
  5
1225
  8
3
 10
18.625386303096651
 20
52.700346154739591
 30
0.0
 11
18.625386303096661
 21
52.550822345215813
 31
0.0
  0
LINE
  5
1226
  8
3
 10
18.77491011262045
 20
52.700346154739599
 30
0.0
 11
18.774910112620461
 21
52.550822345215821
 31
0.0
  0
LINE
  5
1227
  8
3
 10
18.77491011262045
 20
52.700346154739599
 30
0.0
 11
18.625386303096661
 21
52.700346154739591
 31
0.0
  0
LINE
  5
1228
  8
3
 10
18.774910112620461
 20
52.550822345215821
 30
0.0
 11
18.625386303096661
 21
52.550822345215813
 31
0.0
  0
LINE
  5
1229
  8
3
 10
18.625386303096668
 20
52.253679488072969
 30
0.0
 11
18.476814874525271
 21
52.402250916644348
 31
0.0
  0
LINE
  5
122A
  8
3
 10
18.923481541191901
 20
52.402250916644377
 30
0.0
 11
18.774910112620471
 21
52.253679488072969
 31
0.0
  0
LINE
  5
122B
  8
3
 10
18.774910112620478
 20
52.104155678549184
 30
0.0
 11
18.962228752205469
 21
51.916837038964189
 31
0.0
  0
LINE
  5
122C
  8
3
 10
18.625386303096679
 20
52.104155678549169
 30
0.0
 11
18.476814874525289
 21
51.955584249977733
 31
0.0
  0
LINE
  5
122D
  8
3
 10
18.625386303096668
 20
52.253679488072962
 30
0.0
 11
18.625386303096679
 21
52.104155678549184
 31
0.0
  0
LINE
  5
122E
  8
3
 10
18.774910112620471
 20
52.253679488072969
 30
0.0
 11
18.774910112620478
 21
52.104155678549191
 31
0.0
  0
LINE
  5
122F
  8
3
 10
18.774910112620471
 20
52.253679488072969
 30
0.0
 11
18.625386303096679
 21
52.253679488072962
 31
0.0
  0
LINE
  5
1230
  8
3
 10
18.774910112620471
 20
52.104155678549191
 30
0.0
 11
18.625386303096679
 21
52.104155678549184
 31
0.0
  0
LINE
  5
1231
  8
3
 10
18.6253863030967
 20
51.807012821406339
 30
0.0
 11
18.476814874525289
 21
51.955584249977733
 31
0.0
  0
LINE
  5
1232
  8
3
 10
18.923481541191919
 20
51.95558424997774
 30
0.0
 11
18.774910112620489
 21
51.807012821406353
 31
0.0
  0
LINE
  5
1233
  8
3
 10
18.7749101126205
 20
51.657489011882546
 30
0.0
 11
18.793129317778501
 21
51.639269806724549
 31
0.0
  0
LINE
  5
1234
  8
3
 10
18.6253863030967
 20
51.657489011882546
 30
0.0
 11
18.47681487452531
 21
51.508917583311089
 31
0.0
  0
LINE
  5
1235
  8
3
 10
18.6253863030967
 20
51.807012821406332
 30
0.0
 11
18.6253863030967
 21
51.657489011882546
 31
0.0
  0
LINE
  5
1236
  8
3
 10
18.774910112620489
 20
51.807012821406353
 30
0.0
 11
18.774910112620489
 21
51.657489011882561
 31
0.0
  0
LINE
  5
1237
  8
3
 10
18.774910112620489
 20
51.807012821406353
 30
0.0
 11
18.6253863030967
 21
51.807012821406332
 31
0.0
  0
LINE
  5
1238
  8
3
 10
18.774910112620489
 20
51.657489011882561
 30
0.0
 11
18.6253863030967
 21
51.657489011882546
 31
0.0
  0
LINE
  5
1239
  8
3
 10
18.601737723675509
 20
51.3839947341609
 30
0.0
 11
18.47681487452531
 21
51.508917583311089
 31
0.0
  0
LINE
  5
123A
  8
3
 10
18.178719636430081
 20
51.360346154739688
 30
0.0
 11
18.03014820785868
 21
51.508917583311082
 31
0.0
  0
LINE
  5
123B
  8
3
 10
18.47681487452531
 20
51.508917583311089
 30
0.0
 11
18.328243445953881
 21
51.360346154739688
 31
0.0
  0
LINE
  5
123C
  8
3
 10
18.328243445953891
 20
51.210822345215902
 30
0.0
 11
18.388955924833521
 21
51.150109866336273
 31
0.0
  0
LINE
  5
123D
  8
3
 10
18.178719636430088
 20
51.210822345215902
 30
0.0
 11
18.030148207858691
 21
51.062250916644452
 31
0.0
  0
LINE
  5
123E
  8
3
 10
18.178719636430081
 20
51.360346154739688
 30
0.0
 11
18.178719636430088
 21
51.210822345215902
 31
0.0
  0
LINE
  5
123F
  8
3
 10
18.328243445953881
 20
51.360346154739688
 30
0.0
 11
18.328243445953891
 21
51.210822345215902
 31
0.0
  0
LINE
  5
1240
  8
3
 10
18.328243445953881
 20
51.360346154739688
 30
0.0
 11
18.178719636430088
 21
51.360346154739688
 31
0.0
  0
LINE
  5
1241
  8
3
 10
18.328243445953891
 20
51.210822345215902
 30
0.0
 11
18.178719636430088
 21
51.210822345215902
 31
0.0
  0
LINE
  5
1242
  8
3
 10
18.328243445953859
 20
51.657489011882539
 30
0.0
 11
18.17871963643007
 21
51.657489011882539
 31
0.0
  0
LINE
  5
1243
  8
3
 10
18.328243445953859
 20
51.807012821406317
 30
0.0
 11
18.17871963643007
 21
51.80701282140631
 31
0.0
  0
LINE
  5
1244
  8
3
 10
18.328243445953859
 20
51.807012821406317
 30
0.0
 11
18.328243445953859
 21
51.657489011882539
 31
0.0
  0
LINE
  5
1245
  8
3
 10
18.17871963643007
 20
51.80701282140631
 30
0.0
 11
18.17871963643007
 21
51.657489011882539
 31
0.0
  0
LINE
  5
1246
  8
3
 10
18.17871963643007
 20
51.657489011882532
 30
0.0
 11
18.03014820785868
 21
51.508917583311082
 31
0.0
  0
LINE
  5
1247
  8
3
 10
18.32824344595387
 20
51.657489011882532
 30
0.0
 11
18.47681487452531
 21
51.508917583311089
 31
0.0
  0
LINE
  5
1248
  8
3
 10
18.476814874525289
 20
51.955584249977733
 30
0.0
 11
18.328243445953859
 21
51.807012821406317
 31
0.0
  0
LINE
  5
1249
  8
3
 10
18.17871963643007
 20
51.807012821406317
 30
0.0
 11
18.030148207858659
 21
51.955584249977711
 31
0.0
  0
LINE
  5
124A
  8
3
 10
18.328243445953841
 20
52.104155678549169
 30
0.0
 11
18.178719636430049
 21
52.104155678549169
 31
0.0
  0
LINE
  5
124B
  8
3
 10
18.328243445953841
 20
52.253679488072962
 30
0.0
 11
18.178719636430049
 21
52.253679488072947
 31
0.0
  0
LINE
  5
124C
  8
3
 10
18.328243445953841
 20
52.253679488072962
 30
0.0
 11
18.328243445953849
 21
52.104155678549169
 31
0.0
  0
LINE
  5
124D
  8
3
 10
18.178719636430039
 20
52.253679488072947
 30
0.0
 11
18.178719636430049
 21
52.104155678549169
 31
0.0
  0
LINE
  5
124E
  8
3
 10
18.178719636430049
 20
52.104155678549162
 30
0.0
 11
18.030148207858659
 21
51.955584249977711
 31
0.0
  0
LINE
  5
124F
  8
3
 10
18.328243445953849
 20
52.104155678549162
 30
0.0
 11
18.476814874525289
 21
51.955584249977733
 31
0.0
  0
LINE
  5
1250
  8
3
 10
18.476814874525271
 20
52.402250916644348
 30
0.0
 11
18.328243445953841
 21
52.253679488072962
 31
0.0
  0
LINE
  5
1251
  8
3
 10
18.178719636430039
 20
52.253679488072962
 30
0.0
 11
18.030148207858641
 21
52.402250916644341
 31
0.0
  0
LINE
  5
1252
  8
3
 10
18.328243445953831
 20
52.550822345215799
 30
0.0
 11
18.178719636430031
 21
52.550822345215799
 31
0.0
  0
LINE
  5
1253
  8
3
 10
18.32824344595382
 20
52.700346154739577
 30
0.0
 11
18.178719636430031
 21
52.70034615473957
 31
0.0
  0
LINE
  5
1254
  8
3
 10
18.32824344595382
 20
52.700346154739577
 30
0.0
 11
18.328243445953831
 21
52.550822345215799
 31
0.0
  0
LINE
  5
1255
  8
3
 10
18.178719636430021
 20
52.70034615473957
 30
0.0
 11
18.178719636430031
 21
52.550822345215799
 31
0.0
  0
LINE
  5
1256
  8
3
 10
18.178719636430031
 20
52.550822345215792
 30
0.0
 11
18.030148207858641
 21
52.402250916644341
 31
0.0
  0
LINE
  5
1257
  8
3
 10
18.328243445953831
 20
52.550822345215792
 30
0.0
 11
18.476814874525271
 21
52.402250916644348
 31
0.0
  0
LINE
  5
1258
  8
3
 10
18.476814874525239
 20
52.848917583310993
 30
0.0
 11
18.32824344595382
 21
52.700346154739577
 31
0.0
  0
LINE
  5
1259
  8
3
 10
18.178719636430021
 20
52.700346154739577
 30
0.0
 11
18.030148207858609
 21
52.848917583310971
 31
0.0
  0
LINE
  5
125A
  8
3
 10
18.328243445953809
 20
52.997489011882429
 30
0.0
 11
18.17871963643001
 21
52.997489011882429
 31
0.0
  0
LINE
  5
125B
  8
3
 10
18.328243445953799
 20
53.147012821406207
 30
0.0
 11
18.17871963643001
 21
53.147012821406207
 31
0.0
  0
LINE
  5
125C
  8
3
 10
18.328243445953799
 20
53.147012821406207
 30
0.0
 11
18.328243445953809
 21
52.997489011882429
 31
0.0
  0
LINE
  5
125D
  8
3
 10
18.17871963643001
 20
53.147012821406207
 30
0.0
 11
18.17871963643001
 21
52.997489011882429
 31
0.0
  0
LINE
  5
125E
  8
3
 10
18.17871963643001
 20
52.997489011882422
 30
0.0
 11
18.030148207858609
 21
52.848917583310971
 31
0.0
  0
LINE
  5
125F
  8
3
 10
18.328243445953809
 20
52.997489011882422
 30
0.0
 11
18.476814874525239
 21
52.848917583310993
 31
0.0
  0
LINE
  5
1260
  8
3
 10
18.476814874525228
 20
53.295584249977608
 30
0.0
 11
18.328243445953799
 21
53.147012821406207
 31
0.0
  0
LINE
  5
1261
  8
3
 10
18.17871963643001
 20
53.147012821406207
 30
0.0
 11
18.030148207858598
 21
53.295584249977601
 31
0.0
  0
LINE
  5
1262
  8
3
 10
18.328243445953792
 20
53.444155678549052
 30
0.0
 11
18.178719636429989
 21
53.444155678549052
 31
0.0
  0
LINE
  5
1263
  8
3
 10
18.328243445953792
 20
53.593679488072837
 30
0.0
 11
18.178719636429989
 21
53.593679488072837
 31
0.0
  0
LINE
  5
1264
  8
3
 10
18.328243445953792
 20
53.593679488072837
 30
0.0
 11
18.328243445953792
 21
53.444155678549052
 31
0.0
  0
LINE
  5
1265
  8
3
 10
18.178719636429989
 20
53.593679488072837
 30
0.0
 11
18.178719636429989
 21
53.444155678549052
 31
0.0
  0
LINE
  5
1266
  8
3
 10
18.178719636429989
 20
53.444155678549052
 30
0.0
 11
18.030148207858598
 21
53.295584249977601
 31
0.0
  0
LINE
  5
1267
  8
3
 10
18.328243445953792
 20
53.444155678549052
 30
0.0
 11
18.476814874525228
 21
53.295584249977608
 31
0.0
  0
LINE
  5
1268
  8
3
 10
18.476814874525211
 20
53.742250916644238
 30
0.0
 11
18.328243445953781
 21
53.593679488072837
 31
0.0
  0
LINE
  5
1269
  8
3
 10
18.178719636429989
 20
53.593679488072837
 30
0.0
 11
18.030148207858581
 21
53.742250916644231
 31
0.0
  0
LINE
  5
126A
  8
3
 10
18.32824344595376
 20
53.890822345215689
 30
0.0
 11
18.178719636429971
 21
53.890822345215689
 31
0.0
  0
LINE
  5
126B
  8
3
 10
18.32824344595376
 20
54.040346154739467
 30
0.0
 11
18.178719636429971
 21
54.04034615473946
 31
0.0
  0
LINE
  5
126C
  8
3
 10
18.32824344595376
 20
54.040346154739467
 30
0.0
 11
18.32824344595377
 21
53.890822345215689
 31
0.0
  0
LINE
  5
126D
  8
3
 10
18.17871963642996
 20
54.04034615473946
 30
0.0
 11
18.178719636429971
 21
53.890822345215689
 31
0.0
  0
LINE
  5
126E
  8
3
 10
18.178719636429971
 20
53.890822345215682
 30
0.0
 11
18.030148207858581
 21
53.742250916644231
 31
0.0
  0
LINE
  5
126F
  8
3
 10
18.32824344595377
 20
53.890822345215682
 30
0.0
 11
18.476814874525211
 21
53.742250916644238
 31
0.0
  0
LINE
  5
1270
  8
3
 10
18.476814874525189
 20
54.188917583310882
 30
0.0
 11
18.32824344595376
 21
54.040346154739467
 31
0.0
  0
LINE
  5
1271
  8
3
 10
18.17871963642996
 20
54.040346154739467
 30
0.0
 11
18.030148207858559
 21
54.188917583310861
 31
0.0
  0
LINE
  5
1272
  8
3
 10
18.328243445953738
 20
54.337489011882319
 30
0.0
 11
18.17871963642995
 21
54.337489011882319
 31
0.0
  0
LINE
  5
1273
  8
3
 10
18.328243445953738
 20
54.487012821406111
 30
0.0
 11
18.17871963642995
 21
54.487012821406097
 31
0.0
  0
LINE
  5
1274
  8
3
 10
18.328243445953738
 20
54.487012821406111
 30
0.0
 11
18.328243445953749
 21
54.337489011882319
 31
0.0
  0
LINE
  5
1275
  8
3
 10
18.178719636429939
 20
54.487012821406097
 30
0.0
 11
18.17871963642995
 21
54.337489011882319
 31
0.0
  0
LINE
  5
1276
  8
3
 10
18.17871963642995
 20
54.337489011882312
 30
0.0
 11
18.030148207858559
 21
54.188917583310861
 31
0.0
  0
LINE
  5
1277
  8
3
 10
18.328243445953749
 20
54.337489011882312
 30
0.0
 11
18.476814874525189
 21
54.188917583310882
 31
0.0
  0
LINE
  5
1278
  8
3
 10
18.476814874525171
 20
54.635584249977498
 30
0.0
 11
18.328243445953738
 21
54.487012821406111
 31
0.0
  0
LINE
  5
1279
  8
3
 10
18.178719636429939
 20
54.487012821406111
 30
0.0
 11
18.030148207858542
 21
54.635584249977491
 31
0.0
  0
LINE
  5
127A
  8
3
 10
18.328243445953731
 20
54.784155678548949
 30
0.0
 11
18.178719636429928
 21
54.784155678548949
 31
0.0
  0
LINE
  5
127B
  8
3
 10
18.328243445953731
 20
54.933679488072727
 30
0.0
 11
18.178719636429928
 21
54.93367948807272
 31
0.0
  0
LINE
  5
127C
  8
3
 10
18.328243445953731
 20
54.933679488072727
 30
0.0
 11
18.328243445953731
 21
54.784155678548949
 31
0.0
  0
LINE
  5
127D
  8
3
 10
18.178719636429928
 20
54.93367948807272
 30
0.0
 11
18.178719636429928
 21
54.784155678548949
 31
0.0
  0
LINE
  5
127E
  8
3
 10
18.178719636429928
 20
54.784155678548942
 30
0.0
 11
18.030148207858542
 21
54.635584249977491
 31
0.0
  0
LINE
  5
127F
  8
3
 10
18.328243445953731
 20
54.784155678548942
 30
0.0
 11
18.476814874525171
 21
54.635584249977498
 31
0.0
  0
LINE
  5
1280
  8
3
 10
18.47681487452515
 20
55.082250916644142
 30
0.0
 11
18.328243445953721
 21
54.933679488072727
 31
0.0
  0
LINE
  5
1281
  8
3
 10
18.178719636429928
 20
54.933679488072727
 30
0.0
 11
18.03014820785852
 21
55.082250916644121
 31
0.0
  0
LINE
  5
1282
  8
3
 10
18.32824344595371
 20
55.230822345215579
 30
0.0
 11
18.178719636429911
 21
55.230822345215579
 31
0.0
  0
LINE
  5
1283
  8
3
 10
18.32824344595371
 20
55.380346154739357
 30
0.0
 11
18.178719636429911
 21
55.380346154739357
 31
0.0
  0
LINE
  5
1284
  8
3
 10
18.32824344595371
 20
55.380346154739357
 30
0.0
 11
18.32824344595371
 21
55.230822345215579
 31
0.0
  0
LINE
  5
1285
  8
3
 10
18.178719636429911
 20
55.380346154739357
 30
0.0
 11
18.178719636429911
 21
55.230822345215579
 31
0.0
  0
LINE
  5
1286
  8
3
 10
18.178719636429911
 20
55.230822345215572
 30
0.0
 11
18.03014820785852
 21
55.082250916644121
 31
0.0
  0
LINE
  5
1287
  8
3
 10
18.32824344595371
 20
55.230822345215572
 30
0.0
 11
18.47681487452515
 21
55.082250916644142
 31
0.0
  0
LINE
  5
1288
  8
3
 10
18.476814874525129
 20
55.528917583310758
 30
0.0
 11
18.32824344595371
 21
55.380346154739357
 31
0.0
  0
LINE
  5
1289
  8
3
 10
18.178719636429911
 20
55.380346154739357
 30
0.0
 11
18.030148207858499
 21
55.528917583310751
 31
0.0
  0
LINE
  5
128A
  8
3
 10
18.328243445953689
 20
55.677489011882201
 30
0.0
 11
18.178719636429889
 21
55.677489011882201
 31
0.0
  0
LINE
  5
128B
  8
3
 10
18.328243445953689
 20
55.827012821405987
 30
0.0
 11
18.178719636429889
 21
55.827012821405987
 31
0.0
  0
LINE
  5
128C
  8
3
 10
18.328243445953689
 20
55.827012821405987
 30
0.0
 11
18.328243445953689
 21
55.677489011882201
 31
0.0
  0
LINE
  5
128D
  8
3
 10
18.178719636429889
 20
55.827012821405987
 30
0.0
 11
18.178719636429889
 21
55.677489011882201
 31
0.0
  0
LINE
  5
128E
  8
3
 10
18.178719636429889
 20
55.677489011882201
 30
0.0
 11
18.030148207858499
 21
55.528917583310751
 31
0.0
  0
LINE
  5
128F
  8
3
 10
18.328243445953689
 20
55.677489011882201
 30
0.0
 11
18.476814874525129
 21
55.528917583310758
 31
0.0
  0
LINE
  5
1290
  8
3
 10
18.388955924833571
 20
55.887725300285872
 30
0.0
 11
18.328243445953689
 21
55.827012821405987
 31
0.0
  0
LINE
  5
1291
  8
3
 10
18.178719636429889
 20
55.827012821405987
 30
0.0
 11
18.030148207858481
 21
55.975584249977381
 31
0.0
  0
LINE
  5
1292
  8
3
 10
18.15507105700895
 20
56.100507099127888
 30
0.0
 11
18.030148207858481
 21
55.975584249977381
 31
0.0
  0
TEXT
  5
134A
  8
0
 62
     3
 10
0.0
 20
0.0
 30
0.0
 40
5.0
  1
BJ730-06113
  7
STANDARD1
  0
ENDSEC
  0
EOF
