  0
SECTION
  2
HEADER
  9
$ACADVER
  1
AC1009
  9
$INSBASE
 10
0.0
 20
0.0
 30
0.0
  9
$EXTMIN
 10
0.0
 20
-1.4802182810368341
 30
0.0
  9
$EXTMAX
 10
138.22256856170799
 20
135.3110258298403
 30
0.0
  9
$LIMMIN
 10
0.0
 20
0.0
  9
$LIMMAX
 10
187.5
 20
135.0
  9
$ORTHOMODE
 70
     1
  9
$REGENMODE
 70
     1
  9
$FILLMODE
 70
     1
  9
$QTEXTMODE
 70
     0
  9
$MIRRTEXT
 70
     0
  9
$DRAGMODE
 70
     2
  9
$LTSCALE
 40
5.0
  9
$OSMODE
 70
  3071
  9
$ATTMODE
 70
     1
  9
$TEXTSIZE
 40
0.2
  9
$TRACEWID
 40
0.05
  9
$TEXTSTYLE
  7
STANDARD
  9
$CLAYER
  8
0
  9
$CELTYPE
  6
BYLAYER
  9
$CECOLOR
 62
   256
  9
$DIMSCALE
 40
0.5
  9
$DIMASZ
 40
3.0
  9
$DIMEXO
 40
2.0
  9
$DIMDLI
 40
0.38
  9
$DIMRND
 40
0.0
  9
$DIMDLE
 40
0.0
  9
$DIMEXE
 40
2.0
  9
$DIMTP
 40
0.0
  9
$DIMTM
 40
0.0
  9
$DIMTXT
 40
3.2000000000000002
  9
$DIMCEN
 40
0.0
  9
$DIMTSZ
 40
0.0
  9
$DIMTOL
 70
     0
  9
$DIMLIM
 70
     0
  9
$DIMTIH
 70
     0
  9
$DIMTOH
 70
     0
  9
$DIMSE1
 70
     0
  9
$DIMSE2
 70
     0
  9
$DIMTAD
 70
     1
  9
$DIMZIN
 70
     0
  9
$DIMBLK
  1

  9
$DIMASO
 70
     0
  9
$DIMSHO
 70
     0
  9
$DIMPOST
  1

  9
$DIMAPOST
  1

  9
$DIMALT
 70
     0
  9
$DIMALTD
 70
     2
  9
$DIMALTF
 40
25.399999999999999
  9
$DIMLFAC
 40
1.0
  9
$DIMTOFL
 70
     1
  9
$DIMTVP
 40
1.6000000000000001
  9
$DIMTIX
 70
     1
  9
$DIMSOXD
 70
     0
  9
$DIMSAH
 70
     0
  9
$DIMBLK1
  1

  9
$DIMBLK2
  1

  9
$DIMSTYLE
  2
STANDARD
  9
$DIMCLRD
 70
     0
  9
$DIMCLRE
 70
     0
  9
$DIMCLRT
 70
     0
  9
$DIMTFAC
 40
1.0
  9
$DIMGAP
 40
0.09
  9
$LUNITS
 70
     2
  9
$LUPREC
 70
     4
  9
$SKETCHINC
 40
0.1
  9
$FILLETRAD
 40
0.0
  9
$AUNITS
 70
     0
  9
$AUPREC
 70
     4
  9
$MENU
  1
E:\r13\win\SUPPORT\ACAD
  9
$ELEVATION
 40
0.0
  9
$PELEVATION
 40
0.0
  9
$THICKNESS
 40
0.0
  9
$LIMCHECK
 70
     0
  9
$BLIPMODE
 70
     0
  9
$CHAMFERA
 40
0.0
  9
$CHAMFERB
 40
0.0
  9
$SKPOLY
 70
     0
  9
$TDCREATE
 40
2449839.7681712969
  9
$TDUPDATE
 40
2456597.6908915858
  9
$TDINDWG
 40
0.0001689352
  9
$TDUSRTIMER
 40
0.0001689352
  9
$USRTIMER
 70
     1
  9
$ANGBASE
 50
0.0
  9
$ANGDIR
 70
     0
  9
$PDMODE
 70
     0
  9
$PDSIZE
 40
0.0
  9
$PLINEWID
 40
0.0
  9
$COORDS
 70
     1
  9
$SPLFRAME
 70
     0
  9
$SPLINETYPE
 70
     6
  9
$SPLINESEGS
 70
     8
  9
$ATTDIA
 70
     0
  9
$ATTREQ
 70
     1
  9
$HANDLING
 70
     1
  9
$HANDSEED
  5
28E
  9
$SURFTAB1
 70
     6
  9
$SURFTAB2
 70
     6
  9
$SURFTYPE
 70
     6
  9
$SURFU
 70
     6
  9
$SURFV
 70
     6
  9
$UCSNAME
  2

  9
$UCSORG
 10
0.0
 20
0.0
 30
0.0
  9
$UCSXDIR
 10
1.0
 20
0.0
 30
0.0
  9
$UCSYDIR
 10
0.0
 20
1.0
 30
0.0
  9
$PUCSNAME
  2

  9
$PUCSORG
 10
0.0
 20
0.0
 30
0.0
  9
$PUCSXDIR
 10
1.0
 20
0.0
 30
0.0
  9
$PUCSYDIR
 10
0.0
 20
1.0
 30
0.0
  9
$USERI1
 70
     0
  9
$USERI2
 70
     1
  9
$USERI3
 70
     0
  9
$USERI4
 70
     0
  9
$USERI5
 70
     0
  9
$USERR1
 40
0.0
  9
$USERR2
 40
0.0
  9
$USERR3
 40
0.0
  9
$USERR4
 40
0.0
  9
$USERR5
 40
0.0
  9
$WORLDVIEW
 70
     1
  9
$SHADEDGE
 70
     3
  9
$SHADEDIF
 70
    70
  9
$TILEMODE
 70
     1
  9
$MAXACTVP
 70
    16
  9
$PLIMCHECK
 70
     0
  9
$PEXTMIN
 10
1.0000000000000000E+020
 20
1.0000000000000000E+020
 30
1.0000000000000000E+020
  9
$PEXTMAX
 10
-1.0000000000000000E+020
 20
-1.0000000000000000E+020
 30
-1.0000000000000000E+020
  9
$PLIMMIN
 10
0.0
 20
0.0
  9
$PLIMMAX
 10
12.0
 20
9.0
  9
$UNITMODE
 70
     0
  9
$VISRETAIN
 70
     0
  9
$PLINEGEN
 70
     0
  9
$PSLTSCALE
 70
     0
  0
ENDSEC
  0
SECTION
  2
TABLES
  0
TABLE
  2
VPORT
 70
     1
  0
VPORT
  2
*ACTIVE
 70
     0
 10
0.0
 20
0.0
 11
1.0
 21
1.0
 12
97.537595679540843
 22
66.917389270760353
 13
0.0
 23
0.0
 14
5.0
 24
5.0
 15
5.0
 25
5.0
 16
0.0
 26
0.0
 36
1.0
 17
0.0
 27
0.0
 37
0.0
 40
138.02239823999781
 41
1.831871345029239
 42
50.0
 43
0.0
 44
0.0
 50
0.0
 51
0.0
 71
     0
 72
   500
 73
     1
 74
     0
 75
     0
 76
     0
 77
     0
 78
     2
  0
ENDTAB
  0
TABLE
  2
LTYPE
 70
     3
  0
LTYPE
  2
CONTINUOUS
 70
     0
  3
Solid Line
 72
    65
 73
     0
 40
0.0
  0
LTYPE
  2
CENTER
 70
     0
  3
____ _ ____ _ ____ _ ____ _ ____ _ ____ _ ____
 72
    65
 73
     4
 40
2.0
 49
1.25
 49
-0.25
 49
0.25
 49
-0.25
  0
LTYPE
  2
PHANTOM2
 70
     0
  3
___ _ _ ___ _ _ ___ _ _ ___ _ _
 72
    65
 73
     6
 40
1.25
 49
0.625
 49
-0.125
 49
0.125
 49
-0.125
 49
0.125
 49
-0.125
  0
ENDTAB
  0
TABLE
  2
LAYER
 70
     3
  0
LAYER
  2
0
 70
     0
 62
     7
  6
CONTINUOUS
  0
LAYER
  2
1
 70
     0
 62
     1
  6
CENTER
  0
LAYER
  2
3
 70
     0
 62
     3
  6
CONTINUOUS
  0
ENDTAB
  0
TABLE
  2
STYLE
 70
     2
  0
STYLE
  2
STANDARD
 70
     0
 40
0.0
 41
1.0
 50
0.0
 71
     0
 42
0.2
  3
TXT
  4
BIGFONT
  0
STYLE
  2
STANDARD1
 70
     0
 40
0.0
 41
1.0
 50
0.0
 71
     0
 42
3.0
  3
txt
  4

  0
ENDTAB
  0
TABLE
  2
VIEW
 70
     1
  0
VIEW
  2
ALL
 70
     0
 40
135.0
 10
110.4957983193277
 20
67.5
 41
0.0
 11
0.0
 21
0.0
 31
1.0
 12
0.0
 22
0.0
 32
0.0
 42
0.0
 43
0.0
 44
0.0
 50
0.0
 71
     0
  0
ENDTAB
  0
TABLE
  2
UCS
 70
     0
  0
ENDTAB
  0
TABLE
  2
APPID
 70
     3
  0
APPID
  2
ACAD
 70
     0
  0
APPID
  2
ACAD_MLEADERVER
 70
     0
  0
APPID
  2
ACAD_NAV_VCDISPLAY
 70
     0
  0
ENDTAB
  0
TABLE
  2
DIMSTYLE
 70
     1
  0
DIMSTYLE
  2
STANDARD
 70
     0
  3

  4

  5

  6

  7

 40
1.0
 41
0.18
 42
0.0625
 43
0.38
 44
0.18
 45
0.0
 46
0.0
 47
0.0
 48
0.0
140
0.18
141
0.09
142
0.0
143
25.399999999999999
144
1.0
145
0.0
146
1.0
147
0.09
 71
     0
 72
     0
 73
     1
 74
     1
 75
     0
 76
     0
 77
     0
 78
     0
170
     0
171
     2
172
     0
173
     0
174
     0
175
     0
176
     0
177
     0
178
     0
  0
ENDTAB
  0
ENDSEC
  0
SECTION
  2
BLOCKS
  0
BLOCK
  8
0
  2
$MODEL_SPACE
 70
     0
 10
0.0
 20
0.0
 30
0.0
  3
$MODEL_SPACE
  1

  0
ENDBLK
  5
144
  8
0
  0
BLOCK
 67
     1
  8
0
  2
$PAPER_SPACE
 70
     0
 10
0.0
 20
0.0
 30
0.0
  3
$PAPER_SPACE
  1

  0
ENDBLK
  5
142
 67
     1
  8
0
  0
ENDSEC
  0
SECTION
  2
ENTITIES
  0
LINE
  5
3F
  8
0
 10
55.141179943779441
 20
123.2225685618012
 30
0.0
 11
70.729637211899316
 21
123.2225685618012
 31
0.0
  0
LINE
  5
40
  8
0
 10
47.346951309773353
 20
109.7225685618013
 30
0.0
 11
55.141179943833301
 21
123.2225685618012
 31
0.0
  0
LINE
  5
41
  8
0
 10
55.141179943860209
 20
96.222568561847936
 30
0.0
 11
47.346951309800261
 21
109.72256856184789
 31
0.0
  0
LINE
  5
42
  8
0
 10
70.729637211953161
 20
96.22256856189459
 30
0.0
 11
55.141179943833279
 21
96.22256856189459
 31
0.0
  0
LINE
  5
43
  8
0
 10
78.52386584595925
 20
109.72256856189451
 30
0.0
 11
70.729637211899302
 21
96.222568561894604
 31
0.0
  0
LINE
  5
44
  8
0
 10
70.729637211872387
 20
123.22256856184789
 30
0.0
 11
78.523865845932335
 21
109.72256856184789
 31
0.0
  0
CIRCLE
  5
45
  8
0
 10
62.935408577866298
 20
109.7225685618012
 30
0.0
 40
10.0
  0
CIRCLE
  5
46
  8
0
 10
62.935408577866298
 20
109.7225685618012
 30
0.0
 40
13.4
  0
CIRCLE
  5
47
  8
0
 10
62.935408577866298
 20
109.7225685618012
 30
0.0
 40
10.964948700217059
  0
LINE
  5
48
  8
1
 10
37.346951309827197
 20
109.7225685618012
 30
0.0
 11
88.523865845905377
 21
109.7225685618012
 31
0.0
  0
LINE
  5
49
  8
1
 10
62.935408577866298
 20
135.3110258298403
 30
0.0
 11
62.935408577866284
 21
84.134111293762146
 31
0.0
  0
LINE
  5
4A
  8
0
 10
47.346951309785588
 20
57.302526933776342
 30
0.0
 11
47.346951309785588
 21
42.669960648132189
 31
0.0
  0
LINE
  5
4B
  8
0
 10
49.53540857787209
 20
65.469960648419942
 30
0.0
 11
47.346951309785588
 21
57.302526933776342
 31
0.0
  0
ARC
  5
4C
  8
0
 10
76.383939087435564
 20
49.762411496954002
 30
0.0
 40
30.0
 50
165.44334620885749
 51
165.44334620885749
  0
ARC
  5
4D
  8
0
 10
51.244065626805757
 20
64.719960648401582
 30
0.0
 40
0.75
 50
25.508276242022081
 51
154.49172375797789
  0
ARC
  5
4E
  8
0
 10
26.10419216617597
 20
49.76241149695403
 30
0.0
 40
30.0
 50
14.556653791142431
 51
30.620610404541662
  0
ARC
  5
4F
  8
0
 10
76.383939087435564
 20
49.762411496954002
 30
0.0
 40
30.0
 50
149.37938959545829
 51
164.55665379096141
  0
LINE
  5
50
  8
0
 10
55.141179943825939
 20
57.302526933776342
 30
0.0
 11
55.141179943825939
 21
42.669960648132189
 31
0.0
  0
ARC
  5
51
  8
0
 10
95.815957657984995
 20
28.223970265610252
 30
0.0
 40
50.0
 50
132.50830246879059
 51
144.43887617076621
  0
ARC
  5
52
  8
0
 10
30.05485949774755
 20
28.223970265610259
 30
0.0
 40
50.0
 50
35.561123829233708
 51
47.491697531209319
  0
ARC
  5
53
  8
0
 10
62.935408591384899
 20
64.219960648276043
 30
0.0
 40
1.25
 50
43.660591848365719
 51
136.33940815163419
  0
ARC
  5
54
  8
0
 10
49.486878068296988
 20
49.762411496954002
 30
0.0
 40
30.0
 50
15.443346209038561
 51
30.620610404541608
  0
ARC
  5
55
  8
0
 10
99.766624989556604
 20
49.762411496954002
 30
0.0
 40
30.0
 50
149.37938959545829
 51
165.44334620885749
  0
ARC
  5
56
  8
0
 10
49.486878068296988
 20
49.762411496954002
 30
0.0
 40
30.0
 50
14.556653791142431
 51
14.556653791142489
  0
ARC
  5
57
  8
0
 10
74.626751528926775
 20
64.719960648401582
 30
0.0
 40
0.75
 50
25.508276242022031
 51
154.49172375797789
  0
ARC
  5
58
  8
0
 10
62.935408577866284
 20
61.969960648132123
 30
0.0
 40
11.51
 50
150.31563957720931
 51
162.29697209403409
  0
ARC
  5
59
  8
0
 10
62.935408577866284
 20
61.969960648132123
 30
0.0
 40
11.51
 50
17.703027905965879
 51
29.684360422790689
  0
LINE
  5
5A
  8
0
 10
76.335408577860463
 20
65.469960648419942
 30
0.0
 11
78.523865845946958
 21
57.302526933776328
 31
0.0
  0
LINE
  5
5B
  8
0
 10
72.934913565614366
 20
67.669960648132047
 30
0.0
 11
52.935903590118187
 21
67.669960648132047
 31
0.0
  0
LINE
  5
5C
  8
0
 10
76.335408577860463
 20
65.469960648419942
 30
0.0
 11
49.535408577833252
 21
65.469960648132144
 31
0.0
  0
LINE
  5
5D
  8
0
 10
78.523865845946958
 20
57.302526933776328
 30
0.0
 11
78.523865845946943
 21
42.669960648132189
 31
0.0
  0
LINE
  5
5E
  8
0
 10
78.523865845946943
 20
42.669960648132189
 30
0.0
 11
47.346951309785588
 21
42.669960648132189
 31
0.0
  0
LINE
  5
5F
  8
0
 10
69.435408577866284
 20
42.669960648132189
 30
0.0
 11
69.435408577865999
 21
38.669960648132182
 31
0.0
  0
LINE
  5
60
  8
0
 10
56.435408577866291
 20
42.669960648132189
 30
0.0
 11
56.435408577866568
 21
38.669960648132182
 31
0.0
  0
LINE
  5
61
  8
0
 10
70.935408577866284
 20
38.669960648132196
 30
0.0
 11
54.935408577866284
 21
38.669960648132211
 31
0.0
  0
LINE
  5
62
  8
0
 10
54.935408577866284
 20
38.669960648132211
 30
0.0
 11
54.935408577866262
 21
28.669960648132129
 31
0.0
  0
LINE
  5
63
  8
0
 10
54.935408577866262
 20
28.669960648132129
 30
0.0
 11
56.935408577868088
 21
26.669960648132101
 31
0.0
  0
LINE
  5
64
  8
0
 10
56.935408577868088
 20
26.669960648132101
 30
0.0
 11
68.93540857786445
 21
26.669960648132101
 31
0.0
  0
LINE
  5
65
  8
0
 10
68.93540857786445
 20
26.669960648132101
 30
0.0
 11
70.935408577866269
 21
28.669960648132118
 31
0.0
  0
LINE
  5
66
  8
0
 10
70.935408577866269
 20
28.669960648132118
 30
0.0
 11
70.935408577866284
 21
38.669960648132196
 31
0.0
  0
LINE
  5
67
  8
3
 10
69.852908577876761
 20
38.669960648132196
 30
0.0
 11
69.852908577876747
 21
27.587460648143569
 31
0.0
  0
LINE
  5
68
  8
3
 10
56.017908577855792
 20
27.587460648143569
 30
0.0
 11
56.017908577855799
 21
38.669960648132211
 31
0.0
  0
LINE
  5
69
  8
0
 10
70.935408577866269
 20
28.66996064813209
 30
0.0
 11
54.935408577866262
 21
28.669960648132129
 31
0.0
  0
LINE
  5
6A
  8
1
 10
62.935408577866284
 20
77.669960648132047
 30
0.0
 11
62.935408577866269
 21
16.669960648132118
 31
0.0
  0
LINE
  5
6B
  8
0
 10
70.729637211906621
 20
57.302526933776342
 30
0.0
 11
70.729637211906621
 21
42.669960648132189
 31
0.0
  0
LINE
  5
6C
  8
0
 10
111.3225685618072
 20
65.469960648419956
 30
0.0
 11
111.2225685618012
 21
65.096755567643342
 31
0.0
  0
ARC
  5
6D
  8
0
 10
124.7225685618014
 20
61.969960648132123
 30
0.0
 40
11.51
 50
150.31563957720931
 51
162.29697209403409
  0
ARC
  5
6E
  8
0
 10
124.7225685618014
 20
61.969960648132123
 30
0.0
 40
11.51
 50
17.703027905965879
 51
29.684360422790689
  0
LINE
  5
6F
  8
0
 10
138.1225685617955
 20
65.469960648419942
 30
0.0
 11
138.22256856170799
 21
65.09675556799229
 31
0.0
  0
LINE
  5
70
  8
0
 10
134.72207354954941
 20
67.669960648132047
 30
0.0
 11
114.7230635740533
 21
67.669960648132061
 31
0.0
  0
LINE
  5
71
  8
0
 10
138.1225685617955
 20
65.469960648419942
 30
0.0
 11
111.32256856176841
 21
65.469960648132158
 31
0.0
  0
LINE
  5
72
  8
0
 10
138.22256856170799
 20
42.669960648132189
 30
0.0
 11
111.2225685618013
 21
42.669960648132196
 31
0.0
  0
LINE
  5
73
  8
0
 10
131.22256856180141
 20
42.669960648132189
 30
0.0
 11
131.2225685618011
 21
38.669960648132182
 31
0.0
  0
LINE
  5
74
  8
0
 10
118.2225685618013
 20
42.669960648132196
 30
0.0
 11
118.22256856180159
 21
38.669960648132182
 31
0.0
  0
LINE
  5
75
  8
0
 10
132.72256856180141
 20
38.669960648132196
 30
0.0
 11
116.7225685618013
 21
38.669960648132196
 31
0.0
  0
LINE
  5
76
  8
0
 10
116.7225685618013
 20
38.669960648132196
 30
0.0
 11
116.7225685618013
 21
28.669960648132118
 31
0.0
  0
LINE
  5
77
  8
0
 10
116.7225685618013
 20
28.669960648132118
 30
0.0
 11
118.7225685618032
 21
26.66996064813209
 31
0.0
  0
LINE
  5
78
  8
0
 10
118.7225685618032
 20
26.66996064813209
 30
0.0
 11
130.72256856179951
 21
26.66996064813209
 31
0.0
  0
LINE
  5
79
  8
0
 10
130.72256856179951
 20
26.66996064813209
 30
0.0
 11
132.72256856180141
 21
28.669960648132118
 31
0.0
  0
LINE
  5
7A
  8
0
 10
132.72256856180141
 20
28.669960648132118
 30
0.0
 11
132.72256856180141
 21
38.669960648132196
 31
0.0
  0
LINE
  5
7B
  8
3
 10
131.6400685618118
 20
38.669960648132196
 30
0.0
 11
131.6400685618118
 21
27.587460648143558
 31
0.0
  0
LINE
  5
7C
  8
3
 10
117.8050685617909
 20
27.587460648143558
 30
0.0
 11
117.8050685617909
 21
38.669960648132196
 31
0.0
  0
LINE
  5
7D
  8
0
 10
132.72256856180141
 20
28.66996064813209
 30
0.0
 11
116.7225685618013
 21
28.669960648132118
 31
0.0
  0
LINE
  5
7E
  8
1
 10
124.7225685618013
 20
77.669960648132076
 30
0.0
 11
124.7225685618013
 21
16.669960648132079
 31
0.0
  0
LINE
  5
7F
  8
0
 10
138.2225685617079
 20
65.096755567991934
 30
0.0
 11
138.22256856170799
 21
42.669960648132189
 31
0.0
  0
LINE
  5
80
  8
0
 10
124.7225685618012
 20
57.302526933791491
 30
0.0
 11
124.7225685618012
 21
42.669960648132196
 31
0.0
  0
LINE
  5
81
  8
0
 10
111.2225685618013
 20
65.096755567643541
 30
0.0
 11
111.2225685618013
 21
42.669960648132196
 31
0.0
  0
ARC
  5
82
  8
0
 10
112.3851585381021
 20
54.710740323525002
 30
0.0
 40
12.60670630759644
 50
11.86391786712429
 51
52.646805173356441
  0
ARC
  5
83
  8
0
 10
117.8754962434037
 20
61.950858404018597
 30
0.0
 40
3.5204408303575132
 50
52.183843751349052
 51
88.419931065777831
  0
ARC
  5
84
  8
0
 10
118.0696408803628
 20
61.950858404018597
 30
0.0
 40
3.5204408303575132
 50
91.580068934222197
 51
127.816156248651
  0
ARC
  5
85
  8
0
 10
123.5599785856644
 20
54.710740323525002
 30
0.0
 40
12.60670630759644
 50
127.3531948266435
 51
168.1360821328756
  0
ARC
  5
86
  8
0
 10
125.8851585379381
 20
54.710740323525002
 30
0.0
 40
12.60670630759644
 50
11.86391786712429
 51
52.646805173356441
  0
ARC
  5
87
  8
0
 10
131.3754962432397
 20
61.950858404018589
 30
0.0
 40
3.5204408303575132
 50
52.183843751349052
 51
88.419931065777831
  0
ARC
  5
88
  8
0
 10
131.56964088019879
 20
61.950858404018589
 30
0.0
 40
3.5204408303575132
 50
91.580068934222197
 51
127.816156248651
  0
ARC
  5
89
  8
0
 10
137.0599785855004
 20
54.710740323525002
 30
0.0
 40
12.60670630759644
 50
127.3531948266435
 51
168.1360821328756
  0
TEXT
  5
1FD
  8
0
 62
     3
 10
0.0
 20
0.0
 30
0.0
 40
5.0
  1
BJ730-16025
  7
STANDARD1
  0
ENDSEC
  0
EOF
