  0
SECTION
  2
HEADER
  9
$ACADVER
  1
AC1009
  9
$INSBASE
 10
0.0
 20
0.0
 30
0.0
  9
$EXTMIN
 10
0.0
 20
-1.4802182810368341
 30
0.0
  9
$EXTMAX
 10
139.80164569370811
 20
124.28827560214
 30
0.0
  9
$LIMMIN
 10
0.0
 20
0.0
  9
$LIMMAX
 10
187.5
 20
135.0
  9
$ORTHOMODE
 70
     1
  9
$REGENMODE
 70
     1
  9
$FILLMODE
 70
     1
  9
$QTEXTMODE
 70
     0
  9
$MIRRTEXT
 70
     0
  9
$DRAGMODE
 70
     2
  9
$LTSCALE
 40
5.0
  9
$OSMODE
 70
  3071
  9
$ATTMODE
 70
     1
  9
$TEXTSIZE
 40
0.2
  9
$TRACEWID
 40
0.05
  9
$TEXTSTYLE
  7
STANDARD
  9
$CLAYER
  8
0
  9
$CELTYPE
  6
BYLAYER
  9
$CECOLOR
 62
   256
  9
$DIMSCALE
 40
0.5
  9
$DIMASZ
 40
3.0
  9
$DIMEXO
 40
2.0
  9
$DIMDLI
 40
0.38
  9
$DIMRND
 40
0.0
  9
$DIMDLE
 40
0.0
  9
$DIMEXE
 40
2.0
  9
$DIMTP
 40
0.0
  9
$DIMTM
 40
0.0
  9
$DIMTXT
 40
3.0
  9
$DIMCEN
 40
0.0
  9
$DIMTSZ
 40
0.0
  9
$DIMTOL
 70
     0
  9
$DIMLIM
 70
     0
  9
$DIMTIH
 70
     0
  9
$DIMTOH
 70
     0
  9
$DIMSE1
 70
     0
  9
$DIMSE2
 70
     0
  9
$DIMTAD
 70
     1
  9
$DIMZIN
 70
     0
  9
$DIMBLK
  1

  9
$DIMASO
 70
     0
  9
$DIMSHO
 70
     0
  9
$DIMPOST
  1

  9
$DIMAPOST
  1

  9
$DIMALT
 70
     0
  9
$DIMALTD
 70
     2
  9
$DIMALTF
 40
25.399999999999999
  9
$DIMLFAC
 40
1.0
  9
$DIMTOFL
 70
     1
  9
$DIMTVP
 40
1.6000000000000001
  9
$DIMTIX
 70
     1
  9
$DIMSOXD
 70
     0
  9
$DIMSAH
 70
     0
  9
$DIMBLK1
  1

  9
$DIMBLK2
  1

  9
$DIMSTYLE
  2
STANDARD
  9
$DIMCLRD
 70
     0
  9
$DIMCLRE
 70
     0
  9
$DIMCLRT
 70
     0
  9
$DIMTFAC
 40
1.0
  9
$DIMGAP
 40
0.09
  9
$LUNITS
 70
     2
  9
$LUPREC
 70
     4
  9
$SKETCHINC
 40
0.1
  9
$FILLETRAD
 40
0.0
  9
$AUNITS
 70
     0
  9
$AUPREC
 70
     4
  9
$MENU
  1
E:\r13\win\SUPPORT\ACAD
  9
$ELEVATION
 40
0.0
  9
$PELEVATION
 40
0.0
  9
$THICKNESS
 40
0.0
  9
$LIMCHECK
 70
     0
  9
$BLIPMODE
 70
     0
  9
$CHAMFERA
 40
0.0
  9
$CHAMFERB
 40
0.0
  9
$SKPOLY
 70
     0
  9
$TDCREATE
 40
2449839.768229167
  9
$TDUPDATE
 40
2456597.6909205671
  9
$TDINDWG
 40
0.1132347338
  9
$TDUSRTIMER
 40
0.1132347338
  9
$USRTIMER
 70
     1
  9
$ANGBASE
 50
0.0
  9
$ANGDIR
 70
     0
  9
$PDMODE
 70
     0
  9
$PDSIZE
 40
0.0
  9
$PLINEWID
 40
0.0
  9
$COORDS
 70
     1
  9
$SPLFRAME
 70
     0
  9
$SPLINETYPE
 70
     6
  9
$SPLINESEGS
 70
     8
  9
$ATTDIA
 70
     0
  9
$ATTREQ
 70
     1
  9
$HANDLING
 70
     1
  9
$HANDSEED
  5
2599
  9
$SURFTAB1
 70
     6
  9
$SURFTAB2
 70
     6
  9
$SURFTYPE
 70
     6
  9
$SURFU
 70
     6
  9
$SURFV
 70
     6
  9
$UCSNAME
  2

  9
$UCSORG
 10
0.0
 20
0.0
 30
0.0
  9
$UCSXDIR
 10
1.0
 20
0.0
 30
0.0
  9
$UCSYDIR
 10
0.0
 20
1.0
 30
0.0
  9
$PUCSNAME
  2

  9
$PUCSORG
 10
0.0
 20
0.0
 30
0.0
  9
$PUCSXDIR
 10
1.0
 20
0.0
 30
0.0
  9
$PUCSYDIR
 10
0.0
 20
1.0
 30
0.0
  9
$USERI1
 70
     3
  9
$USERI2
 70
     1
  9
$USERI3
 70
     0
  9
$USERI4
 70
     0
  9
$USERI5
 70
     0
  9
$USERR1
 40
0.5
  9
$USERR2
 40
3.0
  9
$USERR3
 40
3.0
  9
$USERR4
 40
3.0
  9
$USERR5
 40
10.0
  9
$WORLDVIEW
 70
     1
  9
$SHADEDGE
 70
     3
  9
$SHADEDIF
 70
    70
  9
$TILEMODE
 70
     1
  9
$MAXACTVP
 70
    16
  9
$PLIMCHECK
 70
     0
  9
$PEXTMIN
 10
1.0000000000000000E+020
 20
1.0000000000000000E+020
 30
1.0000000000000000E+020
  9
$PEXTMAX
 10
-1.0000000000000000E+020
 20
-1.0000000000000000E+020
 30
-1.0000000000000000E+020
  9
$PLIMMIN
 10
0.0
 20
0.0
  9
$PLIMMAX
 10
12.0
 20
9.0
  9
$UNITMODE
 70
     0
  9
$VISRETAIN
 70
     0
  9
$PLINEGEN
 70
     0
  9
$PSLTSCALE
 70
     0
  0
ENDSEC
  0
SECTION
  2
TABLES
  0
TABLE
  2
VPORT
 70
     1
  0
VPORT
  2
*ACTIVE
 70
     0
 10
0.0
 20
0.0
 11
1.0
 21
1.0
 12
97.52905416604365
 22
66.75636307133405
 13
0.0
 23
0.0
 14
5.0
 24
5.0
 15
10.0
 25
10.0
 16
0.0
 26
0.0
 36
1.0
 17
0.0
 27
0.0
 37
0.0
 40
137.71137496815999
 41
1.831871345029239
 42
50.0
 43
0.0
 44
0.0
 50
0.0
 51
0.0
 71
     0
 72
   100
 73
     1
 74
     0
 75
     0
 76
     0
 77
     0
 78
     2
  0
ENDTAB
  0
TABLE
  2
LTYPE
 70
     3
  0
LTYPE
  2
CONTINUOUS
 70
     0
  3
Solid Line
 72
    65
 73
     0
 40
0.0
  0
LTYPE
  2
CENTER
 70
     0
  3
____ _ ____ _ ____ _ ____ _ ____ _ ____ _ ____
 72
    65
 73
     4
 40
2.0
 49
1.25
 49
-0.25
 49
0.25
 49
-0.25
  0
LTYPE
  2
PHANTOM2
 70
     0
  3
___ _ _ ___ _ _ ___ _ _ ___ _ _
 72
    65
 73
     6
 40
1.25
 49
0.625
 49
-0.125
 49
0.125
 49
-0.125
 49
0.125
 49
-0.125
  0
ENDTAB
  0
TABLE
  2
LAYER
 70
     3
  0
LAYER
  2
0
 70
     0
 62
     7
  6
CONTINUOUS
  0
LAYER
  2
1
 70
     0
 62
     1
  6
CENTER
  0
LAYER
  2
3
 70
     0
 62
     3
  6
CONTINUOUS
  0
ENDTAB
  0
TABLE
  2
STYLE
 70
     2
  0
STYLE
  2
STANDARD
 70
     0
 40
0.0
 41
1.0
 50
0.0
 71
     0
 42
0.2
  3
TXT
  4
BIGFONT
  0
STYLE
  2
STANDARD1
 70
     0
 40
0.0
 41
1.0
 50
0.0
 71
     0
 42
3.0
  3
txt
  4

  0
ENDTAB
  0
TABLE
  2
VIEW
 70
     0
  0
ENDTAB
  0
TABLE
  2
UCS
 70
     0
  0
ENDTAB
  0
TABLE
  2
APPID
 70
     4
  0
APPID
  2
ACAD
 70
     0
  0
APPID
  2
MCAD_NO_VIS
 70
     0
  0
APPID
  2
ACAD_MLEADERVER
 70
     0
  0
APPID
  2
ACAD_NAV_VCDISPLAY
 70
     0
  0
ENDTAB
  0
TABLE
  2
DIMSTYLE
 70
     1
  0
DIMSTYLE
  2
STANDARD
 70
     0
  3

  4

  5

  6

  7

 40
1.0
 41
0.18
 42
0.0625
 43
0.38
 44
0.18
 45
0.0
 46
0.0
 47
0.0
 48
0.0
140
0.18
141
0.09
142
0.0
143
25.399999999999999
144
1.0
145
0.0
146
1.0
147
0.09
 71
     0
 72
     0
 73
     1
 74
     1
 75
     0
 76
     0
 77
     0
 78
     0
170
     0
171
     2
172
     0
173
     0
174
     0
175
     0
176
     0
177
     0
178
     0
  0
ENDTAB
  0
ENDSEC
  0
SECTION
  2
BLOCKS
  0
BLOCK
  8
0
  2
$MODEL_SPACE
 70
     0
 10
0.0
 20
0.0
 30
0.0
  3
$MODEL_SPACE
  1

  0
ENDBLK
  5
13F
  8
0
  0
BLOCK
 67
     1
  8
0
  2
$PAPER_SPACE
 70
     0
 10
0.0
 20
0.0
 30
0.0
  3
$PAPER_SPACE
  1

  0
ENDBLK
  5
13D
 67
     1
  8
0
  0
ENDSEC
  0
SECTION
  2
ENTITIES
  0
CIRCLE
  5
18F2
  8
0
 10
41.806183821263282
 20
106.28827560214
 30
0.0
 40
12.90161553830251
  0
CIRCLE
  5
190E
  8
0
 10
41.806183821263282
 20
106.28827560214
 30
0.0
 40
11.124297730643489
  0
CIRCLE
  5
190F
  8
0
 10
41.806183821263282
 20
106.28827560214
 30
0.0
 40
10.322092811053381
  0
LINE
  5
1995
  8
1
 10
41.806183821263282
 20
88.288275602140033
 30
0.0
 11
41.806183821263318
 21
124.28827560214
 31
0.0
  0
LINE
  5
1996
  8
1
 10
62.126691896952082
 20
106.28827560214
 30
0.0
 11
21.485675745574579
 21
106.28827560214
 31
0.0
  0
CIRCLE
  5
1997
  8
0
 10
41.806183821263282
 20
106.28827560214
 30
0.0
 40
15.0
  0
LINE
  5
19B0
  8
0
 10
56.806183821263339
 20
56.076475149061949
 30
0.0
 11
54.707799359565847
 21
60.576475149061949
 31
0.0
  0
LINE
  5
19B1
  8
0
 10
28.904568282960842
 20
60.576475149061949
 30
0.0
 11
26.80618382126335
 21
56.076475149061949
 31
0.0
  0
LINE
  5
19B2
  8
0
 10
48.306183821263353
 20
33.776475149061952
 30
0.0
 11
48.306183821263353
 21
36.276475149061952
 31
0.0
  0
LINE
  5
19B3
  8
0
 10
35.306183821263353
 20
36.276475149061952
 30
0.0
 11
35.306183821263353
 21
33.776475149061952
 31
0.0
  0
LINE
  5
19B4
  8
0
 10
49.806183821263339
 20
21.503475149061948
 30
0.0
 11
49.806183821263339
 21
33.776475149061952
 31
0.0
  0
LINE
  5
19B5
  8
0
 10
33.806183821263353
 20
33.776475149061952
 30
0.0
 11
33.806183821263353
 21
21.503475149061948
 31
0.0
  0
LINE
  5
19B6
  8
0
 10
48.579183821263342
 20
20.276475149061952
 30
0.0
 11
49.806183821263339
 21
21.503475149061948
 31
0.0
  0
LINE
  5
19B7
  8
0
 10
33.806183821263353
 20
21.503475149061948
 30
0.0
 11
35.03318382126335
 21
20.276475149061952
 31
0.0
  0
LINE
  5
19B8
  8
0
 10
59.12669189695211
 20
55.231879281136891
 30
0.0
 11
56.806183821263339
 21
56.076475149061949
 31
0.0
  0
LINE
  5
19B9
  8
0
 10
26.80618382126335
 20
56.076475149061949
 30
0.0
 11
24.485675745574579
 21
55.231879281136891
 31
0.0
  0
LINE
  5
19BA
  8
0
 10
56.806183821263339
 20
36.276475149061952
 30
0.0
 11
59.12669189695211
 21
37.12107101698701
 31
0.0
  0
LINE
  5
19BB
  8
0
 10
24.485675745574579
 20
37.12107101698701
 30
0.0
 11
26.80618382126335
 21
36.276475149061952
 31
0.0
  0
ARC
  5
19BE
  8
0
 10
41.806183821262749
 20
56.076475149062261
 30
0.0
 40
11.99999999999932
 50
149.33617025761399
 51
157.97568716295811
  0
ARC
  5
19BF
  8
0
 10
41.806183821263971
 20
56.076475149062233
 30
0.0
 40
11.99999999999932
 50
22.024312837041879
 51
30.66382974238596
  0
LINE
  5
19C0
  8
0
 10
54.707799359565847
 20
60.576475149061949
 30
0.0
 11
28.904568282960842
 21
60.576475149061949
 31
0.0
  0
LINE
  5
19C3
  8
0
 10
49.806183821263339
 20
33.776475149061952
 30
0.0
 11
33.806183821263353
 21
33.776475149061952
 31
0.0
  0
LINE
  5
19C4
  8
0
 10
49.806183821263339
 20
21.503475149061948
 30
0.0
 11
33.806183821263353
 21
21.503475149061948
 31
0.0
  0
LINE
  5
19C5
  8
0
 10
48.579183821263342
 20
20.276475149061952
 30
0.0
 11
35.03318382126335
 21
20.276475149061952
 31
0.0
  0
LINE
  5
19C6
  8
0
 10
56.806183821263339
 20
56.076475149061949
 30
0.0
 11
26.80618382126335
 21
56.076475149061949
 31
0.0
  0
LINE
  5
19C7
  8
0
 10
56.806183821263339
 20
36.276475149061952
 30
0.0
 11
26.80618382126335
 21
36.276475149061952
 31
0.0
  0
POLYLINE
  5
19C8
  8
0
 66
     1
 10
0.0
 20
0.0
 30
0.0
  0
VERTEX
  5
22FD
  8
0
 10
24.485675745574579
 20
55.231879281136891
 30
0.0
  0
VERTEX
  5
22FE
  8
0
 10
25.219647091900779
 20
55.481316891763413
 30
0.0
  0
VERTEX
  5
22FF
  8
0
 10
26.648986751975151
 20
55.853191249222121
 30
0.0
  0
VERTEX
  5
2300
  8
0
 10
27.478495390646291
 20
55.99036475448198
 30
0.0
  0
VERTEX
  5
2301
  8
0
 10
27.717347067805491
 20
56.018230072022881
 30
0.0
  0
VERTEX
  5
2302
  8
0
 10
27.95765351088227
 20
56.040853357777173
 30
0.0
  0
VERTEX
  5
2303
  8
0
 10
28.078468560082509
 20
56.050155034502218
 30
0.0
  0
VERTEX
  5
2304
  8
0
 10
28.199789516281211
 20
56.058090552711192
 30
0.0
  0
VERTEX
  5
2305
  8
0
 10
28.444152117075109
 20
56.069776179101481
 30
0.0
  0
VERTEX
  5
2306
  8
0
 10
28.691163743396149
 20
56.075721302980973
 30
0.0
  0
VERTEX
  5
2307
  8
0
 10
28.81580276449677
 20
56.076475149061949
 30
0.0
  0
SEQEND
  5
2308
  8
0
  0
POLYLINE
  5
19C9
  8
0
 66
     1
 10
0.0
 20
0.0
 30
0.0
  0
VERTEX
  5
2309
  8
0
 10
28.81580276449677
 20
56.076475149061949
 30
0.0
  0
VERTEX
  5
230A
  8
0
 10
29.553136968911019
 20
56.050155034502218
 30
0.0
  0
VERTEX
  5
230B
  8
0
 10
30.982618777018391
 20
55.853191249222121
 30
0.0
  0
VERTEX
  5
230C
  8
0
 10
32.41195843709275
 20
55.481316891763413
 30
0.0
  0
VERTEX
  5
230D
  8
0
 10
33.14592978341895
 20
55.231879281136891
 30
0.0
  0
SEQEND
  5
230E
  8
0
  0
POLYLINE
  5
19CA
  8
0
 66
     1
 10
0.0
 20
0.0
 30
0.0
  0
VERTEX
  5
230F
  8
0
 10
33.14592978341895
 20
37.12107101698701
 30
0.0
  0
VERTEX
  5
2310
  8
0
 10
32.41195843709275
 20
36.871633406360488
 30
0.0
  0
VERTEX
  5
2311
  8
0
 10
30.982618777018359
 20
36.49975904890178
 30
0.0
  0
VERTEX
  5
2312
  8
0
 10
30.15311013834722
 20
36.362585543641927
 30
0.0
  0
VERTEX
  5
2313
  8
0
 10
29.914258461188041
 20
36.334720226101027
 30
0.0
  0
VERTEX
  5
2314
  8
0
 10
29.673952018111269
 20
36.312096940346741
 30
0.0
  0
VERTEX
  5
2315
  8
0
 10
29.553136968911019
 20
36.302795263621682
 30
0.0
  0
VERTEX
  5
2316
  8
0
 10
29.431816012712321
 20
36.294859745412708
 30
0.0
  0
VERTEX
  5
2317
  8
0
 10
29.187453411918401
 20
36.283174119022419
 30
0.0
  0
VERTEX
  5
2318
  8
0
 10
28.940441785597379
 20
36.277228995142941
 30
0.0
  0
VERTEX
  5
2319
  8
0
 10
28.81580276449677
 20
36.276475149061952
 30
0.0
  0
SEQEND
  5
231A
  8
0
  0
POLYLINE
  5
19CB
  8
0
 66
     1
 10
0.0
 20
0.0
 30
0.0
  0
VERTEX
  5
231B
  8
0
 10
28.81580276449677
 20
36.276475149061952
 30
0.0
  0
VERTEX
  5
231C
  8
0
 10
28.078468560082509
 20
36.302795263621682
 30
0.0
  0
VERTEX
  5
231D
  8
0
 10
26.648986751975151
 20
36.49975904890178
 30
0.0
  0
VERTEX
  5
231E
  8
0
 10
25.219647091900779
 20
36.871633406360488
 30
0.0
  0
VERTEX
  5
231F
  8
0
 10
24.485675745574579
 20
37.12107101698701
 30
0.0
  0
SEQEND
  5
2320
  8
0
  0
LINE
  5
19CC
  8
0
 10
33.14592978341895
 20
55.231879281136891
 30
0.0
 11
33.14592978341895
 21
37.12107101698701
 31
0.0
  0
POLYLINE
  5
19CD
  8
0
 66
     1
 10
0.0
 20
0.0
 30
0.0
  0
VERTEX
  5
2321
  8
0
 10
33.14592978341895
 20
55.231879281136891
 30
0.0
  0
VERTEX
  5
2322
  8
0
 10
34.613872476071379
 20
55.481316891763413
 30
0.0
  0
VERTEX
  5
2323
  8
0
 10
37.472551796220131
 20
55.853191249222121
 30
0.0
  0
VERTEX
  5
2324
  8
0
 10
39.131569073562417
 20
55.99036475448198
 30
0.0
  0
VERTEX
  5
2325
  8
0
 10
39.609272427880832
 20
56.018230072022881
 30
0.0
  0
VERTEX
  5
2326
  8
0
 10
40.089885314034341
 20
56.040853357777159
 30
0.0
  0
VERTEX
  5
2327
  8
0
 10
40.331515412434833
 20
56.050155034502211
 30
0.0
  0
VERTEX
  5
2328
  8
0
 10
40.574157324832271
 20
56.058090552711192
 30
0.0
  0
VERTEX
  5
2329
  8
0
 10
41.062882526420047
 20
56.069776179101467
 30
0.0
  0
VERTEX
  5
232A
  8
0
 10
41.556905779062077
 20
56.075721302980959
 30
0.0
  0
VERTEX
  5
232B
  8
0
 10
41.806183821263339
 20
56.076475149061949
 30
0.0
  0
SEQEND
  5
232C
  8
0
  0
POLYLINE
  5
19CE
  8
0
 66
     1
 10
0.0
 20
0.0
 30
0.0
  0
VERTEX
  5
232D
  8
0
 10
41.806183821263339
 20
56.076475149061949
 30
0.0
  0
VERTEX
  5
232E
  8
0
 10
43.280852230091853
 20
56.050155034502211
 30
0.0
  0
VERTEX
  5
232F
  8
0
 10
46.139815846306561
 20
55.853191249222121
 30
0.0
  0
VERTEX
  5
2330
  8
0
 10
48.998495166455307
 20
55.481316891763413
 30
0.0
  0
VERTEX
  5
2331
  8
0
 10
50.466437859107742
 20
55.231879281136891
 30
0.0
  0
SEQEND
  5
2332
  8
0
  0
POLYLINE
  5
19CF
  8
0
 66
     1
 10
0.0
 20
0.0
 30
0.0
  0
VERTEX
  5
2333
  8
0
 10
50.466437859107742
 20
37.12107101698701
 30
0.0
  0
VERTEX
  5
2334
  8
0
 10
48.998495166455342
 20
36.871633406360488
 30
0.0
  0
VERTEX
  5
2335
  8
0
 10
46.139815846306561
 20
36.49975904890178
 30
0.0
  0
VERTEX
  5
2336
  8
0
 10
44.480798568964268
 20
36.362585543641927
 30
0.0
  0
VERTEX
  5
2337
  8
0
 10
44.003095214645889
 20
36.334720226101027
 30
0.0
  0
VERTEX
  5
2338
  8
0
 10
43.522482328492337
 20
36.312096940346741
 30
0.0
  0
VERTEX
  5
2339
  8
0
 10
43.280852230091853
 20
36.302795263621682
 30
0.0
  0
VERTEX
  5
233A
  8
0
 10
43.038210317694421
 20
36.294859745412708
 30
0.0
  0
VERTEX
  5
233B
  8
0
 10
42.549485116106631
 20
36.283174119022419
 30
0.0
  0
VERTEX
  5
233C
  8
0
 10
42.055461863464608
 20
36.277228995142941
 30
0.0
  0
VERTEX
  5
233D
  8
0
 10
41.806183821263339
 20
36.276475149061952
 30
0.0
  0
SEQEND
  5
233E
  8
0
  0
POLYLINE
  5
19D0
  8
0
 66
     1
 10
0.0
 20
0.0
 30
0.0
  0
VERTEX
  5
233F
  8
0
 10
41.806183821263339
 20
36.276475149061952
 30
0.0
  0
VERTEX
  5
2340
  8
0
 10
40.331515412434833
 20
36.302795263621682
 30
0.0
  0
VERTEX
  5
2341
  8
0
 10
37.472551796220131
 20
36.49975904890178
 30
0.0
  0
VERTEX
  5
2342
  8
0
 10
34.613872476071379
 20
36.871633406360488
 30
0.0
  0
VERTEX
  5
2343
  8
0
 10
33.14592978341895
 20
37.12107101698701
 30
0.0
  0
SEQEND
  5
2344
  8
0
  0
LINE
  5
19D1
  8
0
 10
50.466437859107742
 20
55.231879281136891
 30
0.0
 11
50.466437859107742
 21
37.12107101698701
 31
0.0
  0
POLYLINE
  5
19D2
  8
0
 66
     1
 10
0.0
 20
0.0
 30
0.0
  0
VERTEX
  5
2345
  8
0
 10
50.466437859107742
 20
55.231879281136891
 30
0.0
  0
VERTEX
  5
2346
  8
0
 10
51.200409205433942
 20
55.481316891763413
 30
0.0
  0
VERTEX
  5
2347
  8
0
 10
52.629748865508333
 20
55.853191249222121
 30
0.0
  0
VERTEX
  5
2348
  8
0
 10
53.459257504179469
 20
55.99036475448198
 30
0.0
  0
VERTEX
  5
2349
  8
0
 10
53.698109181338651
 20
56.018230072022881
 30
0.0
  0
VERTEX
  5
234A
  8
0
 10
53.938415624415427
 20
56.040853357777173
 30
0.0
  0
VERTEX
  5
234B
  8
0
 10
54.059230673615673
 20
56.050155034502218
 30
0.0
  0
VERTEX
  5
234C
  8
0
 10
54.180551629814367
 20
56.058090552711192
 30
0.0
  0
VERTEX
  5
234D
  8
0
 10
54.424914230608259
 20
56.069776179101481
 30
0.0
  0
VERTEX
  5
234E
  8
0
 10
54.671925856929313
 20
56.075721302980973
 30
0.0
  0
VERTEX
  5
234F
  8
0
 10
54.796564878029919
 20
56.076475149061949
 30
0.0
  0
SEQEND
  5
2350
  8
0
  0
POLYLINE
  5
19D3
  8
0
 66
     1
 10
0.0
 20
0.0
 30
0.0
  0
VERTEX
  5
2351
  8
0
 10
54.796564878029919
 20
56.076475149061949
 30
0.0
  0
VERTEX
  5
2352
  8
0
 10
55.533899082444179
 20
56.050155034502218
 30
0.0
  0
VERTEX
  5
2353
  8
0
 10
56.96338089055152
 20
55.853191249222121
 30
0.0
  0
VERTEX
  5
2354
  8
0
 10
58.39272055062591
 20
55.481316891763413
 30
0.0
  0
VERTEX
  5
2355
  8
0
 10
59.12669189695211
 20
55.231879281136891
 30
0.0
  0
SEQEND
  5
2356
  8
0
  0
POLYLINE
  5
19D4
  8
0
 66
     1
 10
0.0
 20
0.0
 30
0.0
  0
VERTEX
  5
2357
  8
0
 10
59.12669189695211
 20
37.12107101698701
 30
0.0
  0
VERTEX
  5
2358
  8
0
 10
58.39272055062591
 20
36.871633406360488
 30
0.0
  0
VERTEX
  5
2359
  8
0
 10
56.963380890551548
 20
36.49975904890178
 30
0.0
  0
VERTEX
  5
235A
  8
0
 10
56.133872251880412
 20
36.362585543641927
 30
0.0
  0
VERTEX
  5
235B
  8
0
 10
55.895020574721201
 20
36.334720226101027
 30
0.0
  0
VERTEX
  5
235C
  8
0
 10
55.654714131644418
 20
36.312096940346741
 30
0.0
  0
VERTEX
  5
235D
  8
0
 10
55.533899082444179
 20
36.302795263621682
 30
0.0
  0
VERTEX
  5
235E
  8
0
 10
55.412578126245471
 20
36.294859745412708
 30
0.0
  0
VERTEX
  5
235F
  8
0
 10
55.168215525451558
 20
36.283174119022419
 30
0.0
  0
VERTEX
  5
2360
  8
0
 10
54.921203899130539
 20
36.277228995142941
 30
0.0
  0
VERTEX
  5
2361
  8
0
 10
54.796564878029919
 20
36.276475149061952
 30
0.0
  0
SEQEND
  5
2362
  8
0
  0
POLYLINE
  5
19D5
  8
0
 66
     1
 10
0.0
 20
0.0
 30
0.0
  0
VERTEX
  5
2363
  8
0
 10
54.796564878029919
 20
36.276475149061952
 30
0.0
  0
VERTEX
  5
2364
  8
0
 10
54.059230673615673
 20
36.302795263621682
 30
0.0
  0
VERTEX
  5
2365
  8
0
 10
52.629748865508333
 20
36.49975904890178
 30
0.0
  0
VERTEX
  5
2366
  8
0
 10
51.200409205433942
 20
36.871633406360488
 30
0.0
  0
VERTEX
  5
2367
  8
0
 10
50.466437859107742
 20
37.12107101698701
 30
0.0
  0
SEQEND
  5
2368
  8
0
  0
LINE
  5
19DB
  8
0
 10
59.12669189695211
 20
55.231879281136891
 30
0.0
 11
59.12669189695211
 21
37.121071016987017
 31
0.0
  0
LINE
  5
19E2
  8
0
 10
24.485675745574579
 20
55.231879281136891
 30
0.0
 11
24.485675745574579
 21
37.121071016987017
 31
0.0
  0
LINE
  5
19E6
  8
0
 10
52.128276632316727
 20
62.196475149061961
 30
0.0
 11
31.484091010209969
 21
62.196475149061961
 31
0.0
  0
LINE
  5
1A24
  8
3
 10
48.579183821263342
 20
20.276475149061952
 30
0.0
 11
48.579183821263342
 21
33.776475149061952
 31
0.0
  0
LINE
  5
1A25
  8
0
 10
49.056183821263339
 20
33.776475149061952
 30
0.0
 11
48.579183821263342
 21
33.776475149061952
 31
0.0
  0
LINE
  5
1A26
  8
3
 10
35.03318382126335
 20
20.276475149061952
 30
0.0
 11
35.03318382126335
 21
33.776475149061952
 31
0.0
  0
LINE
  5
1A27
  8
0
 10
34.556183821263353
 20
33.776475149061952
 30
0.0
 11
35.03318382126335
 21
33.776475149061952
 31
0.0
  0
LINE
  5
1A28
  8
1
 10
41.806183821263339
 20
66.276475149061952
 30
0.0
 11
41.806183821263339
 21
17.276475149061952
 31
0.0
  0
LINE
  5
1A41
  8
0
 10
139.80164569370811
 20
56.076475149061949
 30
0.0
 11
137.7032612320107
 21
60.576475149061949
 31
0.0
  0
LINE
  5
1A42
  8
0
 10
111.9000301554056
 20
60.576475149061949
 30
0.0
 11
109.8016456937081
 21
56.076475149061949
 31
0.0
  0
LINE
  5
1A43
  8
0
 10
131.30164569370811
 20
33.776475149061952
 30
0.0
 11
131.30164569370811
 21
36.276475149061952
 31
0.0
  0
LINE
  5
1A44
  8
0
 10
118.3016456937082
 20
36.276475149061952
 30
0.0
 11
118.3016456937082
 21
33.776475149061952
 31
0.0
  0
LINE
  5
1A45
  8
0
 10
132.80164569370811
 20
21.503475149061948
 30
0.0
 11
132.80164569370811
 21
33.776475149061952
 31
0.0
  0
LINE
  5
1A46
  8
0
 10
116.8016456937081
 20
33.776475149061952
 30
0.0
 11
116.8016456937081
 21
21.503475149061948
 31
0.0
  0
LINE
  5
1A47
  8
0
 10
131.57464569370819
 20
20.276475149061952
 30
0.0
 11
132.80164569370811
 21
21.503475149061948
 31
0.0
  0
LINE
  5
1A48
  8
0
 10
116.8016456937081
 20
21.503475149061948
 30
0.0
 11
118.0286456937081
 21
20.276475149061952
 31
0.0
  0
LINE
  5
1A49
  8
0
 10
134.80164569370811
 20
62.196475149061961
 30
0.0
 11
134.80164569370811
 21
62.967903720490533
 31
0.0
  0
LINE
  5
1A4A
  8
0
 10
114.8016456937081
 20
62.967903720490519
 30
0.0
 11
114.8016456937081
 21
62.196475149061961
 31
0.0
  0
ARC
  5
1A4B
  8
0
 10
124.8016456937075
 20
56.076475149062261
 30
0.0
 40
11.99999999999932
 50
149.33617025761319
 51
157.97568716295811
  0
ARC
  5
1A4C
  8
0
 10
124.80164569370881
 20
56.076475149062233
 30
0.0
 40
11.99999999999932
 50
22.024312837041879
 51
30.663829742386788
  0
LINE
  5
1A4D
  8
0
 10
137.7032612320107
 20
60.576475149061949
 30
0.0
 11
111.9000301554056
 21
60.576475149061949
 31
0.0
  0
LINE
  5
1A50
  8
0
 10
132.80164569370811
 20
33.776475149061952
 30
0.0
 11
116.8016456937081
 21
33.776475149061952
 31
0.0
  0
LINE
  5
1A51
  8
0
 10
132.80164569370811
 20
21.503475149061948
 30
0.0
 11
116.8016456937081
 21
21.503475149061948
 31
0.0
  0
LINE
  5
1A52
  8
0
 10
131.57464569370819
 20
20.276475149061952
 30
0.0
 11
118.0286456937081
 21
20.276475149061952
 31
0.0
  0
LINE
  5
1A53
  8
0
 10
109.8016456937081
 20
56.076475149061949
 30
0.0
 11
139.80164569370811
 21
56.076475149061949
 31
0.0
  0
LINE
  5
1A54
  8
0
 10
109.8016456937081
 20
36.276475149061952
 30
0.0
 11
139.80164569370811
 21
36.276475149061952
 31
0.0
  0
POLYLINE
  5
1A55
  8
0
 66
     1
 10
0.0
 20
0.0
 30
0.0
  0
VERTEX
  5
2369
  8
0
 10
124.8016456937081
 20
55.231879281136891
 30
0.0
  0
VERTEX
  5
236A
  8
0
 10
126.0729213568448
 20
55.481316891763413
 30
0.0
  0
VERTEX
  5
236B
  8
0
 10
128.54861026936689
 20
55.853191249222121
 30
0.0
  0
VERTEX
  5
236C
  8
0
 10
129.98536137686261
 20
55.99036475448198
 30
0.0
  0
VERTEX
  5
236D
  8
0
 10
130.39906461717541
 20
56.018230072022881
 30
0.0
  0
VERTEX
  5
236E
  8
0
 10
130.81528758597051
 20
56.040853357777173
 30
0.0
  0
VERTEX
  5
236F
  8
0
 10
131.0245453895042
 20
56.050155034502218
 30
0.0
  0
VERTEX
  5
2370
  8
0
 10
131.2346794496633
 20
56.058090552711192
 30
0.0
  0
VERTEX
  5
2371
  8
0
 10
131.65792788970799
 20
56.069776179101481
 30
0.0
  0
VERTEX
  5
2372
  8
0
 10
132.08576457655619
 20
56.075721302980973
 30
0.0
  0
VERTEX
  5
2373
  8
0
 10
132.30164569370811
 20
56.076475149061949
 30
0.0
  0
SEQEND
  5
2374
  8
0
  0
POLYLINE
  5
1A56
  8
0
 66
     1
 10
0.0
 20
0.0
 30
0.0
  0
VERTEX
  5
2375
  8
0
 10
132.30164569370811
 20
56.076475149061949
 30
0.0
  0
VERTEX
  5
2376
  8
0
 10
133.57874599791199
 20
56.050155034502218
 30
0.0
  0
VERTEX
  5
2377
  8
0
 10
136.0546811180493
 20
55.853191249222121
 30
0.0
  0
VERTEX
  5
2378
  8
0
 10
138.53037003057139
 20
55.481316891763413
 30
0.0
  0
VERTEX
  5
2379
  8
0
 10
139.80164569370811
 20
55.231879281136891
 30
0.0
  0
SEQEND
  5
237A
  8
0
  0
POLYLINE
  5
1A57
  8
0
 66
     1
 10
0.0
 20
0.0
 30
0.0
  0
VERTEX
  5
237B
  8
0
 10
139.80164569370811
 20
37.12107101698701
 30
0.0
  0
VERTEX
  5
237C
  8
0
 10
138.53037003057139
 20
36.871633406360488
 30
0.0
  0
VERTEX
  5
237D
  8
0
 10
136.0546811180493
 20
36.49975904890178
 30
0.0
  0
VERTEX
  5
237E
  8
0
 10
134.61793001055361
 20
36.362585543641927
 30
0.0
  0
VERTEX
  5
237F
  8
0
 10
134.20422677024089
 20
36.334720226101027
 30
0.0
  0
VERTEX
  5
2380
  8
0
 10
133.78800380144571
 20
36.312096940346741
 30
0.0
  0
VERTEX
  5
2381
  8
0
 10
133.57874599791199
 20
36.302795263621682
 30
0.0
  0
VERTEX
  5
2382
  8
0
 10
133.368611937753
 20
36.294859745412708
 30
0.0
  0
VERTEX
  5
2383
  8
0
 10
132.94536349770831
 20
36.283174119022419
 30
0.0
  0
VERTEX
  5
2384
  8
0
 10
132.51752681086009
 20
36.277228995142941
 30
0.0
  0
VERTEX
  5
2385
  8
0
 10
132.30164569370811
 20
36.276475149061952
 30
0.0
  0
SEQEND
  5
2386
  8
0
  0
POLYLINE
  5
1A58
  8
0
 66
     1
 10
0.0
 20
0.0
 30
0.0
  0
VERTEX
  5
2387
  8
0
 10
132.30164569370811
 20
36.276475149061952
 30
0.0
  0
VERTEX
  5
2388
  8
0
 10
131.0245453895042
 20
36.302795263621682
 30
0.0
  0
VERTEX
  5
2389
  8
0
 10
128.54861026936689
 20
36.49975904890178
 30
0.0
  0
VERTEX
  5
238A
  8
0
 10
126.0729213568448
 20
36.871633406360488
 30
0.0
  0
VERTEX
  5
238B
  8
0
 10
124.8016456937081
 20
37.12107101698701
 30
0.0
  0
SEQEND
  5
238C
  8
0
  0
LINE
  5
1A59
  8
0
 10
139.80164569370811
 20
56.076475149061949
 30
0.0
 11
139.80164569370811
 21
36.276475149061952
 31
0.0
  0
POLYLINE
  5
1A6A
  8
0
 66
     1
 10
0.0
 20
0.0
 30
0.0
  0
VERTEX
  5
238D
  8
0
 10
117.3016456937082
 20
36.276475149061952
 30
0.0
  0
VERTEX
  5
238E
  8
0
 10
116.0245453895043
 20
36.302795263621682
 30
0.0
  0
VERTEX
  5
238F
  8
0
 10
113.5486102693669
 20
36.49975904890178
 30
0.0
  0
VERTEX
  5
2390
  8
0
 10
111.0729213568448
 20
36.871633406360488
 30
0.0
  0
VERTEX
  5
2391
  8
0
 10
109.8016456937081
 20
37.12107101698701
 30
0.0
  0
SEQEND
  5
2392
  8
0
  0
LINE
  5
1A6B
  8
0
 10
109.8016456937081
 20
56.076475149061949
 30
0.0
 11
109.8016456937082
 21
36.276475149061952
 31
0.0
  0
POLYLINE
  5
1A6C
  8
0
 66
     1
 10
0.0
 20
0.0
 30
0.0
  0
VERTEX
  5
2393
  8
0
 10
109.8016456937081
 20
55.231879281136891
 30
0.0
  0
VERTEX
  5
2394
  8
0
 10
111.0729213568448
 20
55.481316891763413
 30
0.0
  0
VERTEX
  5
2395
  8
0
 10
113.5486102693669
 20
55.853191249222121
 30
0.0
  0
VERTEX
  5
2396
  8
0
 10
114.9853613768627
 20
55.99036475448198
 30
0.0
  0
VERTEX
  5
2397
  8
0
 10
115.3990646171754
 20
56.018230072022881
 30
0.0
  0
VERTEX
  5
2398
  8
0
 10
115.81528758597049
 20
56.040853357777173
 30
0.0
  0
VERTEX
  5
2399
  8
0
 10
116.0245453895043
 20
56.050155034502218
 30
0.0
  0
VERTEX
  5
239A
  8
0
 10
116.2346794496633
 20
56.058090552711192
 30
0.0
  0
VERTEX
  5
239B
  8
0
 10
116.65792788970801
 20
56.069776179101481
 30
0.0
  0
VERTEX
  5
239C
  8
0
 10
117.0857645765562
 20
56.075721302980973
 30
0.0
  0
VERTEX
  5
239D
  8
0
 10
117.3016456937082
 20
56.076475149061949
 30
0.0
  0
SEQEND
  5
239E
  8
0
  0
POLYLINE
  5
1A6D
  8
0
 66
     1
 10
0.0
 20
0.0
 30
0.0
  0
VERTEX
  5
239F
  8
0
 10
117.3016456937082
 20
56.076475149061949
 30
0.0
  0
VERTEX
  5
23A0
  8
0
 10
118.57874599791199
 20
56.050155034502218
 30
0.0
  0
VERTEX
  5
23A1
  8
0
 10
121.0546811180494
 20
55.853191249222121
 30
0.0
  0
VERTEX
  5
23A2
  8
0
 10
123.5303700305715
 20
55.481316891763413
 30
0.0
  0
VERTEX
  5
23A3
  8
0
 10
124.8016456937081
 20
55.231879281136891
 30
0.0
  0
SEQEND
  5
23A4
  8
0
  0
LINE
  5
1A6E
  8
0
 10
124.8016456937081
 20
55.231879281136891
 30
0.0
 11
124.8016456937081
 21
37.121071016987017
 31
0.0
  0
POLYLINE
  5
1A6F
  8
0
 66
     1
 10
0.0
 20
0.0
 30
0.0
  0
VERTEX
  5
23A5
  8
0
 10
124.8016456937081
 20
37.12107101698701
 30
0.0
  0
VERTEX
  5
23A6
  8
0
 10
123.5303700305715
 20
36.871633406360488
 30
0.0
  0
VERTEX
  5
23A7
  8
0
 10
121.0546811180494
 20
36.49975904890178
 30
0.0
  0
VERTEX
  5
23A8
  8
0
 10
119.61793001055359
 20
36.362585543641927
 30
0.0
  0
VERTEX
  5
23A9
  8
0
 10
119.20422677024089
 20
36.334720226101027
 30
0.0
  0
VERTEX
  5
23AA
  8
0
 10
118.7880038014457
 20
36.312096940346741
 30
0.0
  0
VERTEX
  5
23AB
  8
0
 10
118.57874599791199
 20
36.302795263621682
 30
0.0
  0
VERTEX
  5
23AC
  8
0
 10
118.368611937753
 20
36.294859745412708
 30
0.0
  0
VERTEX
  5
23AD
  8
0
 10
117.9453634977083
 20
36.283174119022419
 30
0.0
  0
VERTEX
  5
23AE
  8
0
 10
117.5175268108601
 20
36.277228995142941
 30
0.0
  0
VERTEX
  5
23AF
  8
0
 10
117.3016456937082
 20
36.276475149061952
 30
0.0
  0
SEQEND
  5
23B0
  8
0
  0
LINE
  5
1A72
  8
0
 10
135.12373850476149
 20
62.196475149061961
 30
0.0
 11
114.4795528826548
 21
62.196475149061961
 31
0.0
  0
LINE
  5
1A73
  8
0
 10
116.44355045561289
 20
63.276475149061952
 30
0.0
 11
117.1597409318034
 21
63.276475149061952
 31
0.0
  0
LINE
  5
1A74
  8
0
 10
115.11021712227959
 20
63.276475149061952
 30
0.0
 11
115.8264075984701
 21
63.276475149061952
 31
0.0
  0
LINE
  5
1A75
  8
0
 10
117.77688378894619
 20
63.276475149061952
 30
0.0
 11
118.4930742651367
 21
63.276475149061952
 31
0.0
  0
LINE
  5
1A76
  8
0
 10
119.11021712227959
 20
63.276475149061952
 30
0.0
 11
119.8264075984701
 21
63.276475149061952
 31
0.0
  0
LINE
  5
1A77
  8
0
 10
120.44355045561289
 20
63.276475149061952
 30
0.0
 11
121.1597409318034
 21
63.276475149061952
 31
0.0
  0
LINE
  5
1A78
  8
0
 10
121.77688378894619
 20
63.276475149061952
 30
0.0
 11
122.4930742651367
 21
63.276475149061952
 31
0.0
  0
LINE
  5
1A79
  8
0
 10
123.11021712227959
 20
63.276475149061952
 30
0.0
 11
123.8264075984701
 21
63.276475149061952
 31
0.0
  0
LINE
  5
1A7A
  8
0
 10
124.44355045561289
 20
63.276475149061952
 30
0.0
 11
125.1597409318034
 21
63.276475149061952
 31
0.0
  0
LINE
  5
1A7B
  8
0
 10
125.77688378894629
 20
63.276475149061952
 30
0.0
 11
126.4930742651367
 21
63.276475149061952
 31
0.0
  0
LINE
  5
1A7C
  8
0
 10
127.11021712227959
 20
63.276475149061952
 30
0.0
 11
127.8264075984701
 21
63.276475149061952
 31
0.0
  0
LINE
  5
1A7D
  8
0
 10
128.44355045561289
 20
63.276475149061952
 30
0.0
 11
129.15974093180341
 21
63.276475149061952
 31
0.0
  0
LINE
  5
1A7E
  8
0
 10
129.77688378894629
 20
63.276475149061952
 30
0.0
 11
130.4930742651367
 21
63.276475149061952
 31
0.0
  0
LINE
  5
1A7F
  8
0
 10
131.11021712227961
 20
63.276475149061952
 30
0.0
 11
131.8264075984701
 21
63.276475149061952
 31
0.0
  0
LINE
  5
1A80
  8
0
 10
132.44355045561289
 20
63.276475149061952
 30
0.0
 11
133.15974093180341
 21
63.276475149061952
 31
0.0
  0
LINE
  5
1A81
  8
0
 10
133.77688378894629
 20
63.276475149061952
 30
0.0
 11
134.4930742651367
 21
63.276475149061952
 31
0.0
  0
POLYLINE
  5
1A82
  8
0
 66
     1
 10
0.0
 20
0.0
 30
0.0
  0
VERTEX
  5
23B1
  8
0
 10
115.11021712227959
 20
63.276475149061952
 30
0.0
  0
VERTEX
  5
23B2
  8
0
 10
115.09339505733649
 20
63.259653084118881
 30
0.0
  0
VERTEX
  5
23B3
  8
0
 10
115.0611457896681
 20
63.227403816450519
 30
0.0
  0
VERTEX
  5
23B4
  8
0
 10
115.0307614465753
 20
63.197019473357692
 30
0.0
  0
VERTEX
  5
23B5
  8
0
 10
115.0162704536648
 20
63.182528480447168
 30
0.0
  0
VERTEX
  5
23B6
  8
0
 10
115.00224784547071
 20
63.168505872253142
 30
0.0
  0
VERTEX
  5
23B7
  8
0
 10
114.9756104455933
 20
63.141868472375691
 30
0.0
  0
VERTEX
  5
23B8
  8
0
 10
114.9508543469627
 20
63.117112373745101
 30
0.0
  0
VERTEX
  5
23B9
  8
0
 10
114.9279842894031
 20
63.094242316185493
 30
0.0
  0
VERTEX
  5
23BA
  8
0
 10
114.9070046516356
 20
63.073262678417983
 30
0.0
  0
VERTEX
  5
23BB
  8
0
 10
114.8879194504399
 20
63.054177477222233
 30
0.0
  0
VERTEX
  5
23BC
  8
0
 10
114.87908841964099
 20
63.04534644642338
 30
0.0
  0
VERTEX
  5
23BD
  8
0
 10
114.870732339885
 20
63.03699036666746
 30
0.0
  0
VERTEX
  5
23BE
  8
0
 10
114.85544661063039
 20
63.021704637412761
 30
0.0
  0
VERTEX
  5
23BF
  8
0
 10
114.8420651892948
 20
63.00832321607718
 30
0.0
  0
VERTEX
  5
23C0
  8
0
 10
114.8305906378968
 20
62.996848664679248
 30
0.0
  0
VERTEX
  5
23C1
  8
0
 10
114.8210251533642
 20
62.987283180146562
 30
0.0
  0
VERTEX
  5
23C2
  8
0
 10
114.8133705671127
 20
62.979628593895079
 30
0.0
  0
VERTEX
  5
23C3
  8
0
 10
114.8102603331276
 20
62.976518359910003
 30
0.0
  0
VERTEX
  5
23C4
  8
0
 10
114.8076283446961
 20
62.973886371478557
 30
0.0
  0
VERTEX
  5
23C5
  8
0
 10
114.8037995855255
 20
62.97005761230789
 30
0.0
  0
VERTEX
  5
23C6
  8
0
 10
114.8018850226582
 20
62.968143049440613
 30
0.0
  0
VERTEX
  5
23C7
  8
0
 10
114.8016456937081
 20
62.967903720490519
 30
0.0
  0
SEQEND
  5
23C8
  8
0
  0
POLYLINE
  5
1A84
  8
0
 66
     1
 10
0.0
 20
0.0
 30
0.0
  0
VERTEX
  5
23C9
  8
0
 10
134.4930742651367
 20
63.276475149061952
 30
0.0
  0
VERTEX
  5
23CA
  8
0
 10
134.50989633007981
 20
63.259653084118888
 30
0.0
  0
VERTEX
  5
23CB
  8
0
 10
134.54214559774809
 20
63.227403816450519
 30
0.0
  0
VERTEX
  5
23CC
  8
0
 10
134.57252994084101
 20
63.197019473357699
 30
0.0
  0
VERTEX
  5
23CD
  8
0
 10
134.58702093375149
 20
63.182528480447182
 30
0.0
  0
VERTEX
  5
23CE
  8
0
 10
134.6010435419455
 20
63.168505872253142
 30
0.0
  0
VERTEX
  5
23CF
  8
0
 10
134.627680941823
 20
63.141868472375698
 30
0.0
  0
VERTEX
  5
23D0
  8
0
 10
134.65243704045361
 20
63.117112373745101
 30
0.0
  0
VERTEX
  5
23D1
  8
0
 10
134.67530709801321
 20
63.0942423161855
 30
0.0
  0
VERTEX
  5
23D2
  8
0
 10
134.69628673578069
 20
63.073262678417983
 30
0.0
  0
VERTEX
  5
23D3
  8
0
 10
134.7153719369764
 20
63.054177477222233
 30
0.0
  0
VERTEX
  5
23D4
  8
0
 10
134.72420296777531
 20
63.04534644642338
 30
0.0
  0
VERTEX
  5
23D5
  8
0
 10
134.7325590475312
 20
63.03699036666746
 30
0.0
  0
VERTEX
  5
23D6
  8
0
 10
134.74784477678591
 20
63.021704637412768
 30
0.0
  0
VERTEX
  5
23D7
  8
0
 10
134.76122619812151
 20
63.008323216077187
 30
0.0
  0
VERTEX
  5
23D8
  8
0
 10
134.7727007495194
 20
62.996848664679263
 30
0.0
  0
VERTEX
  5
23D9
  8
0
 10
134.78226623405209
 20
62.987283180146569
 30
0.0
  0
VERTEX
  5
23DA
  8
0
 10
134.78992082030359
 20
62.9796285938951
 30
0.0
  0
VERTEX
  5
23DB
  8
0
 10
134.79303105428869
 20
62.976518359910003
 30
0.0
  0
VERTEX
  5
23DC
  8
0
 10
134.79566304272009
 20
62.973886371478571
 30
0.0
  0
VERTEX
  5
23DD
  8
0
 10
134.79949180189081
 20
62.97005761230789
 30
0.0
  0
VERTEX
  5
23DE
  8
0
 10
134.80140636475801
 20
62.968143049440627
 30
0.0
  0
VERTEX
  5
23DF
  8
0
 10
134.80164569370811
 20
62.967903720490533
 30
0.0
  0
SEQEND
  5
23E0
  8
0
  0
POLYLINE
  5
1A86
  8
0
 66
     1
 10
0.0
 20
0.0
 30
0.0
  0
VERTEX
  5
23E1
  8
0
 10
133.4683123603748
 20
62.967903720490519
 30
0.0
  0
VERTEX
  5
23E2
  8
0
 10
133.41894181834499
 20
63.017274262520303
 30
0.0
  0
VERTEX
  5
23E3
  8
0
 10
133.31771636035131
 20
63.118499720514059
 30
0.0
  0
VERTEX
  5
23E4
  8
0
 10
133.2132110247592
 20
63.223005056106118
 30
0.0
  0
VERTEX
  5
23E5
  8
0
 10
133.15974093180341
 20
63.276475149061952
 30
0.0
  0
SEQEND
  5
23E6
  8
0
  0
POLYLINE
  5
1A88
  8
0
 66
     1
 10
0.0
 20
0.0
 30
0.0
  0
VERTEX
  5
23E7
  8
0
 10
132.1349790270414
 20
62.967903720490519
 30
0.0
  0
VERTEX
  5
23E8
  8
0
 10
132.0845355303278
 20
63.018347217204223
 30
0.0
  0
VERTEX
  5
23E9
  8
0
 10
131.9824580526558
 20
63.120424694876277
 30
0.0
  0
VERTEX
  5
23EA
  8
0
 10
131.87881188159739
 20
63.224070865934607
 30
0.0
  0
VERTEX
  5
23EB
  8
0
 10
131.8264075984701
 20
63.276475149061952
 30
0.0
  0
SEQEND
  5
23EC
  8
0
  0
POLYLINE
  5
1A8A
  8
0
 66
     1
 10
0.0
 20
0.0
 30
0.0
  0
VERTEX
  5
23ED
  8
0
 10
130.8016456937082
 20
62.967903720490519
 30
0.0
  0
VERTEX
  5
23EE
  8
0
 10
130.75080801875299
 20
63.01874139544568
 30
0.0
  0
VERTEX
  5
23EF
  8
0
 10
130.64841740604851
 20
63.121132008150177
 30
0.0
  0
VERTEX
  5
23F0
  8
0
 10
130.5450868428245
 20
63.22446257137419
 30
0.0
  0
VERTEX
  5
23F1
  8
0
 10
130.4930742651367
 20
63.276475149061952
 30
0.0
  0
SEQEND
  5
23F2
  8
0
  0
POLYLINE
  5
1A8C
  8
0
 66
     1
 10
0.0
 20
0.0
 30
0.0
  0
VERTEX
  5
23F3
  8
0
 10
129.4683123603748
 20
62.967903720490519
 30
0.0
  0
VERTEX
  5
23F4
  8
0
 10
129.41726140018841
 20
63.018954680676977
 30
0.0
  0
VERTEX
  5
23F5
  8
0
 10
129.31470122871301
 20
63.121514852152373
 30
0.0
  0
VERTEX
  5
23F6
  8
0
 10
129.21154141993929
 20
63.224674660925999
 30
0.0
  0
VERTEX
  5
23F7
  8
0
 10
129.15974093180341
 20
63.276475149061952
 30
0.0
  0
SEQEND
  5
23F8
  8
0
  0
POLYLINE
  5
1A8E
  8
0
 66
     1
 10
0.0
 20
0.0
 30
0.0
  0
VERTEX
  5
23F9
  8
0
 10
128.1349790270414
 20
62.967903720490519
 30
0.0
  0
VERTEX
  5
23FA
  8
0
 10
128.08378686801331
 20
63.019095879518659
 30
0.0
  0
VERTEX
  5
23FB
  8
0
 10
127.981114319082
 20
63.121768428450039
 30
0.0
  0
VERTEX
  5
23FC
  8
0
 10
127.8780675377167
 20
63.224815209815318
 30
0.0
  0
VERTEX
  5
23FD
  8
0
 10
127.8264075984701
 20
63.276475149061952
 30
0.0
  0
SEQEND
  5
23FE
  8
0
  0
POLYLINE
  5
1A90
  8
0
 66
     1
 10
0.0
 20
0.0
 30
0.0
  0
VERTEX
  5
23FF
  8
0
 10
126.8016456937081
 20
62.967903720490519
 30
0.0
  0
VERTEX
  5
2400
  8
0
 10
126.7503458402357
 20
63.019203573962919
 30
0.0
  0
VERTEX
  5
2401
  8
0
 10
126.64758744871961
 20
63.121961965479052
 30
0.0
  0
VERTEX
  5
2402
  8
0
 10
126.5446268599656
 20
63.224922554233089
 30
0.0
  0
VERTEX
  5
2403
  8
0
 10
126.4930742651367
 20
63.276475149061952
 30
0.0
  0
SEQEND
  5
2404
  8
0
  0
POLYLINE
  5
1A92
  8
0
 66
     1
 10
0.0
 20
0.0
 30
0.0
  0
VERTEX
  5
2405
  8
0
 10
125.4683123603748
 20
62.967903720490519
 30
0.0
  0
VERTEX
  5
2406
  8
0
 10
125.4169200370691
 20
63.019296043796217
 30
0.0
  0
VERTEX
  5
2407
  8
0
 10
125.31408780138941
 20
63.122128279475909
 30
0.0
  0
VERTEX
  5
2408
  8
0
 10
125.2112012048421
 20
63.225014876023273
 30
0.0
  0
VERTEX
  5
2409
  8
0
 10
125.1597409318034
 20
63.276475149061952
 30
0.0
  0
SEQEND
  5
240A
  8
0
  0
POLYLINE
  5
1A94
  8
0
 66
     1
 10
0.0
 20
0.0
 30
0.0
  0
VERTEX
  5
240B
  8
0
 10
124.1349790270415
 20
62.967903720490519
 30
0.0
  0
VERTEX
  5
240C
  8
0
 10
124.0834980771458
 20
63.019384670386202
 30
0.0
  0
VERTEX
  5
240D
  8
0
 10
123.9805949218249
 20
63.12228782570709
 30
0.0
  0
VERTEX
  5
240E
  8
0
 10
123.8777792260797
 20
63.225103521452333
 30
0.0
  0
VERTEX
  5
240F
  8
0
 10
123.8264075984701
 20
63.276475149061952
 30
0.0
  0
SEQEND
  5
2410
  8
0
  0
POLYLINE
  5
1A96
  8
0
 66
     1
 10
0.0
 20
0.0
 30
0.0
  0
VERTEX
  5
2411
  8
0
 10
122.8016456937081
 20
62.967903720490519
 30
0.0
  0
VERTEX
  5
2412
  8
0
 10
122.7500700922848
 20
63.01947932191392
 30
0.0
  0
VERTEX
  5
2413
  8
0
 10
122.6470910431363
 20
63.122458371062393
 30
0.0
  0
VERTEX
  5
2414
  8
0
 10
122.54435105122739
 20
63.225198362971291
 30
0.0
  0
VERTEX
  5
2415
  8
0
 10
122.4930742651367
 20
63.276475149061952
 30
0.0
  0
SEQEND
  5
2416
  8
0
  0
POLYLINE
  5
1A98
  8
0
 66
     1
 10
0.0
 20
0.0
 30
0.0
  0
VERTEX
  5
2417
  8
0
 10
121.4683123603748
 20
62.967903720490519
 30
0.0
  0
VERTEX
  5
2418
  8
0
 10
121.416623765263
 20
63.019592315602353
 30
0.0
  0
VERTEX
  5
2419
  8
0
 10
121.31355395221119
 20
63.122662128654127
 30
0.0
  0
VERTEX
  5
241A
  8
0
 10
121.2109043167677
 20
63.225311764097569
 30
0.0
  0
VERTEX
  5
241B
  8
0
 10
121.1597409318034
 20
63.276475149061952
 30
0.0
  0
SEQEND
  5
241C
  8
0
  0
POLYLINE
  5
1A9A
  8
0
 66
     1
 10
0.0
 20
0.0
 30
0.0
  0
VERTEX
  5
241D
  8
0
 10
120.1349790270415
 20
62.967903720490519
 30
0.0
  0
VERTEX
  5
241E
  8
0
 10
120.0831379848033
 20
63.019744762728727
 30
0.0
  0
VERTEX
  5
241F
  8
0
 10
119.9799455392134
 20
63.122937208318618
 30
0.0
  0
VERTEX
  5
2420
  8
0
 10
119.8774177907618
 20
63.225464956770189
 30
0.0
  0
VERTEX
  5
2421
  8
0
 10
119.8264075984701
 20
63.276475149061952
 30
0.0
  0
SEQEND
  5
2422
  8
0
  0
POLYLINE
  5
1A9C
  8
0
 66
     1
 10
0.0
 20
0.0
 30
0.0
  0
VERTEX
  5
2423
  8
0
 10
118.8016456937081
 20
62.967903720490519
 30
0.0
  0
VERTEX
  5
2424
  8
0
 10
118.74956540976559
 20
63.019984004433077
 30
0.0
  0
VERTEX
  5
2425
  8
0
 10
118.6461803089814
 20
63.123369105217229
 30
0.0
  0
VERTEX
  5
2426
  8
0
 10
118.543843822753
 20
63.225705591445653
 30
0.0
  0
VERTEX
  5
2427
  8
0
 10
118.4930742651367
 20
63.276475149061952
 30
0.0
  0
SEQEND
  5
2428
  8
0
  0
POLYLINE
  5
1A9E
  8
0
 66
     1
 10
0.0
 20
0.0
 30
0.0
  0
VERTEX
  5
2429
  8
0
 10
117.4683123603748
 20
62.967903720490519
 30
0.0
  0
VERTEX
  5
242A
  8
0
 10
117.4157608600554
 20
63.020455220809971
 30
0.0
  0
VERTEX
  5
242B
  8
0
 10
117.311996036792
 20
63.124220044073319
 30
0.0
  0
VERTEX
  5
242C
  8
0
 10
117.2100362448856
 20
63.226179835979721
 30
0.0
  0
VERTEX
  5
242D
  8
0
 10
117.1597409318034
 20
63.276475149061952
 30
0.0
  0
SEQEND
  5
242E
  8
0
  0
POLYLINE
  5
1AA0
  8
0
 66
     1
 10
0.0
 20
0.0
 30
0.0
  0
VERTEX
  5
242F
  8
0
 10
116.1349790270415
 20
62.967903720490519
 30
0.0
  0
VERTEX
  5
2430
  8
0
 10
116.0809203159267
 20
63.021962431605303
 30
0.0
  0
VERTEX
  5
2431
  8
0
 10
115.9759404042701
 20
63.126942343261881
 30
0.0
  0
VERTEX
  5
2432
  8
0
 10
115.8751855108486
 20
63.227697236683362
 30
0.0
  0
VERTEX
  5
2433
  8
0
 10
115.8264075984701
 20
63.276475149061952
 30
0.0
  0
SEQEND
  5
2434
  8
0
  0
POLYLINE
  5
1AA2
  8
0
 66
     1
 10
0.0
 20
0.0
 30
0.0
  0
VERTEX
  5
2435
  8
0
 10
133.77688378894629
 20
63.276475149061952
 30
0.0
  0
VERTEX
  5
2436
  8
0
 10
133.72810587656761
 20
63.227697236683369
 30
0.0
  0
VERTEX
  5
2437
  8
0
 10
133.62735098314619
 20
63.126942343261888
 30
0.0
  0
VERTEX
  5
2438
  8
0
 10
133.5223710714896
 20
63.021962431605303
 30
0.0
  0
VERTEX
  5
2439
  8
0
 10
133.4683123603748
 20
62.967903720490519
 30
0.0
  0
SEQEND
  5
243A
  8
0
  0
POLYLINE
  5
1AA4
  8
0
 66
     1
 10
0.0
 20
0.0
 30
0.0
  0
VERTEX
  5
243B
  8
0
 10
132.44355045561289
 20
63.276475149061952
 30
0.0
  0
VERTEX
  5
243C
  8
0
 10
132.39325514253071
 20
63.226179835979721
 30
0.0
  0
VERTEX
  5
243D
  8
0
 10
132.2912953506243
 20
63.124220044073319
 30
0.0
  0
VERTEX
  5
243E
  8
0
 10
132.18753052736091
 20
63.020455220809978
 30
0.0
  0
VERTEX
  5
243F
  8
0
 10
132.1349790270414
 20
62.967903720490519
 30
0.0
  0
SEQEND
  5
2440
  8
0
  0
POLYLINE
  5
1AA6
  8
0
 66
     1
 10
0.0
 20
0.0
 30
0.0
  0
VERTEX
  5
2441
  8
0
 10
131.11021712227961
 20
63.276475149061952
 30
0.0
  0
VERTEX
  5
2442
  8
0
 10
131.05944756466329
 20
63.225705591445653
 30
0.0
  0
VERTEX
  5
2443
  8
0
 10
130.95711107843491
 20
63.123369105217229
 30
0.0
  0
VERTEX
  5
2444
  8
0
 10
130.8537259776507
 20
63.019984004433077
 30
0.0
  0
VERTEX
  5
2445
  8
0
 10
130.8016456937082
 20
62.967903720490519
 30
0.0
  0
SEQEND
  5
2446
  8
0
  0
POLYLINE
  5
1AA8
  8
0
 66
     1
 10
0.0
 20
0.0
 30
0.0
  0
VERTEX
  5
2447
  8
0
 10
129.77688378894629
 20
63.276475149061952
 30
0.0
  0
VERTEX
  5
2448
  8
0
 10
129.72587359665451
 20
63.225464956770189
 30
0.0
  0
VERTEX
  5
2449
  8
0
 10
129.62334584820289
 20
63.122937208318611
 30
0.0
  0
VERTEX
  5
244A
  8
0
 10
129.520153402613
 20
63.019744762728727
 30
0.0
  0
VERTEX
  5
244B
  8
0
 10
129.4683123603748
 20
62.967903720490519
 30
0.0
  0
SEQEND
  5
244C
  8
0
  0
POLYLINE
  5
1AAA
  8
0
 66
     1
 10
0.0
 20
0.0
 30
0.0
  0
VERTEX
  5
244D
  8
0
 10
128.44355045561289
 20
63.276475149061952
 30
0.0
  0
VERTEX
  5
244E
  8
0
 10
128.39238707064851
 20
63.225311764097583
 30
0.0
  0
VERTEX
  5
244F
  8
0
 10
128.2897374352051
 20
63.122662128654127
 30
0.0
  0
VERTEX
  5
2450
  8
0
 10
128.18666762215329
 20
63.019592315602353
 30
0.0
  0
VERTEX
  5
2451
  8
0
 10
128.1349790270414
 20
62.967903720490519
 30
0.0
  0
SEQEND
  5
2452
  8
0
  0
POLYLINE
  5
1AAC
  8
0
 66
     1
 10
0.0
 20
0.0
 30
0.0
  0
VERTEX
  5
2453
  8
0
 10
127.11021712227959
 20
63.276475149061952
 30
0.0
  0
VERTEX
  5
2454
  8
0
 10
127.0589403361889
 20
63.225198362971298
 30
0.0
  0
VERTEX
  5
2455
  8
0
 10
126.95620034428001
 20
63.122458371062393
 30
0.0
  0
VERTEX
  5
2456
  8
0
 10
126.8532212951315
 20
63.01947932191392
 30
0.0
  0
VERTEX
  5
2457
  8
0
 10
126.8016456937081
 20
62.967903720490519
 30
0.0
  0
SEQEND
  5
2458
  8
0
  0
POLYLINE
  5
1AAE
  8
0
 66
     1
 10
0.0
 20
0.0
 30
0.0
  0
VERTEX
  5
2459
  8
0
 10
125.77688378894629
 20
63.276475149061952
 30
0.0
  0
VERTEX
  5
245A
  8
0
 10
125.7255121613366
 20
63.225103521452333
 30
0.0
  0
VERTEX
  5
245B
  8
0
 10
125.6226964655914
 20
63.12228782570709
 30
0.0
  0
VERTEX
  5
245C
  8
0
 10
125.5197933102705
 20
63.019384670386202
 30
0.0
  0
VERTEX
  5
245D
  8
0
 10
125.4683123603748
 20
62.967903720490519
 30
0.0
  0
SEQEND
  5
245E
  8
0
  0
POLYLINE
  5
1AB0
  8
0
 66
     1
 10
0.0
 20
0.0
 30
0.0
  0
VERTEX
  5
245F
  8
0
 10
124.44355045561289
 20
63.276475149061952
 30
0.0
  0
VERTEX
  5
2460
  8
0
 10
124.39209018257419
 20
63.225014876023273
 30
0.0
  0
VERTEX
  5
2461
  8
0
 10
124.2892035860268
 20
63.122128279475909
 30
0.0
  0
VERTEX
  5
2462
  8
0
 10
124.1863713503472
 20
63.019296043796217
 30
0.0
  0
VERTEX
  5
2463
  8
0
 10
124.1349790270415
 20
62.967903720490519
 30
0.0
  0
SEQEND
  5
2464
  8
0
  0
POLYLINE
  5
1AB2
  8
0
 66
     1
 10
0.0
 20
0.0
 30
0.0
  0
VERTEX
  5
2465
  8
0
 10
123.11021712227959
 20
63.276475149061952
 30
0.0
  0
VERTEX
  5
2466
  8
0
 10
123.0586645274507
 20
63.224922554233089
 30
0.0
  0
VERTEX
  5
2467
  8
0
 10
122.9557039386967
 20
63.121961965479052
 30
0.0
  0
VERTEX
  5
2468
  8
0
 10
122.8529455471806
 20
63.019203573962919
 30
0.0
  0
VERTEX
  5
2469
  8
0
 10
122.8016456937081
 20
62.967903720490519
 30
0.0
  0
SEQEND
  5
246A
  8
0
  0
POLYLINE
  5
1AB4
  8
0
 66
     1
 10
0.0
 20
0.0
 30
0.0
  0
VERTEX
  5
246B
  8
0
 10
121.77688378894629
 20
63.276475149061952
 30
0.0
  0
VERTEX
  5
246C
  8
0
 10
121.7252238496996
 20
63.224815209815318
 30
0.0
  0
VERTEX
  5
246D
  8
0
 10
121.6221770683343
 20
63.121768428450054
 30
0.0
  0
VERTEX
  5
246E
  8
0
 10
121.5195045194029
 20
63.019095879518659
 30
0.0
  0
VERTEX
  5
246F
  8
0
 10
121.4683123603748
 20
62.967903720490519
 30
0.0
  0
SEQEND
  5
2470
  8
0
  0
POLYLINE
  5
1AB6
  8
0
 66
     1
 10
0.0
 20
0.0
 30
0.0
  0
VERTEX
  5
2471
  8
0
 10
120.44355045561289
 20
63.276475149061952
 30
0.0
  0
VERTEX
  5
2472
  8
0
 10
120.391749967477
 20
63.224674660925999
 30
0.0
  0
VERTEX
  5
2473
  8
0
 10
120.2885901587033
 20
63.12151485215238
 30
0.0
  0
VERTEX
  5
2474
  8
0
 10
120.186029987228
 20
63.018954680676977
 30
0.0
  0
VERTEX
  5
2475
  8
0
 10
120.1349790270415
 20
62.967903720490533
 30
0.0
  0
SEQEND
  5
2476
  8
0
  0
POLYLINE
  5
1AB8
  8
0
 66
     1
 10
0.0
 20
0.0
 30
0.0
  0
VERTEX
  5
2477
  8
0
 10
119.11021712227959
 20
63.276475149061952
 30
0.0
  0
VERTEX
  5
2478
  8
0
 10
119.0582045445918
 20
63.22446257137419
 30
0.0
  0
VERTEX
  5
2479
  8
0
 10
118.9548739813678
 20
63.12113200815017
 30
0.0
  0
VERTEX
  5
247A
  8
0
 10
118.8524833686633
 20
63.018741395445673
 30
0.0
  0
VERTEX
  5
247B
  8
0
 10
118.8016456937081
 20
62.967903720490519
 30
0.0
  0
SEQEND
  5
247C
  8
0
  0
POLYLINE
  5
1ABA
  8
0
 66
     1
 10
0.0
 20
0.0
 30
0.0
  0
VERTEX
  5
247D
  8
0
 10
117.77688378894619
 20
63.276475149061952
 30
0.0
  0
VERTEX
  5
247E
  8
0
 10
117.72447950581891
 20
63.224070865934607
 30
0.0
  0
VERTEX
  5
247F
  8
0
 10
117.6208333347606
 20
63.120424694876291
 30
0.0
  0
VERTEX
  5
2480
  8
0
 10
117.51875585708849
 20
63.01834721720423
 30
0.0
  0
VERTEX
  5
2481
  8
0
 10
117.4683123603748
 20
62.967903720490519
 30
0.0
  0
SEQEND
  5
2482
  8
0
  0
POLYLINE
  5
1ABC
  8
0
 66
     1
 10
0.0
 20
0.0
 30
0.0
  0
VERTEX
  5
2483
  8
0
 10
116.44355045561289
 20
63.276475149061952
 30
0.0
  0
VERTEX
  5
2484
  8
0
 10
116.3900803626571
 20
63.223005056106118
 30
0.0
  0
VERTEX
  5
2485
  8
0
 10
116.28557502706499
 20
63.118499720514059
 30
0.0
  0
VERTEX
  5
2486
  8
0
 10
116.1843495690713
 20
63.01727426252031
 30
0.0
  0
VERTEX
  5
2487
  8
0
 10
116.1349790270415
 20
62.967903720490519
 30
0.0
  0
SEQEND
  5
2488
  8
0
  0
LINE
  5
1ABE
  8
3
 10
131.57464569370819
 20
20.276475149061952
 30
0.0
 11
131.57464569370819
 21
33.776475149061952
 31
0.0
  0
LINE
  5
1ABF
  8
0
 10
132.05164569370811
 20
33.776475149061952
 30
0.0
 11
131.57464569370819
 21
33.776475149061952
 31
0.0
  0
LINE
  5
1AC0
  8
3
 10
118.0286456937081
 20
20.276475149061952
 30
0.0
 11
118.0286456937081
 21
33.776475149061952
 31
0.0
  0
LINE
  5
1AC1
  8
0
 10
117.5516456937081
 20
33.776475149061952
 30
0.0
 11
118.0286456937081
 21
33.776475149061952
 31
0.0
  0
LINE
  5
1AC2
  8
1
 10
124.8016456937081
 20
66.276475149061952
 30
0.0
 11
124.8016456937081
 21
17.276475149061952
 31
0.0
  0
CIRCLE
  5
1ADB
  8
0
 10
41.806183821263282
 20
106.28827560214
 30
0.0
 40
10.0
  0
POLYLINE
  5
1ADC
  8
0
 66
     1
 10
0.0
 20
0.0
 30
0.0
  0
VERTEX
  5
2489
  8
0
 10
33.448088583168101
 20
63.276475149061952
 30
0.0
  0
VERTEX
  5
248A
  8
0
 10
33.394618490212281
 20
63.223005056106118
 30
0.0
  0
VERTEX
  5
248B
  8
0
 10
33.290113154620201
 20
63.118499720514059
 30
0.0
  0
VERTEX
  5
248C
  8
0
 10
33.188887696626473
 20
63.01727426252031
 30
0.0
  0
VERTEX
  5
248D
  8
0
 10
33.13951715459666
 20
62.967903720490519
 30
0.0
  0
SEQEND
  5
248E
  8
0
  0
POLYLINE
  5
1ADD
  8
0
 66
     1
 10
0.0
 20
0.0
 30
0.0
  0
VERTEX
  5
248F
  8
0
 10
34.781421916501422
 20
63.276475149061952
 30
0.0
  0
VERTEX
  5
2490
  8
0
 10
34.729017633374099
 20
63.224070865934607
 30
0.0
  0
VERTEX
  5
2491
  8
0
 10
34.625371462315798
 20
63.120424694876291
 30
0.0
  0
VERTEX
  5
2492
  8
0
 10
34.523293984643708
 20
63.01834721720423
 30
0.0
  0
VERTEX
  5
2493
  8
0
 10
34.472850487930032
 20
62.967903720490519
 30
0.0
  0
SEQEND
  5
2494
  8
0
  0
POLYLINE
  5
1ADE
  8
0
 66
     1
 10
0.0
 20
0.0
 30
0.0
  0
VERTEX
  5
2495
  8
0
 10
36.114755249834793
 20
63.276475149061952
 30
0.0
  0
VERTEX
  5
2496
  8
0
 10
36.06274267214701
 20
63.22446257137419
 30
0.0
  0
VERTEX
  5
2497
  8
0
 10
35.959412108923011
 20
63.12113200815017
 30
0.0
  0
VERTEX
  5
2498
  8
0
 10
35.857021496218522
 20
63.018741395445673
 30
0.0
  0
VERTEX
  5
2499
  8
0
 10
35.806183821263353
 20
62.967903720490519
 30
0.0
  0
SEQEND
  5
249A
  8
0
  0
POLYLINE
  5
1ADF
  8
0
 66
     1
 10
0.0
 20
0.0
 30
0.0
  0
VERTEX
  5
249B
  8
0
 10
37.448088583168101
 20
63.276475149061952
 30
0.0
  0
VERTEX
  5
249C
  8
0
 10
37.396288095032162
 20
63.224674660925999
 30
0.0
  0
VERTEX
  5
249D
  8
0
 10
37.293128286258543
 20
63.12151485215238
 30
0.0
  0
VERTEX
  5
249E
  8
0
 10
37.190568114783161
 20
63.018954680676977
 30
0.0
  0
VERTEX
  5
249F
  8
0
 10
37.13951715459666
 20
62.967903720490533
 30
0.0
  0
SEQEND
  5
24A0
  8
0
  0
POLYLINE
  5
1AE0
  8
0
 66
     1
 10
0.0
 20
0.0
 30
0.0
  0
VERTEX
  5
24A1
  8
0
 10
38.781421916501472
 20
63.276475149061952
 30
0.0
  0
VERTEX
  5
24A2
  8
0
 10
38.729761977254782
 20
63.224815209815318
 30
0.0
  0
VERTEX
  5
24A3
  8
0
 10
38.626715195889517
 20
63.121768428450054
 30
0.0
  0
VERTEX
  5
24A4
  8
0
 10
38.524042646958151
 20
63.019095879518659
 30
0.0
  0
VERTEX
  5
24A5
  8
0
 10
38.472850487930032
 20
62.967903720490519
 30
0.0
  0
SEQEND
  5
24A6
  8
0
  0
POLYLINE
  5
1AE1
  8
0
 66
     1
 10
0.0
 20
0.0
 30
0.0
  0
VERTEX
  5
24A7
  8
0
 10
40.114755249834779
 20
63.276475149061952
 30
0.0
  0
VERTEX
  5
24A8
  8
0
 10
40.063202655005902
 20
63.224922554233089
 30
0.0
  0
VERTEX
  5
24A9
  8
0
 10
39.960242066251851
 20
63.121961965479052
 30
0.0
  0
VERTEX
  5
24AA
  8
0
 10
39.857483674735761
 20
63.019203573962919
 30
0.0
  0
VERTEX
  5
24AB
  8
0
 10
39.806183821263353
 20
62.967903720490519
 30
0.0
  0
SEQEND
  5
24AC
  8
0
  0
POLYLINE
  5
1AE2
  8
0
 66
     1
 10
0.0
 20
0.0
 30
0.0
  0
VERTEX
  5
24AD
  8
0
 10
41.448088583168087
 20
63.276475149061952
 30
0.0
  0
VERTEX
  5
24AE
  8
0
 10
41.396628310129408
 20
63.225014876023273
 30
0.0
  0
VERTEX
  5
24AF
  8
0
 10
41.293741713582051
 20
63.122128279475909
 30
0.0
  0
VERTEX
  5
24B0
  8
0
 10
41.19090947790238
 20
63.019296043796217
 30
0.0
  0
VERTEX
  5
24B1
  8
0
 10
41.139517154596653
 20
62.967903720490519
 30
0.0
  0
SEQEND
  5
24B2
  8
0
  0
POLYLINE
  5
1AE3
  8
0
 66
     1
 10
0.0
 20
0.0
 30
0.0
  0
VERTEX
  5
24B3
  8
0
 10
42.781421916501472
 20
63.276475149061952
 30
0.0
  0
VERTEX
  5
24B4
  8
0
 10
42.730050288891789
 20
63.225103521452333
 30
0.0
  0
VERTEX
  5
24B5
  8
0
 10
42.627234593146561
 20
63.12228782570709
 30
0.0
  0
VERTEX
  5
24B6
  8
0
 10
42.524331437825701
 20
63.019384670386202
 30
0.0
  0
VERTEX
  5
24B7
  8
0
 10
42.472850487930032
 20
62.967903720490519
 30
0.0
  0
SEQEND
  5
24B8
  8
0
  0
POLYLINE
  5
1AE4
  8
0
 66
     1
 10
0.0
 20
0.0
 30
0.0
  0
VERTEX
  5
24B9
  8
0
 10
44.114755249834793
 20
63.276475149061952
 30
0.0
  0
VERTEX
  5
24BA
  8
0
 10
44.063478463744097
 20
63.225198362971298
 30
0.0
  0
VERTEX
  5
24BB
  8
0
 10
43.960738471835207
 20
63.122458371062393
 30
0.0
  0
VERTEX
  5
24BC
  8
0
 10
43.85775942268674
 20
63.01947932191392
 30
0.0
  0
VERTEX
  5
24BD
  8
0
 10
43.806183821263353
 20
62.967903720490519
 30
0.0
  0
SEQEND
  5
24BE
  8
0
  0
POLYLINE
  5
1AE5
  8
0
 66
     1
 10
0.0
 20
0.0
 30
0.0
  0
VERTEX
  5
24BF
  8
0
 10
45.448088583168101
 20
63.276475149061952
 30
0.0
  0
VERTEX
  5
24C0
  8
0
 10
45.396925198203739
 20
63.225311764097583
 30
0.0
  0
VERTEX
  5
24C1
  8
0
 10
45.294275562760269
 20
63.122662128654127
 30
0.0
  0
VERTEX
  5
24C2
  8
0
 10
45.191205749708502
 20
63.019592315602353
 30
0.0
  0
VERTEX
  5
24C3
  8
0
 10
45.13951715459666
 20
62.967903720490519
 30
0.0
  0
SEQEND
  5
24C4
  8
0
  0
POLYLINE
  5
1AE6
  8
0
 66
     1
 10
0.0
 20
0.0
 30
0.0
  0
VERTEX
  5
24C5
  8
0
 10
46.781421916501472
 20
63.276475149061952
 30
0.0
  0
VERTEX
  5
24C6
  8
0
 10
46.730411724209652
 20
63.225464956770189
 30
0.0
  0
VERTEX
  5
24C7
  8
0
 10
46.627883975758088
 20
63.122937208318611
 30
0.0
  0
VERTEX
  5
24C8
  8
0
 10
46.524691530168241
 20
63.019744762728727
 30
0.0
  0
VERTEX
  5
24C9
  8
0
 10
46.472850487930032
 20
62.967903720490519
 30
0.0
  0
SEQEND
  5
24CA
  8
0
  0
POLYLINE
  5
1AE7
  8
0
 66
     1
 10
0.0
 20
0.0
 30
0.0
  0
VERTEX
  5
24CB
  8
0
 10
48.114755249834779
 20
63.276475149061952
 30
0.0
  0
VERTEX
  5
24CC
  8
0
 10
48.063985692218473
 20
63.225705591445653
 30
0.0
  0
VERTEX
  5
24CD
  8
0
 10
47.961649205990057
 20
63.123369105217229
 30
0.0
  0
VERTEX
  5
24CE
  8
0
 10
47.858264105205933
 20
63.019984004433077
 30
0.0
  0
VERTEX
  5
24CF
  8
0
 10
47.806183821263339
 20
62.967903720490519
 30
0.0
  0
SEQEND
  5
24D0
  8
0
  0
POLYLINE
  5
1AE8
  8
0
 66
     1
 10
0.0
 20
0.0
 30
0.0
  0
VERTEX
  5
24D1
  8
0
 10
49.448088583168101
 20
63.276475149061952
 30
0.0
  0
VERTEX
  5
24D2
  8
0
 10
49.397793270085913
 20
63.226179835979721
 30
0.0
  0
VERTEX
  5
24D3
  8
0
 10
49.295833478179468
 20
63.124220044073319
 30
0.0
  0
VERTEX
  5
24D4
  8
0
 10
49.192068654916113
 20
63.020455220809978
 30
0.0
  0
VERTEX
  5
24D5
  8
0
 10
49.13951715459666
 20
62.967903720490519
 30
0.0
  0
SEQEND
  5
24D6
  8
0
  0
POLYLINE
  5
1AE9
  8
0
 66
     1
 10
0.0
 20
0.0
 30
0.0
  0
VERTEX
  5
24D7
  8
0
 10
50.781421916501472
 20
63.276475149061952
 30
0.0
  0
VERTEX
  5
24D8
  8
0
 10
50.732644004122839
 20
63.227697236683369
 30
0.0
  0
VERTEX
  5
24D9
  8
0
 10
50.631889110701358
 20
63.126942343261888
 30
0.0
  0
VERTEX
  5
24DA
  8
0
 10
50.526909199044781
 20
63.021962431605303
 30
0.0
  0
VERTEX
  5
24DB
  8
0
 10
50.472850487930032
 20
62.967903720490519
 30
0.0
  0
SEQEND
  5
24DC
  8
0
  0
POLYLINE
  5
1AEA
  8
0
 66
     1
 10
0.0
 20
0.0
 30
0.0
  0
VERTEX
  5
24DD
  8
0
 10
33.13951715459666
 20
62.967903720490519
 30
0.0
  0
VERTEX
  5
24DE
  8
0
 10
33.085458443481912
 20
63.021962431605303
 30
0.0
  0
VERTEX
  5
24DF
  8
0
 10
32.980478531825327
 20
63.126942343261881
 30
0.0
  0
VERTEX
  5
24E0
  8
0
 10
32.879723638403853
 20
63.227697236683362
 30
0.0
  0
VERTEX
  5
24E1
  8
0
 10
32.830945726025277
 20
63.276475149061952
 30
0.0
  0
SEQEND
  5
24E2
  8
0
  0
POLYLINE
  5
1AEB
  8
0
 66
     1
 10
0.0
 20
0.0
 30
0.0
  0
VERTEX
  5
24E3
  8
0
 10
34.472850487930032
 20
62.967903720490519
 30
0.0
  0
VERTEX
  5
24E4
  8
0
 10
34.420298987610579
 20
63.020455220809971
 30
0.0
  0
VERTEX
  5
24E5
  8
0
 10
34.316534164347217
 20
63.124220044073319
 30
0.0
  0
VERTEX
  5
24E6
  8
0
 10
34.214574372440843
 20
63.226179835979721
 30
0.0
  0
VERTEX
  5
24E7
  8
0
 10
34.164279059358591
 20
63.276475149061952
 30
0.0
  0
SEQEND
  5
24E8
  8
0
  0
POLYLINE
  5
1AEC
  8
0
 66
     1
 10
0.0
 20
0.0
 30
0.0
  0
VERTEX
  5
24E9
  8
0
 10
35.806183821263353
 20
62.967903720490519
 30
0.0
  0
VERTEX
  5
24EA
  8
0
 10
35.754103537320823
 20
63.019984004433077
 30
0.0
  0
VERTEX
  5
24EB
  8
0
 10
35.650718436536643
 20
63.123369105217229
 30
0.0
  0
VERTEX
  5
24EC
  8
0
 10
35.548381950308233
 20
63.225705591445653
 30
0.0
  0
VERTEX
  5
24ED
  8
0
 10
35.497612392691913
 20
63.276475149061952
 30
0.0
  0
SEQEND
  5
24EE
  8
0
  0
POLYLINE
  5
1AED
  8
0
 66
     1
 10
0.0
 20
0.0
 30
0.0
  0
VERTEX
  5
24EF
  8
0
 10
37.13951715459666
 20
62.967903720490519
 30
0.0
  0
VERTEX
  5
24F0
  8
0
 10
37.087676112358508
 20
63.019744762728727
 30
0.0
  0
VERTEX
  5
24F1
  8
0
 10
36.984483666768597
 20
63.122937208318618
 30
0.0
  0
VERTEX
  5
24F2
  8
0
 10
36.881955918317033
 20
63.225464956770189
 30
0.0
  0
VERTEX
  5
24F3
  8
0
 10
36.830945726025277
 20
63.276475149061952
 30
0.0
  0
SEQEND
  5
24F4
  8
0
  0
POLYLINE
  5
1AEE
  8
0
 66
     1
 10
0.0
 20
0.0
 30
0.0
  0
VERTEX
  5
24F5
  8
0
 10
38.472850487930032
 20
62.967903720490519
 30
0.0
  0
VERTEX
  5
24F6
  8
0
 10
38.421161892818191
 20
63.019592315602353
 30
0.0
  0
VERTEX
  5
24F7
  8
0
 10
38.318092079766423
 20
63.122662128654127
 30
0.0
  0
VERTEX
  5
24F8
  8
0
 10
38.215442444322953
 20
63.225311764097569
 30
0.0
  0
VERTEX
  5
24F9
  8
0
 10
38.164279059358591
 20
63.276475149061952
 30
0.0
  0
SEQEND
  5
24FA
  8
0
  0
POLYLINE
  5
1AEF
  8
0
 66
     1
 10
0.0
 20
0.0
 30
0.0
  0
VERTEX
  5
24FB
  8
0
 10
39.806183821263353
 20
62.967903720490519
 30
0.0
  0
VERTEX
  5
24FC
  8
0
 10
39.754608219839952
 20
63.01947932191392
 30
0.0
  0
VERTEX
  5
24FD
  8
0
 10
39.651629170691479
 20
63.122458371062393
 30
0.0
  0
VERTEX
  5
24FE
  8
0
 10
39.548889178782588
 20
63.225198362971291
 30
0.0
  0
VERTEX
  5
24FF
  8
0
 10
39.497612392691913
 20
63.276475149061952
 30
0.0
  0
SEQEND
  5
2500
  8
0
  0
POLYLINE
  5
1AF0
  8
0
 66
     1
 10
0.0
 20
0.0
 30
0.0
  0
VERTEX
  5
2501
  8
0
 10
41.139517154596653
 20
62.967903720490519
 30
0.0
  0
VERTEX
  5
2502
  8
0
 10
41.088036204700977
 20
63.019384670386202
 30
0.0
  0
VERTEX
  5
2503
  8
0
 10
40.985133049380117
 20
63.12228782570709
 30
0.0
  0
VERTEX
  5
2504
  8
0
 10
40.882317353634903
 20
63.225103521452333
 30
0.0
  0
VERTEX
  5
2505
  8
0
 10
40.830945726025277
 20
63.276475149061952
 30
0.0
  0
SEQEND
  5
2506
  8
0
  0
POLYLINE
  5
1AF1
  8
0
 66
     1
 10
0.0
 20
0.0
 30
0.0
  0
VERTEX
  5
2507
  8
0
 10
42.472850487930032
 20
62.967903720490519
 30
0.0
  0
VERTEX
  5
2508
  8
0
 10
42.421458164624312
 20
63.019296043796217
 30
0.0
  0
VERTEX
  5
2509
  8
0
 10
42.318625928944641
 20
63.122128279475909
 30
0.0
  0
VERTEX
  5
250A
  8
0
 10
42.21573933239727
 20
63.225014876023273
 30
0.0
  0
VERTEX
  5
250B
  8
0
 10
42.164279059358591
 20
63.276475149061952
 30
0.0
  0
SEQEND
  5
250C
  8
0
  0
POLYLINE
  5
1AF2
  8
0
 66
     1
 10
0.0
 20
0.0
 30
0.0
  0
VERTEX
  5
250D
  8
0
 10
43.806183821263353
 20
62.967903720490519
 30
0.0
  0
VERTEX
  5
250E
  8
0
 10
43.754883967790917
 20
63.019203573962919
 30
0.0
  0
VERTEX
  5
250F
  8
0
 10
43.652125576274841
 20
63.121961965479052
 30
0.0
  0
VERTEX
  5
2510
  8
0
 10
43.549164987520783
 20
63.224922554233089
 30
0.0
  0
VERTEX
  5
2511
  8
0
 10
43.497612392691913
 20
63.276475149061952
 30
0.0
  0
SEQEND
  5
2512
  8
0
  0
POLYLINE
  5
1AF3
  8
0
 66
     1
 10
0.0
 20
0.0
 30
0.0
  0
VERTEX
  5
2513
  8
0
 10
45.13951715459666
 20
62.967903720490519
 30
0.0
  0
VERTEX
  5
2514
  8
0
 10
45.088324995568541
 20
63.019095879518659
 30
0.0
  0
VERTEX
  5
2515
  8
0
 10
44.985652446637168
 20
63.121768428450039
 30
0.0
  0
VERTEX
  5
2516
  8
0
 10
44.882605665271903
 20
63.224815209815318
 30
0.0
  0
VERTEX
  5
2517
  8
0
 10
44.83094572602527
 20
63.276475149061952
 30
0.0
  0
SEQEND
  5
2518
  8
0
  0
POLYLINE
  5
1AF4
  8
0
 66
     1
 10
0.0
 20
0.0
 30
0.0
  0
VERTEX
  5
2519
  8
0
 10
46.472850487930032
 20
62.967903720490519
 30
0.0
  0
VERTEX
  5
251A
  8
0
 10
46.42179952774358
 20
63.018954680676977
 30
0.0
  0
VERTEX
  5
251B
  8
0
 10
46.319239356268149
 20
63.121514852152373
 30
0.0
  0
VERTEX
  5
251C
  8
0
 10
46.216079547494523
 20
63.224674660925999
 30
0.0
  0
VERTEX
  5
251D
  8
0
 10
46.164279059358591
 20
63.276475149061952
 30
0.0
  0
SEQEND
  5
251E
  8
0
  0
POLYLINE
  5
1AF5
  8
0
 66
     1
 10
0.0
 20
0.0
 30
0.0
  0
VERTEX
  5
251F
  8
0
 10
47.806183821263339
 20
62.967903720490519
 30
0.0
  0
VERTEX
  5
2520
  8
0
 10
47.755346146308227
 20
63.01874139544568
 30
0.0
  0
VERTEX
  5
2521
  8
0
 10
47.652955533603688
 20
63.121132008150177
 30
0.0
  0
VERTEX
  5
2522
  8
0
 10
47.549624970379682
 20
63.22446257137419
 30
0.0
  0
VERTEX
  5
2523
  8
0
 10
47.497612392691899
 20
63.276475149061952
 30
0.0
  0
SEQEND
  5
2524
  8
0
  0
POLYLINE
  5
1AF6
  8
0
 66
     1
 10
0.0
 20
0.0
 30
0.0
  0
VERTEX
  5
2525
  8
0
 10
49.13951715459666
 20
62.967903720490519
 30
0.0
  0
VERTEX
  5
2526
  8
0
 10
49.089073657882977
 20
63.018347217204223
 30
0.0
  0
VERTEX
  5
2527
  8
0
 10
48.986996180210951
 20
63.120424694876277
 30
0.0
  0
VERTEX
  5
2528
  8
0
 10
48.883350009152593
 20
63.224070865934607
 30
0.0
  0
VERTEX
  5
2529
  8
0
 10
48.83094572602527
 20
63.276475149061952
 30
0.0
  0
SEQEND
  5
252A
  8
0
  0
POLYLINE
  5
1AF7
  8
0
 66
     1
 10
0.0
 20
0.0
 30
0.0
  0
VERTEX
  5
252B
  8
0
 10
50.472850487930032
 20
62.967903720490519
 30
0.0
  0
VERTEX
  5
252C
  8
0
 10
50.423479945900233
 20
63.017274262520303
 30
0.0
  0
VERTEX
  5
252D
  8
0
 10
50.322254487906491
 20
63.118499720514059
 30
0.0
  0
VERTEX
  5
252E
  8
0
 10
50.217749152314411
 20
63.223005056106118
 30
0.0
  0
VERTEX
  5
252F
  8
0
 10
50.164279059358591
 20
63.276475149061952
 30
0.0
  0
SEQEND
  5
2530
  8
0
  0
POLYLINE
  5
1AF8
  8
0
 66
     1
 10
0.0
 20
0.0
 30
0.0
  0
VERTEX
  5
2531
  8
0
 10
51.806183821263339
 20
62.967903720490533
 30
0.0
  0
VERTEX
  5
2532
  8
0
 10
51.805944492313252
 20
62.968143049440627
 30
0.0
  0
VERTEX
  5
2533
  8
0
 10
51.80402992944596
 20
62.97005761230789
 30
0.0
  0
VERTEX
  5
2534
  8
0
 10
51.800201170275329
 20
62.973886371478571
 30
0.0
  0
VERTEX
  5
2535
  8
0
 10
51.797569181843869
 20
62.976518359910003
 30
0.0
  0
VERTEX
  5
2536
  8
0
 10
51.7944589478588
 20
62.9796285938951
 30
0.0
  0
VERTEX
  5
2537
  8
0
 10
51.786804361607317
 20
62.987283180146569
 30
0.0
  0
VERTEX
  5
2538
  8
0
 10
51.777238877074637
 20
62.996848664679263
 30
0.0
  0
VERTEX
  5
2539
  8
0
 10
51.765764325676678
 20
63.008323216077187
 30
0.0
  0
VERTEX
  5
253A
  8
0
 10
51.752382904341118
 20
63.021704637412768
 30
0.0
  0
VERTEX
  5
253B
  8
0
 10
51.737097175086433
 20
63.03699036666746
 30
0.0
  0
VERTEX
  5
253C
  8
0
 10
51.72874109533052
 20
63.04534644642338
 30
0.0
  0
VERTEX
  5
253D
  8
0
 10
51.719910064531632
 20
63.054177477222233
 30
0.0
  0
VERTEX
  5
253E
  8
0
 10
51.700824863335917
 20
63.073262678417983
 30
0.0
  0
VERTEX
  5
253F
  8
0
 10
51.679845225568393
 20
63.0942423161855
 30
0.0
  0
VERTEX
  5
2540
  8
0
 10
51.656975168008792
 20
63.117112373745101
 30
0.0
  0
VERTEX
  5
2541
  8
0
 10
51.632219069378152
 20
63.141868472375698
 30
0.0
  0
VERTEX
  5
2542
  8
0
 10
51.605581669500737
 20
63.168505872253142
 30
0.0
  0
VERTEX
  5
2543
  8
0
 10
51.591559061306718
 20
63.182528480447182
 30
0.0
  0
VERTEX
  5
2544
  8
0
 10
51.577068068396159
 20
63.197019473357699
 30
0.0
  0
VERTEX
  5
2545
  8
0
 10
51.546683725303353
 20
63.227403816450519
 30
0.0
  0
VERTEX
  5
2546
  8
0
 10
51.514434457634991
 20
63.259653084118888
 30
0.0
  0
VERTEX
  5
2547
  8
0
 10
51.497612392691899
 20
63.276475149061952
 30
0.0
  0
SEQEND
  5
2548
  8
0
  0
POLYLINE
  5
1AFA
  8
0
 66
     1
 10
0.0
 20
0.0
 30
0.0
  0
VERTEX
  5
2549
  8
0
 10
31.80618382126335
 20
62.967903720490519
 30
0.0
  0
VERTEX
  5
254A
  8
0
 10
31.806423150213451
 20
62.968143049440613
 30
0.0
  0
VERTEX
  5
254B
  8
0
 10
31.808337713080729
 20
62.97005761230789
 30
0.0
  0
VERTEX
  5
254C
  8
0
 10
31.81216647225137
 20
62.973886371478557
 30
0.0
  0
VERTEX
  5
254D
  8
0
 10
31.81479846068282
 20
62.976518359910003
 30
0.0
  0
VERTEX
  5
254E
  8
0
 10
31.817908694667899
 20
62.979628593895079
 30
0.0
  0
VERTEX
  5
254F
  8
0
 10
31.825563280919368
 20
62.987283180146562
 30
0.0
  0
VERTEX
  5
2550
  8
0
 10
31.835128765452058
 20
62.996848664679248
 30
0.0
  0
VERTEX
  5
2551
  8
0
 10
31.846603316850011
 20
63.00832321607718
 30
0.0
  0
VERTEX
  5
2552
  8
0
 10
31.85998473818557
 20
63.021704637412761
 30
0.0
  0
VERTEX
  5
2553
  8
0
 10
31.875270467440259
 20
63.03699036666746
 30
0.0
  0
VERTEX
  5
2554
  8
0
 10
31.883626547196169
 20
63.04534644642338
 30
0.0
  0
VERTEX
  5
2555
  8
0
 10
31.89245757799506
 20
63.054177477222233
 30
0.0
  0
VERTEX
  5
2556
  8
0
 10
31.911542779190821
 20
63.073262678417983
 30
0.0
  0
VERTEX
  5
2557
  8
0
 10
31.93252241695831
 20
63.094242316185493
 30
0.0
  0
VERTEX
  5
2558
  8
0
 10
31.955392474517911
 20
63.117112373745101
 30
0.0
  0
VERTEX
  5
2559
  8
0
 10
31.98014857314854
 20
63.141868472375691
 30
0.0
  0
VERTEX
  5
255A
  8
0
 10
32.006785973025963
 20
63.168505872253142
 30
0.0
  0
VERTEX
  5
255B
  8
0
 10
32.020808581219967
 20
63.182528480447168
 30
0.0
  0
VERTEX
  5
255C
  8
0
 10
32.035299574130534
 20
63.197019473357692
 30
0.0
  0
VERTEX
  5
255D
  8
0
 10
32.065683917223339
 20
63.227403816450519
 30
0.0
  0
VERTEX
  5
255E
  8
0
 10
32.097933184891701
 20
63.259653084118881
 30
0.0
  0
VERTEX
  5
255F
  8
0
 10
32.114755249834793
 20
63.276475149061952
 30
0.0
  0
SEQEND
  5
2560
  8
0
  0
LINE
  5
1AFC
  8
0
 10
50.781421916501472
 20
63.276475149061952
 30
0.0
 11
51.497612392691899
 21
63.276475149061952
 31
0.0
  0
LINE
  5
1AFD
  8
0
 10
49.448088583168101
 20
63.276475149061952
 30
0.0
 11
50.164279059358591
 21
63.276475149061952
 31
0.0
  0
LINE
  5
1AFE
  8
0
 10
48.114755249834779
 20
63.276475149061952
 30
0.0
 11
48.83094572602527
 21
63.276475149061952
 31
0.0
  0
LINE
  5
1AFF
  8
0
 10
46.781421916501472
 20
63.276475149061952
 30
0.0
 11
47.497612392691899
 21
63.276475149061952
 31
0.0
  0
LINE
  5
1B00
  8
0
 10
45.448088583168101
 20
63.276475149061952
 30
0.0
 11
46.164279059358591
 21
63.276475149061952
 31
0.0
  0
LINE
  5
1B01
  8
0
 10
44.114755249834793
 20
63.276475149061952
 30
0.0
 11
44.83094572602527
 21
63.276475149061952
 31
0.0
  0
LINE
  5
1B02
  8
0
 10
42.781421916501472
 20
63.276475149061952
 30
0.0
 11
43.497612392691913
 21
63.276475149061952
 31
0.0
  0
LINE
  5
1B03
  8
0
 10
41.448088583168087
 20
63.276475149061952
 30
0.0
 11
42.164279059358591
 21
63.276475149061952
 31
0.0
  0
LINE
  5
1B04
  8
0
 10
40.114755249834779
 20
63.276475149061952
 30
0.0
 11
40.830945726025277
 21
63.276475149061952
 31
0.0
  0
LINE
  5
1B05
  8
0
 10
38.781421916501408
 20
63.276475149061952
 30
0.0
 11
39.497612392691913
 21
63.276475149061952
 31
0.0
  0
LINE
  5
1B06
  8
0
 10
37.448088583168101
 20
63.276475149061952
 30
0.0
 11
38.164279059358591
 21
63.276475149061952
 31
0.0
  0
LINE
  5
1B07
  8
0
 10
36.114755249834793
 20
63.276475149061952
 30
0.0
 11
36.830945726025277
 21
63.276475149061952
 31
0.0
  0
LINE
  5
1B08
  8
0
 10
34.781421916501422
 20
63.276475149061952
 30
0.0
 11
35.497612392691913
 21
63.276475149061952
 31
0.0
  0
LINE
  5
1B09
  8
0
 10
32.114755249834793
 20
63.276475149061952
 30
0.0
 11
32.830945726025277
 21
63.276475149061952
 31
0.0
  0
LINE
  5
1B0A
  8
0
 10
33.448088583168101
 20
63.276475149061952
 30
0.0
 11
34.164279059358591
 21
63.276475149061952
 31
0.0
  0
LINE
  5
1B0B
  8
0
 10
31.80618382126335
 20
62.967903720490519
 30
0.0
 11
31.80618382126335
 21
62.196475149061961
 31
0.0
  0
LINE
  5
1B0C
  8
0
 10
51.806183821263339
 20
62.196475149061961
 30
0.0
 11
51.806183821263339
 21
62.967903720490533
 31
0.0
  0
LINE
  5
1B0E
  8
3
 10
33.13951715459666
 20
111.2771521178387
 30
0.0
 11
33.13951715459666
 21
101.2993990864414
 31
0.0
  0
LINE
  5
1B0F
  8
3
 10
34.472850487929982
 20
113.0869682869304
 30
0.0
 11
34.472850487929982
 21
99.489582917349637
 31
0.0
  0
LINE
  5
1B10
  8
3
 10
35.806183821263289
 20
114.28827560214
 30
0.0
 11
35.806183821263289
 21
98.288275602140033
 31
0.0
  0
LINE
  5
1B11
  8
3
 10
37.139517154596611
 20
115.1326083764211
 30
0.0
 11
37.139517154596611
 21
97.443942827858976
 31
0.0
  0
LINE
  5
1B12
  8
3
 10
38.472850487929918
 20
115.7163660179606
 30
0.0
 11
38.472850487929918
 21
96.860185186319413
 31
0.0
  0
LINE
  5
1B13
  8
3
 10
39.806183821263232
 20
116.08623457327271
 30
0.0
 11
39.806183821263232
 21
96.490316631007346
 31
0.0
  0
LINE
  5
1B14
  8
3
 10
41.139517154596547
 20
116.2660286335372
 30
0.0
 11
41.139517154596547
 21
96.310522570742876
 31
0.0
  0
LINE
  5
1B15
  8
3
 10
42.472850487929861
 20
116.2660286335372
 30
0.0
 11
42.472850487929861
 21
96.310522570742847
 31
0.0
  0
LINE
  5
1B16
  8
3
 10
43.806183821263168
 20
116.08623457327271
 30
0.0
 11
43.806183821263168
 21
96.490316631007303
 31
0.0
  0
LINE
  5
1B17
  8
3
 10
45.13951715459649
 20
115.71636601796069
 30
0.0
 11
45.13951715459649
 21
96.860185186319356
 31
0.0
  0
LINE
  5
1B18
  8
3
 10
46.472850487929797
 20
115.1326083764212
 30
0.0
 11
46.472850487929797
 21
97.443942827858905
 31
0.0
  0
LINE
  5
1B19
  8
3
 10
47.806183821263119
 20
114.2882756021401
 30
0.0
 11
47.806183821263119
 21
98.288275602139905
 31
0.0
  0
LINE
  5
1B1A
  8
3
 10
49.139517154596433
 20
113.0869682869306
 30
0.0
 11
49.139517154596433
 21
99.489582917349466
 31
0.0
  0
LINE
  5
1B1B
  8
3
 10
50.472850487929747
 20
111.2771521178389
 30
0.0
 11
50.472850487929747
 21
101.299399086441
 31
0.0
  0
LINE
  5
1B1E
  8
3
 10
46.795060336962251
 20
114.95494226880651
 30
0.0
 11
36.817307305564327
 21
114.95494226880651
 31
0.0
  0
LINE
  5
1B1F
  8
3
 10
48.60487650605387
 20
113.62160893547311
 30
0.0
 11
35.007491136472709
 21
113.62160893547311
 31
0.0
  0
LINE
  5
1B20
  8
3
 10
49.80618382126341
 20
112.28827560213981
 30
0.0
 11
33.806183821263183
 21
112.28827560213981
 31
0.0
  0
LINE
  5
1B21
  8
3
 10
50.650516595544453
 20
110.95494226880651
 30
0.0
 11
32.96185104698214
 21
110.95494226880651
 31
0.0
  0
LINE
  5
1B22
  8
3
 10
51.23427423708398
 20
109.6216089354732
 30
0.0
 11
32.378093405442598
 21
109.6216089354732
 31
0.0
  0
LINE
  5
1B23
  8
3
 10
51.604142792396033
 20
108.2882756021399
 30
0.0
 11
32.008224850130553
 21
108.2882756021399
 31
0.0
  0
LINE
  5
1B24
  8
3
 10
51.783936852660482
 20
106.9549422688066
 30
0.0
 11
31.828430789866111
 21
106.9549422688066
 31
0.0
  0
LINE
  5
1B25
  8
3
 10
51.783936852660482
 20
105.6216089354733
 30
0.0
 11
31.828430789866111
 21
105.6216089354733
 31
0.0
  0
LINE
  5
1B26
  8
3
 10
51.604142792395969
 20
104.28827560214
 30
0.0
 11
32.008224850130603
 21
104.28827560214
 31
0.0
  0
LINE
  5
1B27
  8
3
 10
51.234274237083923
 20
102.9549422688066
 30
0.0
 11
32.378093405442662
 21
102.9549422688066
 31
0.0
  0
LINE
  5
1B28
  8
3
 10
50.650516595544332
 20
101.6216089354733
 30
0.0
 11
32.961851046982247
 21
101.6216089354733
 31
0.0
  0
LINE
  5
1B29
  8
3
 10
49.806183821263289
 20
100.28827560214
 30
0.0
 11
33.806183821263289
 21
100.28827560214
 31
0.0
  0
LINE
  5
1B2A
  8
3
 10
48.604876506053699
 20
98.954942268806704
 30
0.0
 11
35.007491136472879
 21
98.954942268806704
 31
0.0
  0
LINE
  5
1B2B
  8
3
 10
46.795060336961939
 20
97.621608935473404
 30
0.0
 11
36.81730730556464
 21
97.621608935473404
 31
0.0
  0
LINE
  5
1B5B
  8
0
 10
24.485675745574579
 20
106.2882756021401
 30
0.0
 11
33.145929783418893
 21
91.288275602140047
 31
0.0
  0
LINE
  5
1B5C
  8
0
 10
50.466437859107657
 20
91.288275602140047
 30
0.0
 11
59.126691896952053
 21
106.28827560214
 31
0.0
  0
LINE
  5
1B5D
  8
0
 10
33.145929783418893
 20
91.288275602140047
 30
0.0
 11
50.466437859107657
 21
91.288275602140047
 31
0.0
  0
LINE
  5
1B5E
  8
0
 10
33.145929783418893
 20
121.28827560214
 30
0.0
 11
50.466437859107657
 21
121.28827560214
 31
0.0
  0
LINE
  5
1B5F
  8
0
 10
50.466437859107657
 20
121.28827560214
 30
0.0
 11
59.126691896952053
 21
106.28827560214
 31
0.0
  0
LINE
  5
1B60
  8
0
 10
24.485675745574579
 20
106.2882756021399
 30
0.0
 11
33.145929783418893
 21
121.28827560214
 31
0.0
  0
LINE
  5
1C3B
  8
3
 10
41.448088583168087
 20
105.9301803640448
 30
0.0
 11
41.448088583168087
 21
106.64637084023531
 31
0.0
  0
LINE
  5
1C3C
  8
3
 10
42.164279059358591
 20
105.9301803640448
 30
0.0
 11
42.164279059358591
 21
106.64637084023531
 31
0.0
  0
LINE
  5
1C3D
  8
3
 10
42.164279059358591
 20
105.9301803640448
 30
0.0
 11
41.448088583168087
 21
105.9301803640448
 31
0.0
  0
LINE
  5
1C3E
  8
3
 10
42.164279059358591
 20
106.64637084023531
 30
0.0
 11
41.448088583168087
 21
106.64637084023531
 31
0.0
  0
LINE
  5
1C3F
  8
3
 10
41.139517154596547
 20
106.9549422688066
 30
0.0
 11
41.448088583168087
 21
106.64637084023531
 31
0.0
  0
LINE
  5
1C40
  8
3
 10
41.448088583168087
 20
105.9301803640448
 30
0.0
 11
41.139517154596547
 21
105.6216089354733
 31
0.0
  0
LINE
  5
1C41
  8
3
 10
42.164279059358591
 20
105.9301803640448
 30
0.0
 11
42.472850487929861
 21
105.6216089354733
 31
0.0
  0
LINE
  5
1C42
  8
3
 10
42.164279059358591
 20
106.64637084023531
 30
0.0
 11
42.472850487929861
 21
106.9549422688066
 31
0.0
  0
LINE
  5
1C43
  8
3
 10
42.164279059358591
 20
107.97970417356861
 30
0.0
 11
42.472850487929861
 21
108.2882756021399
 31
0.0
  0
LINE
  5
1C44
  8
3
 10
42.164279059358591
 20
107.2635136973782
 30
0.0
 11
42.472850487929861
 21
106.9549422688066
 31
0.0
  0
LINE
  5
1C45
  8
3
 10
41.448088583168087
 20
107.2635136973781
 30
0.0
 11
41.139517154596547
 21
106.9549422688066
 31
0.0
  0
LINE
  5
1C46
  8
3
 10
41.139517154596547
 20
108.2882756021399
 30
0.0
 11
41.448088583168087
 21
107.97970417356861
 31
0.0
  0
LINE
  5
1C47
  8
3
 10
42.164279059358591
 20
107.97970417356861
 30
0.0
 11
41.448088583168087
 21
107.97970417356861
 31
0.0
  0
LINE
  5
1C48
  8
3
 10
42.164279059358591
 20
107.2635136973781
 30
0.0
 11
41.448088583168087
 21
107.2635136973781
 31
0.0
  0
LINE
  5
1C49
  8
3
 10
42.164279059358591
 20
107.2635136973782
 30
0.0
 11
42.164279059358591
 21
107.97970417356861
 31
0.0
  0
LINE
  5
1C4A
  8
3
 10
41.448088583168087
 20
107.2635136973781
 30
0.0
 11
41.448088583168087
 21
107.97970417356861
 31
0.0
  0
LINE
  5
1C4B
  8
3
 10
42.164279059358591
 20
109.31303750690191
 30
0.0
 11
42.472850487929861
 21
109.6216089354732
 31
0.0
  0
LINE
  5
1C4C
  8
3
 10
42.164279059358591
 20
108.5968470307115
 30
0.0
 11
42.472850487929861
 21
108.2882756021399
 31
0.0
  0
LINE
  5
1C4D
  8
3
 10
41.448088583168087
 20
108.5968470307115
 30
0.0
 11
41.139517154596547
 21
108.2882756021399
 31
0.0
  0
LINE
  5
1C4E
  8
3
 10
41.139517154596547
 20
109.6216089354732
 30
0.0
 11
41.448088583168087
 21
109.31303750690191
 31
0.0
  0
LINE
  5
1C4F
  8
3
 10
42.164279059358591
 20
109.31303750690191
 30
0.0
 11
41.448088583168087
 21
109.31303750690191
 31
0.0
  0
LINE
  5
1C50
  8
3
 10
42.164279059358591
 20
108.5968470307115
 30
0.0
 11
41.448088583168087
 21
108.5968470307115
 31
0.0
  0
LINE
  5
1C51
  8
3
 10
42.164279059358591
 20
108.5968470307115
 30
0.0
 11
42.164279059358591
 21
109.31303750690191
 31
0.0
  0
LINE
  5
1C52
  8
3
 10
41.448088583168087
 20
108.5968470307115
 30
0.0
 11
41.448088583168087
 21
109.31303750690191
 31
0.0
  0
LINE
  5
1C53
  8
3
 10
42.164279059358591
 20
110.64637084023521
 30
0.0
 11
42.472850487929861
 21
110.95494226880651
 31
0.0
  0
LINE
  5
1C54
  8
3
 10
42.164279059358591
 20
109.9301803640448
 30
0.0
 11
42.472850487929861
 21
109.6216089354732
 31
0.0
  0
LINE
  5
1C55
  8
3
 10
41.448088583168087
 20
109.9301803640448
 30
0.0
 11
41.139517154596547
 21
109.6216089354732
 31
0.0
  0
LINE
  5
1C56
  8
3
 10
41.139517154596547
 20
110.95494226880651
 30
0.0
 11
41.448088583168087
 21
110.64637084023521
 31
0.0
  0
LINE
  5
1C57
  8
3
 10
42.164279059358591
 20
110.64637084023521
 30
0.0
 11
41.448088583168087
 21
110.64637084023521
 31
0.0
  0
LINE
  5
1C58
  8
3
 10
42.164279059358591
 20
109.9301803640448
 30
0.0
 11
41.448088583168087
 21
109.9301803640448
 31
0.0
  0
LINE
  5
1C59
  8
3
 10
42.164279059358591
 20
109.9301803640448
 30
0.0
 11
42.164279059358591
 21
110.64637084023521
 31
0.0
  0
LINE
  5
1C5A
  8
3
 10
41.448088583168087
 20
109.9301803640448
 30
0.0
 11
41.448088583168087
 21
110.64637084023521
 31
0.0
  0
LINE
  5
1C5B
  8
3
 10
42.164279059358591
 20
111.97970417356861
 30
0.0
 11
42.472850487929861
 21
112.28827560213981
 31
0.0
  0
LINE
  5
1C5C
  8
3
 10
42.164279059358591
 20
111.2635136973781
 30
0.0
 11
42.472850487929861
 21
110.95494226880651
 31
0.0
  0
LINE
  5
1C5D
  8
3
 10
41.448088583168087
 20
111.2635136973781
 30
0.0
 11
41.139517154596547
 21
110.95494226880651
 31
0.0
  0
LINE
  5
1C5E
  8
3
 10
41.139517154596547
 20
112.28827560213981
 30
0.0
 11
41.448088583168087
 21
111.97970417356851
 31
0.0
  0
LINE
  5
1C5F
  8
3
 10
42.164279059358591
 20
111.97970417356861
 30
0.0
 11
41.448088583168087
 21
111.97970417356861
 31
0.0
  0
LINE
  5
1C60
  8
3
 10
42.164279059358591
 20
111.2635136973781
 30
0.0
 11
41.448088583168087
 21
111.2635136973781
 31
0.0
  0
LINE
  5
1C61
  8
3
 10
42.164279059358591
 20
111.2635136973781
 30
0.0
 11
42.164279059358591
 21
111.97970417356861
 31
0.0
  0
LINE
  5
1C62
  8
3
 10
41.448088583168087
 20
111.2635136973781
 30
0.0
 11
41.448088583168087
 21
111.97970417356851
 31
0.0
  0
LINE
  5
1C63
  8
3
 10
41.448088583168087
 20
115.263513697378
 30
0.0
 11
41.448088583168087
 21
115.97970417356851
 31
0.0
  0
LINE
  5
1C64
  8
3
 10
42.164279059358591
 20
115.2635136973781
 30
0.0
 11
42.164279059358591
 21
115.97970417356851
 31
0.0
  0
LINE
  5
1C65
  8
3
 10
42.164279059358591
 20
115.263513697378
 30
0.0
 11
41.448088583168087
 21
115.263513697378
 31
0.0
  0
LINE
  5
1C66
  8
3
 10
42.164279059358591
 20
115.97970417356851
 30
0.0
 11
41.448088583168087
 21
115.97970417356851
 31
0.0
  0
LINE
  5
1C67
  8
3
 10
41.160391337759933
 20
116.26740141897641
 30
0.0
 11
41.448088583168087
 21
115.97970417356851
 31
0.0
  0
LINE
  5
1C68
  8
3
 10
41.448088583168087
 20
115.263513697378
 30
0.0
 11
41.139517154596547
 21
114.95494226880651
 31
0.0
  0
LINE
  5
1C69
  8
3
 10
42.164279059358591
 20
115.2635136973781
 30
0.0
 11
42.472850487929861
 21
114.95494226880651
 31
0.0
  0
LINE
  5
1C6A
  8
3
 10
42.164279059358591
 20
115.97970417356851
 30
0.0
 11
42.451976304766497
 21
116.26740141897641
 31
0.0
  0
LINE
  5
1C6B
  8
3
 10
41.448088583168087
 20
113.9301803640447
 30
0.0
 11
41.448088583168087
 21
114.64637084023521
 31
0.0
  0
LINE
  5
1C6C
  8
3
 10
42.164279059358591
 20
113.9301803640447
 30
0.0
 11
42.164279059358591
 21
114.64637084023521
 31
0.0
  0
LINE
  5
1C6D
  8
3
 10
42.164279059358591
 20
113.9301803640447
 30
0.0
 11
41.448088583168087
 21
113.9301803640447
 31
0.0
  0
LINE
  5
1C6E
  8
3
 10
42.164279059358591
 20
114.64637084023521
 30
0.0
 11
41.448088583168087
 21
114.64637084023521
 31
0.0
  0
LINE
  5
1C6F
  8
3
 10
41.139517154596547
 20
114.95494226880651
 30
0.0
 11
41.448088583168087
 21
114.64637084023521
 31
0.0
  0
LINE
  5
1C70
  8
3
 10
41.448088583168087
 20
113.9301803640447
 30
0.0
 11
41.139517154596547
 21
113.62160893547311
 31
0.0
  0
LINE
  5
1C71
  8
3
 10
42.164279059358591
 20
113.9301803640447
 30
0.0
 11
42.472850487929861
 21
113.62160893547311
 31
0.0
  0
LINE
  5
1C72
  8
3
 10
42.164279059358591
 20
114.64637084023521
 30
0.0
 11
42.472850487929861
 21
114.95494226880651
 31
0.0
  0
LINE
  5
1C73
  8
3
 10
41.448088583168087
 20
112.5968470307114
 30
0.0
 11
41.448088583168087
 21
113.31303750690191
 31
0.0
  0
LINE
  5
1C74
  8
3
 10
42.164279059358591
 20
112.5968470307114
 30
0.0
 11
42.164279059358591
 21
113.31303750690191
 31
0.0
  0
LINE
  5
1C75
  8
3
 10
42.164279059358591
 20
112.5968470307114
 30
0.0
 11
41.448088583168087
 21
112.5968470307114
 31
0.0
  0
LINE
  5
1C76
  8
3
 10
42.164279059358591
 20
113.31303750690191
 30
0.0
 11
41.448088583168087
 21
113.31303750690191
 31
0.0
  0
LINE
  5
1C77
  8
3
 10
41.139517154596547
 20
113.62160893547311
 30
0.0
 11
41.448088583168087
 21
113.31303750690191
 31
0.0
  0
LINE
  5
1C78
  8
3
 10
41.448088583168087
 20
112.5968470307114
 30
0.0
 11
41.139517154596547
 21
112.28827560213981
 31
0.0
  0
LINE
  5
1C79
  8
3
 10
42.164279059358591
 20
112.5968470307114
 30
0.0
 11
42.472850487929861
 21
112.28827560213981
 31
0.0
  0
LINE
  5
1C7A
  8
3
 10
42.164279059358591
 20
113.31303750690191
 30
0.0
 11
42.472850487929861
 21
113.62160893547311
 31
0.0
  0
LINE
  5
1C7B
  8
3
 10
43.497612392691913
 20
113.31303750690191
 30
0.0
 11
43.806183821263168
 21
113.62160893547311
 31
0.0
  0
LINE
  5
1C7C
  8
3
 10
43.497612392691913
 20
112.5968470307114
 30
0.0
 11
43.806183821263168
 21
112.28827560213981
 31
0.0
  0
LINE
  5
1C7D
  8
3
 10
42.781421916501408
 20
112.5968470307114
 30
0.0
 11
42.472850487929861
 21
112.28827560213981
 31
0.0
  0
LINE
  5
1C7E
  8
3
 10
42.472850487929861
 20
113.62160893547311
 30
0.0
 11
42.781421916501408
 21
113.31303750690191
 31
0.0
  0
LINE
  5
1C7F
  8
3
 10
43.497612392691913
 20
113.31303750690191
 30
0.0
 11
42.781421916501408
 21
113.31303750690191
 31
0.0
  0
LINE
  5
1C80
  8
3
 10
43.497612392691913
 20
112.5968470307114
 30
0.0
 11
42.781421916501408
 21
112.5968470307114
 31
0.0
  0
LINE
  5
1C81
  8
3
 10
43.497612392691913
 20
112.5968470307114
 30
0.0
 11
43.497612392691913
 21
113.31303750690191
 31
0.0
  0
LINE
  5
1C82
  8
3
 10
42.781421916501408
 20
112.5968470307114
 30
0.0
 11
42.781421916501408
 21
113.31303750690191
 31
0.0
  0
LINE
  5
1C83
  8
3
 10
43.497612392691913
 20
114.64637084023521
 30
0.0
 11
43.806183821263168
 21
114.95494226880651
 31
0.0
  0
LINE
  5
1C84
  8
3
 10
43.497612392691913
 20
113.9301803640447
 30
0.0
 11
43.806183821263168
 21
113.62160893547311
 31
0.0
  0
LINE
  5
1C85
  8
3
 10
42.781421916501408
 20
113.9301803640447
 30
0.0
 11
42.472850487929861
 21
113.62160893547311
 31
0.0
  0
LINE
  5
1C86
  8
3
 10
42.472850487929861
 20
114.95494226880651
 30
0.0
 11
42.781421916501408
 21
114.64637084023521
 31
0.0
  0
LINE
  5
1C87
  8
3
 10
43.497612392691913
 20
114.64637084023521
 30
0.0
 11
42.781421916501408
 21
114.64637084023521
 31
0.0
  0
LINE
  5
1C88
  8
3
 10
43.497612392691913
 20
113.9301803640447
 30
0.0
 11
42.781421916501408
 21
113.9301803640447
 31
0.0
  0
LINE
  5
1C89
  8
3
 10
43.497612392691913
 20
113.9301803640447
 30
0.0
 11
43.497612392691913
 21
114.64637084023521
 31
0.0
  0
LINE
  5
1C8A
  8
3
 10
42.781421916501408
 20
113.9301803640447
 30
0.0
 11
42.781421916501408
 21
114.64637084023521
 31
0.0
  0
LINE
  5
1C8B
  8
3
 10
43.497612392691913
 20
115.2635136973781
 30
0.0
 11
43.806183821263168
 21
114.95494226880651
 31
0.0
  0
LINE
  5
1C8C
  8
3
 10
42.781421916501408
 20
115.263513697378
 30
0.0
 11
42.472850487929861
 21
114.95494226880651
 31
0.0
  0
LINE
  5
1C8D
  8
3
 10
43.497612392691913
 20
115.263513697378
 30
0.0
 11
42.781421916501408
 21
115.263513697378
 31
0.0
  0
LINE
  5
1C8E
  8
3
 10
42.781421916501408
 20
111.2635136973781
 30
0.0
 11
42.781421916501408
 21
111.97970417356851
 31
0.0
  0
LINE
  5
1C8F
  8
3
 10
43.497612392691913
 20
111.2635136973781
 30
0.0
 11
43.497612392691913
 21
111.97970417356861
 31
0.0
  0
LINE
  5
1C90
  8
3
 10
43.497612392691913
 20
111.2635136973781
 30
0.0
 11
42.781421916501408
 21
111.2635136973781
 31
0.0
  0
LINE
  5
1C91
  8
3
 10
43.497612392691913
 20
111.97970417356861
 30
0.0
 11
42.781421916501408
 21
111.97970417356861
 31
0.0
  0
LINE
  5
1C92
  8
3
 10
42.472850487929861
 20
112.28827560213981
 30
0.0
 11
42.781421916501408
 21
111.97970417356851
 31
0.0
  0
LINE
  5
1C93
  8
3
 10
42.781421916501408
 20
111.2635136973781
 30
0.0
 11
42.472850487929861
 21
110.95494226880651
 31
0.0
  0
LINE
  5
1C94
  8
3
 10
43.497612392691913
 20
111.2635136973781
 30
0.0
 11
43.806183821263168
 21
110.95494226880651
 31
0.0
  0
LINE
  5
1C95
  8
3
 10
43.497612392691913
 20
111.97970417356861
 30
0.0
 11
43.806183821263168
 21
112.28827560213981
 31
0.0
  0
LINE
  5
1C96
  8
3
 10
42.781421916501408
 20
109.9301803640448
 30
0.0
 11
42.781421916501408
 21
110.64637084023521
 31
0.0
  0
LINE
  5
1C97
  8
3
 10
43.497612392691913
 20
109.9301803640448
 30
0.0
 11
43.497612392691913
 21
110.64637084023521
 31
0.0
  0
LINE
  5
1C98
  8
3
 10
43.497612392691913
 20
109.9301803640448
 30
0.0
 11
42.781421916501408
 21
109.9301803640448
 31
0.0
  0
LINE
  5
1C99
  8
3
 10
43.497612392691913
 20
110.64637084023521
 30
0.0
 11
42.781421916501408
 21
110.64637084023521
 31
0.0
  0
LINE
  5
1C9A
  8
3
 10
42.472850487929861
 20
110.95494226880651
 30
0.0
 11
42.781421916501408
 21
110.64637084023521
 31
0.0
  0
LINE
  5
1C9B
  8
3
 10
42.781421916501408
 20
109.9301803640448
 30
0.0
 11
42.472850487929861
 21
109.6216089354732
 31
0.0
  0
LINE
  5
1C9C
  8
3
 10
43.497612392691913
 20
109.9301803640448
 30
0.0
 11
43.806183821263168
 21
109.6216089354732
 31
0.0
  0
LINE
  5
1C9D
  8
3
 10
43.497612392691913
 20
110.64637084023521
 30
0.0
 11
43.806183821263168
 21
110.95494226880651
 31
0.0
  0
LINE
  5
1C9E
  8
3
 10
42.781421916501408
 20
108.5968470307115
 30
0.0
 11
42.781421916501408
 21
109.31303750690191
 31
0.0
  0
LINE
  5
1C9F
  8
3
 10
43.497612392691913
 20
108.5968470307115
 30
0.0
 11
43.497612392691913
 21
109.31303750690191
 31
0.0
  0
LINE
  5
1CA0
  8
3
 10
43.497612392691913
 20
108.5968470307115
 30
0.0
 11
42.781421916501408
 21
108.5968470307115
 31
0.0
  0
LINE
  5
1CA1
  8
3
 10
43.497612392691913
 20
109.31303750690191
 30
0.0
 11
42.781421916501408
 21
109.31303750690191
 31
0.0
  0
LINE
  5
1CA2
  8
3
 10
42.472850487929861
 20
109.6216089354732
 30
0.0
 11
42.781421916501408
 21
109.31303750690191
 31
0.0
  0
LINE
  5
1CA3
  8
3
 10
42.781421916501408
 20
108.5968470307115
 30
0.0
 11
42.472850487929861
 21
108.2882756021399
 31
0.0
  0
LINE
  5
1CA4
  8
3
 10
43.497612392691913
 20
108.5968470307115
 30
0.0
 11
43.806183821263168
 21
108.2882756021399
 31
0.0
  0
LINE
  5
1CA5
  8
3
 10
43.497612392691913
 20
109.31303750690191
 30
0.0
 11
43.806183821263168
 21
109.6216089354732
 31
0.0
  0
LINE
  5
1CA6
  8
3
 10
42.781421916501408
 20
107.2635136973781
 30
0.0
 11
42.781421916501408
 21
107.97970417356861
 31
0.0
  0
LINE
  5
1CA7
  8
3
 10
43.497612392691913
 20
107.2635136973782
 30
0.0
 11
43.497612392691913
 21
107.97970417356861
 31
0.0
  0
LINE
  5
1CA8
  8
3
 10
43.497612392691913
 20
107.2635136973781
 30
0.0
 11
42.781421916501408
 21
107.2635136973781
 31
0.0
  0
LINE
  5
1CA9
  8
3
 10
43.497612392691913
 20
107.97970417356861
 30
0.0
 11
42.781421916501408
 21
107.97970417356861
 31
0.0
  0
LINE
  5
1CAA
  8
3
 10
42.472850487929861
 20
108.2882756021399
 30
0.0
 11
42.781421916501408
 21
107.97970417356861
 31
0.0
  0
LINE
  5
1CAB
  8
3
 10
42.781421916501408
 20
107.2635136973781
 30
0.0
 11
42.472850487929861
 21
106.9549422688066
 31
0.0
  0
LINE
  5
1CAC
  8
3
 10
43.497612392691913
 20
107.2635136973782
 30
0.0
 11
43.806183821263168
 21
106.9549422688066
 31
0.0
  0
LINE
  5
1CAD
  8
3
 10
43.497612392691913
 20
107.97970417356861
 30
0.0
 11
43.806183821263168
 21
108.2882756021399
 31
0.0
  0
LINE
  5
1CAE
  8
3
 10
43.497612392691913
 20
106.64637084023531
 30
0.0
 11
43.806183821263168
 21
106.9549422688066
 31
0.0
  0
LINE
  5
1CAF
  8
3
 10
43.497612392691913
 20
105.9301803640448
 30
0.0
 11
43.806183821263168
 21
105.6216089354733
 31
0.0
  0
LINE
  5
1CB0
  8
3
 10
42.781421916501408
 20
105.9301803640448
 30
0.0
 11
42.472850487929861
 21
105.6216089354733
 31
0.0
  0
LINE
  5
1CB1
  8
3
 10
42.472850487929861
 20
106.9549422688066
 30
0.0
 11
42.781421916501408
 21
106.64637084023531
 31
0.0
  0
LINE
  5
1CB2
  8
3
 10
43.497612392691913
 20
106.64637084023531
 30
0.0
 11
42.781421916501408
 21
106.64637084023531
 31
0.0
  0
LINE
  5
1CB3
  8
3
 10
43.497612392691913
 20
105.9301803640448
 30
0.0
 11
42.781421916501408
 21
105.9301803640448
 31
0.0
  0
LINE
  5
1CB4
  8
3
 10
43.497612392691913
 20
105.9301803640448
 30
0.0
 11
43.497612392691913
 21
106.64637084023531
 31
0.0
  0
LINE
  5
1CB5
  8
3
 10
42.781421916501408
 20
105.9301803640448
 30
0.0
 11
42.781421916501408
 21
106.64637084023531
 31
0.0
  0
LINE
  5
1CB6
  8
3
 10
43.497612392691913
 20
115.2635136973781
 30
0.0
 11
43.497612392691913
 21
115.97970417356851
 31
0.0
  0
LINE
  5
1CB7
  8
3
 10
43.497612392691913
 20
115.97970417356851
 30
0.0
 11
42.781421916501408
 21
115.97970417356851
 31
0.0
  0
LINE
  5
1CB8
  8
3
 10
42.781421916501408
 20
115.263513697378
 30
0.0
 11
42.781421916501408
 21
115.97970417356851
 31
0.0
  0
LINE
  5
1CB9
  8
3
 10
44.83094572602522
 20
113.31303750690191
 30
0.0
 11
45.13951715459649
 21
113.62160893547311
 31
0.0
  0
LINE
  5
1CBA
  8
3
 10
44.83094572602522
 20
112.5968470307114
 30
0.0
 11
45.13951715459649
 21
112.28827560213981
 31
0.0
  0
LINE
  5
1CBB
  8
3
 10
44.114755249834722
 20
112.5968470307114
 30
0.0
 11
43.806183821263168
 21
112.28827560213981
 31
0.0
  0
LINE
  5
1CBC
  8
3
 10
43.806183821263168
 20
113.62160893547311
 30
0.0
 11
44.114755249834722
 21
113.31303750690191
 31
0.0
  0
LINE
  5
1CBD
  8
3
 10
44.83094572602522
 20
113.31303750690191
 30
0.0
 11
44.114755249834722
 21
113.31303750690191
 31
0.0
  0
LINE
  5
1CBE
  8
3
 10
44.83094572602522
 20
112.5968470307114
 30
0.0
 11
44.114755249834722
 21
112.5968470307114
 31
0.0
  0
LINE
  5
1CBF
  8
3
 10
44.83094572602522
 20
112.5968470307114
 30
0.0
 11
44.83094572602522
 21
113.31303750690191
 31
0.0
  0
LINE
  5
1CC0
  8
3
 10
44.114755249834722
 20
112.5968470307114
 30
0.0
 11
44.114755249834722
 21
113.31303750690191
 31
0.0
  0
LINE
  5
1CC1
  8
3
 10
44.83094572602522
 20
114.64637084023521
 30
0.0
 11
45.13951715459649
 21
114.95494226880651
 31
0.0
  0
LINE
  5
1CC2
  8
3
 10
44.83094572602522
 20
113.9301803640447
 30
0.0
 11
45.13951715459649
 21
113.62160893547311
 31
0.0
  0
LINE
  5
1CC3
  8
3
 10
44.114755249834722
 20
113.9301803640447
 30
0.0
 11
43.806183821263168
 21
113.62160893547311
 31
0.0
  0
LINE
  5
1CC4
  8
3
 10
43.806183821263168
 20
114.95494226880651
 30
0.0
 11
44.114755249834722
 21
114.64637084023521
 31
0.0
  0
LINE
  5
1CC5
  8
3
 10
44.83094572602522
 20
114.64637084023521
 30
0.0
 11
44.114755249834722
 21
114.64637084023521
 31
0.0
  0
LINE
  5
1CC6
  8
3
 10
44.83094572602522
 20
113.9301803640447
 30
0.0
 11
44.114755249834722
 21
113.9301803640447
 31
0.0
  0
LINE
  5
1CC7
  8
3
 10
44.83094572602522
 20
113.9301803640447
 30
0.0
 11
44.83094572602522
 21
114.64637084023521
 31
0.0
  0
LINE
  5
1CC8
  8
3
 10
44.114755249834722
 20
113.9301803640447
 30
0.0
 11
44.114755249834722
 21
114.64637084023521
 31
0.0
  0
LINE
  5
1CC9
  8
3
 10
44.83094572602522
 20
115.2635136973781
 30
0.0
 11
45.13951715459649
 21
114.95494226880651
 31
0.0
  0
LINE
  5
1CCA
  8
3
 10
44.114755249834722
 20
115.263513697378
 30
0.0
 11
43.806183821263168
 21
114.95494226880651
 31
0.0
  0
LINE
  5
1CCB
  8
3
 10
44.83094572602522
 20
115.263513697378
 30
0.0
 11
44.114755249834722
 21
115.263513697378
 31
0.0
  0
LINE
  5
1CCC
  8
3
 10
44.114755249834722
 20
111.2635136973781
 30
0.0
 11
44.114755249834722
 21
111.97970417356851
 31
0.0
  0
LINE
  5
1CCD
  8
3
 10
44.83094572602522
 20
111.2635136973781
 30
0.0
 11
44.83094572602522
 21
111.97970417356861
 31
0.0
  0
LINE
  5
1CCE
  8
3
 10
44.83094572602522
 20
111.2635136973781
 30
0.0
 11
44.114755249834722
 21
111.2635136973781
 31
0.0
  0
LINE
  5
1CCF
  8
3
 10
44.83094572602522
 20
111.97970417356861
 30
0.0
 11
44.114755249834722
 21
111.97970417356861
 31
0.0
  0
LINE
  5
1CD0
  8
3
 10
43.806183821263168
 20
112.28827560213981
 30
0.0
 11
44.114755249834722
 21
111.97970417356851
 31
0.0
  0
LINE
  5
1CD1
  8
3
 10
44.114755249834722
 20
111.2635136973781
 30
0.0
 11
43.806183821263168
 21
110.95494226880651
 31
0.0
  0
LINE
  5
1CD2
  8
3
 10
44.83094572602522
 20
111.2635136973781
 30
0.0
 11
45.13951715459649
 21
110.95494226880651
 31
0.0
  0
LINE
  5
1CD3
  8
3
 10
44.83094572602522
 20
111.97970417356861
 30
0.0
 11
45.13951715459649
 21
112.28827560213981
 31
0.0
  0
LINE
  5
1CD4
  8
3
 10
44.114755249834722
 20
109.9301803640448
 30
0.0
 11
44.114755249834722
 21
110.64637084023521
 31
0.0
  0
LINE
  5
1CD5
  8
3
 10
44.83094572602522
 20
109.9301803640448
 30
0.0
 11
44.83094572602522
 21
110.64637084023521
 31
0.0
  0
LINE
  5
1CD6
  8
3
 10
44.83094572602522
 20
109.9301803640448
 30
0.0
 11
44.114755249834722
 21
109.9301803640448
 31
0.0
  0
LINE
  5
1CD7
  8
3
 10
44.83094572602522
 20
110.64637084023521
 30
0.0
 11
44.114755249834722
 21
110.64637084023521
 31
0.0
  0
LINE
  5
1CD8
  8
3
 10
43.806183821263168
 20
110.95494226880651
 30
0.0
 11
44.114755249834722
 21
110.64637084023521
 31
0.0
  0
LINE
  5
1CD9
  8
3
 10
44.114755249834722
 20
109.9301803640448
 30
0.0
 11
43.806183821263168
 21
109.6216089354732
 31
0.0
  0
LINE
  5
1CDA
  8
3
 10
44.83094572602522
 20
109.9301803640448
 30
0.0
 11
45.13951715459649
 21
109.6216089354732
 31
0.0
  0
LINE
  5
1CDB
  8
3
 10
44.83094572602522
 20
110.64637084023521
 30
0.0
 11
45.13951715459649
 21
110.95494226880651
 31
0.0
  0
LINE
  5
1CDC
  8
3
 10
44.114755249834722
 20
108.5968470307115
 30
0.0
 11
44.114755249834722
 21
109.31303750690191
 31
0.0
  0
LINE
  5
1CDD
  8
3
 10
44.83094572602522
 20
108.5968470307115
 30
0.0
 11
44.83094572602522
 21
109.31303750690191
 31
0.0
  0
LINE
  5
1CDE
  8
3
 10
44.83094572602522
 20
108.5968470307115
 30
0.0
 11
44.114755249834722
 21
108.5968470307115
 31
0.0
  0
LINE
  5
1CDF
  8
3
 10
44.83094572602522
 20
109.31303750690191
 30
0.0
 11
44.114755249834722
 21
109.31303750690191
 31
0.0
  0
LINE
  5
1CE0
  8
3
 10
43.806183821263168
 20
109.6216089354732
 30
0.0
 11
44.114755249834722
 21
109.31303750690191
 31
0.0
  0
LINE
  5
1CE1
  8
3
 10
44.114755249834722
 20
108.5968470307115
 30
0.0
 11
43.806183821263168
 21
108.2882756021399
 31
0.0
  0
LINE
  5
1CE2
  8
3
 10
44.83094572602522
 20
108.5968470307115
 30
0.0
 11
45.13951715459649
 21
108.2882756021399
 31
0.0
  0
LINE
  5
1CE3
  8
3
 10
44.83094572602522
 20
109.31303750690191
 30
0.0
 11
45.13951715459649
 21
109.6216089354732
 31
0.0
  0
LINE
  5
1CE4
  8
3
 10
44.114755249834722
 20
107.2635136973781
 30
0.0
 11
44.114755249834722
 21
107.97970417356861
 31
0.0
  0
LINE
  5
1CE5
  8
3
 10
44.83094572602522
 20
107.2635136973782
 30
0.0
 11
44.83094572602522
 21
107.97970417356861
 31
0.0
  0
LINE
  5
1CE6
  8
3
 10
44.83094572602522
 20
107.2635136973781
 30
0.0
 11
44.114755249834722
 21
107.2635136973781
 31
0.0
  0
LINE
  5
1CE7
  8
3
 10
44.83094572602522
 20
107.97970417356861
 30
0.0
 11
44.114755249834722
 21
107.97970417356861
 31
0.0
  0
LINE
  5
1CE8
  8
3
 10
43.806183821263168
 20
108.2882756021399
 30
0.0
 11
44.114755249834722
 21
107.97970417356861
 31
0.0
  0
LINE
  5
1CE9
  8
3
 10
44.114755249834722
 20
107.2635136973781
 30
0.0
 11
43.806183821263168
 21
106.9549422688066
 31
0.0
  0
LINE
  5
1CEA
  8
3
 10
44.83094572602522
 20
107.2635136973782
 30
0.0
 11
45.13951715459649
 21
106.9549422688066
 31
0.0
  0
LINE
  5
1CEB
  8
3
 10
44.83094572602522
 20
107.97970417356861
 30
0.0
 11
45.13951715459649
 21
108.2882756021399
 31
0.0
  0
LINE
  5
1CEC
  8
3
 10
44.83094572602522
 20
106.64637084023531
 30
0.0
 11
45.13951715459649
 21
106.9549422688066
 31
0.0
  0
LINE
  5
1CED
  8
3
 10
44.83094572602522
 20
105.9301803640448
 30
0.0
 11
45.13951715459649
 21
105.6216089354733
 31
0.0
  0
LINE
  5
1CEE
  8
3
 10
44.114755249834722
 20
105.9301803640448
 30
0.0
 11
43.806183821263168
 21
105.6216089354733
 31
0.0
  0
LINE
  5
1CEF
  8
3
 10
43.806183821263168
 20
106.9549422688066
 30
0.0
 11
44.114755249834722
 21
106.64637084023531
 31
0.0
  0
LINE
  5
1CF0
  8
3
 10
44.83094572602522
 20
106.64637084023531
 30
0.0
 11
44.114755249834722
 21
106.64637084023531
 31
0.0
  0
LINE
  5
1CF1
  8
3
 10
44.83094572602522
 20
105.9301803640448
 30
0.0
 11
44.114755249834722
 21
105.9301803640448
 31
0.0
  0
LINE
  5
1CF2
  8
3
 10
44.83094572602522
 20
105.9301803640448
 30
0.0
 11
44.83094572602522
 21
106.64637084023531
 31
0.0
  0
LINE
  5
1CF3
  8
3
 10
44.114755249834722
 20
105.9301803640448
 30
0.0
 11
44.114755249834722
 21
106.64637084023531
 31
0.0
  0
LINE
  5
1CF4
  8
3
 10
44.83094572602522
 20
115.2635136973781
 30
0.0
 11
44.830945726025213
 21
115.8198450122372
 31
0.0
  0
LINE
  5
1CF5
  8
3
 10
44.271181234020368
 20
115.97970417356851
 30
0.0
 11
44.114755249834722
 21
115.97970417356851
 31
0.0
  0
LINE
  5
1CF6
  8
3
 10
44.114755249834722
 20
115.263513697378
 30
0.0
 11
44.114755249834722
 21
115.97970417356851
 31
0.0
  0
LINE
  5
1CF7
  8
3
 10
46.164279059358527
 20
113.31303750690191
 30
0.0
 11
46.472850487929797
 21
113.62160893547311
 31
0.0
  0
LINE
  5
1CF8
  8
3
 10
46.164279059358527
 20
112.5968470307114
 30
0.0
 11
46.472850487929797
 21
112.28827560213981
 31
0.0
  0
LINE
  5
1CF9
  8
3
 10
45.448088583168037
 20
112.5968470307114
 30
0.0
 11
45.13951715459649
 21
112.28827560213981
 31
0.0
  0
LINE
  5
1CFA
  8
3
 10
45.13951715459649
 20
113.62160893547311
 30
0.0
 11
45.448088583168037
 21
113.31303750690191
 31
0.0
  0
LINE
  5
1CFB
  8
3
 10
46.164279059358527
 20
113.31303750690191
 30
0.0
 11
45.448088583168037
 21
113.31303750690191
 31
0.0
  0
LINE
  5
1CFC
  8
3
 10
46.164279059358527
 20
112.5968470307114
 30
0.0
 11
45.448088583168037
 21
112.5968470307114
 31
0.0
  0
LINE
  5
1CFD
  8
3
 10
46.164279059358527
 20
112.5968470307114
 30
0.0
 11
46.164279059358527
 21
113.31303750690191
 31
0.0
  0
LINE
  5
1CFE
  8
3
 10
45.448088583168037
 20
112.5968470307114
 30
0.0
 11
45.448088583168037
 21
113.31303750690191
 31
0.0
  0
LINE
  5
1CFF
  8
3
 10
46.164279059358527
 20
114.64637084023521
 30
0.0
 11
46.472850487929797
 21
114.95494226880651
 31
0.0
  0
LINE
  5
1D00
  8
3
 10
46.164279059358527
 20
113.9301803640447
 30
0.0
 11
46.472850487929797
 21
113.62160893547311
 31
0.0
  0
LINE
  5
1D01
  8
3
 10
45.448088583168037
 20
113.9301803640447
 30
0.0
 11
45.13951715459649
 21
113.62160893547311
 31
0.0
  0
LINE
  5
1D02
  8
3
 10
45.13951715459649
 20
114.95494226880651
 30
0.0
 11
45.448088583168037
 21
114.64637084023521
 31
0.0
  0
LINE
  5
1D03
  8
3
 10
46.164279059358527
 20
114.64637084023521
 30
0.0
 11
45.448088583168037
 21
114.64637084023521
 31
0.0
  0
LINE
  5
1D04
  8
3
 10
46.164279059358527
 20
113.9301803640447
 30
0.0
 11
45.448088583168037
 21
113.9301803640447
 31
0.0
  0
LINE
  5
1D05
  8
3
 10
46.164279059358527
 20
113.9301803640447
 30
0.0
 11
46.164279059358527
 21
114.64637084023521
 31
0.0
  0
LINE
  5
1D06
  8
3
 10
45.448088583168037
 20
113.9301803640447
 30
0.0
 11
45.448088583168037
 21
114.64637084023521
 31
0.0
  0
LINE
  5
1D07
  8
3
 10
46.164279059358527
 20
115.2635136973781
 30
0.0
 11
46.472850487929797
 21
114.95494226880651
 31
0.0
  0
LINE
  5
1D08
  8
3
 10
45.448088583168037
 20
115.263513697378
 30
0.0
 11
45.13951715459649
 21
114.95494226880651
 31
0.0
  0
LINE
  5
1D09
  8
3
 10
46.164279059358527
 20
115.263513697378
 30
0.0
 11
45.448088583168037
 21
115.263513697378
 31
0.0
  0
LINE
  5
1D0A
  8
3
 10
45.448088583168037
 20
111.2635136973781
 30
0.0
 11
45.448088583168037
 21
111.97970417356851
 31
0.0
  0
LINE
  5
1D0B
  8
3
 10
46.164279059358527
 20
111.2635136973781
 30
0.0
 11
46.164279059358527
 21
111.97970417356861
 31
0.0
  0
LINE
  5
1D0C
  8
3
 10
46.164279059358527
 20
111.2635136973781
 30
0.0
 11
45.448088583168037
 21
111.2635136973781
 31
0.0
  0
LINE
  5
1D0D
  8
3
 10
46.164279059358527
 20
111.97970417356861
 30
0.0
 11
45.448088583168037
 21
111.97970417356861
 31
0.0
  0
LINE
  5
1D0E
  8
3
 10
45.13951715459649
 20
112.28827560213981
 30
0.0
 11
45.448088583168037
 21
111.97970417356851
 31
0.0
  0
LINE
  5
1D0F
  8
3
 10
45.448088583168037
 20
111.2635136973781
 30
0.0
 11
45.13951715459649
 21
110.95494226880651
 31
0.0
  0
LINE
  5
1D10
  8
3
 10
46.164279059358527
 20
111.2635136973781
 30
0.0
 11
46.472850487929797
 21
110.95494226880651
 31
0.0
  0
LINE
  5
1D11
  8
3
 10
46.164279059358527
 20
111.97970417356861
 30
0.0
 11
46.472850487929797
 21
112.28827560213981
 31
0.0
  0
LINE
  5
1D12
  8
3
 10
45.448088583168037
 20
109.9301803640448
 30
0.0
 11
45.448088583168037
 21
110.64637084023521
 31
0.0
  0
LINE
  5
1D13
  8
3
 10
46.164279059358527
 20
109.9301803640448
 30
0.0
 11
46.164279059358527
 21
110.64637084023521
 31
0.0
  0
LINE
  5
1D14
  8
3
 10
46.164279059358527
 20
109.9301803640448
 30
0.0
 11
45.448088583168037
 21
109.9301803640448
 31
0.0
  0
LINE
  5
1D15
  8
3
 10
46.164279059358527
 20
110.64637084023521
 30
0.0
 11
45.448088583168037
 21
110.64637084023521
 31
0.0
  0
LINE
  5
1D16
  8
3
 10
45.13951715459649
 20
110.95494226880651
 30
0.0
 11
45.448088583168037
 21
110.64637084023521
 31
0.0
  0
LINE
  5
1D17
  8
3
 10
45.448088583168037
 20
109.9301803640448
 30
0.0
 11
45.13951715459649
 21
109.6216089354732
 31
0.0
  0
LINE
  5
1D18
  8
3
 10
46.164279059358527
 20
109.9301803640448
 30
0.0
 11
46.472850487929797
 21
109.6216089354732
 31
0.0
  0
LINE
  5
1D19
  8
3
 10
46.164279059358527
 20
110.64637084023521
 30
0.0
 11
46.472850487929797
 21
110.95494226880651
 31
0.0
  0
LINE
  5
1D1A
  8
3
 10
45.448088583168037
 20
108.5968470307115
 30
0.0
 11
45.448088583168037
 21
109.31303750690191
 31
0.0
  0
LINE
  5
1D1B
  8
3
 10
46.164279059358527
 20
108.5968470307115
 30
0.0
 11
46.164279059358527
 21
109.31303750690191
 31
0.0
  0
LINE
  5
1D1C
  8
3
 10
46.164279059358527
 20
108.5968470307115
 30
0.0
 11
45.448088583168037
 21
108.5968470307115
 31
0.0
  0
LINE
  5
1D1D
  8
3
 10
46.164279059358527
 20
109.31303750690191
 30
0.0
 11
45.448088583168037
 21
109.31303750690191
 31
0.0
  0
LINE
  5
1D1E
  8
3
 10
45.13951715459649
 20
109.6216089354732
 30
0.0
 11
45.448088583168037
 21
109.31303750690191
 31
0.0
  0
LINE
  5
1D1F
  8
3
 10
45.448088583168037
 20
108.5968470307115
 30
0.0
 11
45.13951715459649
 21
108.2882756021399
 31
0.0
  0
LINE
  5
1D20
  8
3
 10
46.164279059358527
 20
108.5968470307115
 30
0.0
 11
46.472850487929797
 21
108.2882756021399
 31
0.0
  0
LINE
  5
1D21
  8
3
 10
46.164279059358527
 20
109.31303750690191
 30
0.0
 11
46.472850487929797
 21
109.6216089354732
 31
0.0
  0
LINE
  5
1D22
  8
3
 10
45.448088583168037
 20
107.2635136973781
 30
0.0
 11
45.448088583168037
 21
107.97970417356861
 31
0.0
  0
LINE
  5
1D23
  8
3
 10
46.164279059358527
 20
107.2635136973782
 30
0.0
 11
46.164279059358527
 21
107.97970417356861
 31
0.0
  0
LINE
  5
1D24
  8
3
 10
46.164279059358527
 20
107.2635136973781
 30
0.0
 11
45.448088583168037
 21
107.2635136973781
 31
0.0
  0
LINE
  5
1D25
  8
3
 10
46.164279059358527
 20
107.97970417356861
 30
0.0
 11
45.448088583168037
 21
107.97970417356861
 31
0.0
  0
LINE
  5
1D26
  8
3
 10
45.13951715459649
 20
108.2882756021399
 30
0.0
 11
45.448088583168037
 21
107.97970417356861
 31
0.0
  0
LINE
  5
1D27
  8
3
 10
45.448088583168037
 20
107.2635136973781
 30
0.0
 11
45.13951715459649
 21
106.9549422688066
 31
0.0
  0
LINE
  5
1D28
  8
3
 10
46.164279059358527
 20
107.2635136973782
 30
0.0
 11
46.472850487929797
 21
106.9549422688066
 31
0.0
  0
LINE
  5
1D29
  8
3
 10
46.164279059358527
 20
107.97970417356861
 30
0.0
 11
46.472850487929797
 21
108.2882756021399
 31
0.0
  0
LINE
  5
1D2A
  8
3
 10
46.164279059358527
 20
106.64637084023531
 30
0.0
 11
46.472850487929797
 21
106.9549422688066
 31
0.0
  0
LINE
  5
1D2B
  8
3
 10
46.164279059358527
 20
105.9301803640448
 30
0.0
 11
46.472850487929797
 21
105.6216089354733
 31
0.0
  0
LINE
  5
1D2C
  8
3
 10
45.448088583168037
 20
105.9301803640448
 30
0.0
 11
45.13951715459649
 21
105.6216089354733
 31
0.0
  0
LINE
  5
1D2D
  8
3
 10
45.13951715459649
 20
106.9549422688066
 30
0.0
 11
45.448088583168037
 21
106.64637084023531
 31
0.0
  0
LINE
  5
1D2E
  8
3
 10
46.164279059358527
 20
106.64637084023531
 30
0.0
 11
45.448088583168037
 21
106.64637084023531
 31
0.0
  0
LINE
  5
1D2F
  8
3
 10
46.164279059358527
 20
105.9301803640448
 30
0.0
 11
45.448088583168037
 21
105.9301803640448
 31
0.0
  0
LINE
  5
1D30
  8
3
 10
46.164279059358527
 20
105.9301803640448
 30
0.0
 11
46.164279059358527
 21
106.64637084023531
 31
0.0
  0
LINE
  5
1D31
  8
3
 10
45.448088583168037
 20
105.9301803640448
 30
0.0
 11
45.448088583168037
 21
106.64637084023531
 31
0.0
  0
LINE
  5
1D32
  8
3
 10
46.164279059358527
 20
115.2635136973781
 30
0.0
 11
46.164279059358527
 21
115.2886648101516
 31
0.0
  0
LINE
  5
1D34
  8
3
 10
45.448088583168037
 20
115.263513697378
 30
0.0
 11
45.448088583168037
 21
115.6015204558532
 31
0.0
  0
LINE
  5
1D35
  8
3
 10
47.497612392691849
 20
113.31303750690191
 30
0.0
 11
47.806183821263119
 21
113.62160893547311
 31
0.0
  0
LINE
  5
1D36
  8
3
 10
47.497612392691849
 20
112.5968470307114
 30
0.0
 11
47.806183821263119
 21
112.28827560213981
 31
0.0
  0
LINE
  5
1D37
  8
3
 10
46.781421916501358
 20
112.5968470307114
 30
0.0
 11
46.472850487929797
 21
112.28827560213981
 31
0.0
  0
LINE
  5
1D38
  8
3
 10
46.472850487929797
 20
113.62160893547311
 30
0.0
 11
46.781421916501358
 21
113.31303750690191
 31
0.0
  0
LINE
  5
1D39
  8
3
 10
47.497612392691849
 20
113.31303750690191
 30
0.0
 11
46.781421916501358
 21
113.31303750690191
 31
0.0
  0
LINE
  5
1D3A
  8
3
 10
47.497612392691849
 20
112.5968470307114
 30
0.0
 11
46.781421916501358
 21
112.5968470307114
 31
0.0
  0
LINE
  5
1D3B
  8
3
 10
47.497612392691849
 20
112.5968470307114
 30
0.0
 11
47.497612392691849
 21
113.31303750690191
 31
0.0
  0
LINE
  5
1D3C
  8
3
 10
46.781421916501358
 20
112.5968470307114
 30
0.0
 11
46.781421916501358
 21
113.31303750690191
 31
0.0
  0
LINE
  5
1D3E
  8
3
 10
47.497612392691849
 20
113.9301803640447
 30
0.0
 11
47.806183821263119
 21
113.62160893547311
 31
0.0
  0
LINE
  5
1D3F
  8
3
 10
46.781421916501358
 20
113.9301803640447
 30
0.0
 11
46.472850487929797
 21
113.62160893547311
 31
0.0
  0
LINE
  5
1D40
  8
3
 10
46.472850487929797
 20
114.95494226880651
 30
0.0
 11
46.781421916501358
 21
114.64637084023521
 31
0.0
  0
LINE
  5
1D41
  8
3
 10
47.29637908108149
 20
114.64637084023521
 30
0.0
 11
46.781421916501358
 21
114.64637084023521
 31
0.0
  0
LINE
  5
1D42
  8
3
 10
47.497612392691849
 20
113.9301803640447
 30
0.0
 11
46.781421916501358
 21
113.9301803640447
 31
0.0
  0
LINE
  5
1D43
  8
3
 10
47.497612392691849
 20
113.9301803640447
 30
0.0
 11
47.497612392691849
 21
114.51066216665561
 31
0.0
  0
LINE
  5
1D44
  8
3
 10
46.781421916501358
 20
113.9301803640447
 30
0.0
 11
46.781421916501358
 21
114.64637084023521
 31
0.0
  0
LINE
  5
1D46
  8
3
 10
46.58851380438859
 20
115.0706055852653
 30
0.0
 11
46.472850487929797
 21
114.95494226880651
 31
0.0
  0
LINE
  5
1D48
  8
3
 10
46.781421916501358
 20
111.2635136973781
 30
0.0
 11
46.781421916501358
 21
111.97970417356851
 31
0.0
  0
LINE
  5
1D49
  8
3
 10
47.497612392691849
 20
111.2635136973781
 30
0.0
 11
47.497612392691849
 21
111.97970417356861
 31
0.0
  0
LINE
  5
1D4A
  8
3
 10
47.497612392691849
 20
111.2635136973781
 30
0.0
 11
46.781421916501358
 21
111.2635136973781
 31
0.0
  0
LINE
  5
1D4B
  8
3
 10
47.497612392691849
 20
111.97970417356861
 30
0.0
 11
46.781421916501358
 21
111.97970417356861
 31
0.0
  0
LINE
  5
1D4C
  8
3
 10
46.472850487929797
 20
112.28827560213981
 30
0.0
 11
46.781421916501358
 21
111.97970417356851
 31
0.0
  0
LINE
  5
1D4D
  8
3
 10
46.781421916501358
 20
111.2635136973781
 30
0.0
 11
46.472850487929797
 21
110.95494226880651
 31
0.0
  0
LINE
  5
1D4E
  8
3
 10
47.497612392691849
 20
111.2635136973781
 30
0.0
 11
47.806183821263119
 21
110.95494226880651
 31
0.0
  0
LINE
  5
1D4F
  8
3
 10
47.497612392691849
 20
111.97970417356861
 30
0.0
 11
47.806183821263119
 21
112.28827560213981
 31
0.0
  0
LINE
  5
1D50
  8
3
 10
46.781421916501358
 20
109.9301803640448
 30
0.0
 11
46.781421916501358
 21
110.64637084023521
 31
0.0
  0
LINE
  5
1D51
  8
3
 10
47.497612392691849
 20
109.9301803640448
 30
0.0
 11
47.497612392691849
 21
110.64637084023521
 31
0.0
  0
LINE
  5
1D52
  8
3
 10
47.497612392691849
 20
109.9301803640448
 30
0.0
 11
46.781421916501358
 21
109.9301803640448
 31
0.0
  0
LINE
  5
1D53
  8
3
 10
47.497612392691849
 20
110.64637084023521
 30
0.0
 11
46.781421916501358
 21
110.64637084023521
 31
0.0
  0
LINE
  5
1D54
  8
3
 10
46.472850487929797
 20
110.95494226880651
 30
0.0
 11
46.781421916501358
 21
110.64637084023521
 31
0.0
  0
LINE
  5
1D55
  8
3
 10
46.781421916501358
 20
109.9301803640448
 30
0.0
 11
46.472850487929797
 21
109.6216089354732
 31
0.0
  0
LINE
  5
1D56
  8
3
 10
47.497612392691849
 20
109.9301803640448
 30
0.0
 11
47.806183821263119
 21
109.6216089354732
 31
0.0
  0
LINE
  5
1D57
  8
3
 10
47.497612392691849
 20
110.64637084023521
 30
0.0
 11
47.806183821263119
 21
110.95494226880651
 31
0.0
  0
LINE
  5
1D58
  8
3
 10
46.781421916501358
 20
108.5968470307115
 30
0.0
 11
46.781421916501358
 21
109.31303750690191
 31
0.0
  0
LINE
  5
1D59
  8
3
 10
47.497612392691849
 20
108.5968470307115
 30
0.0
 11
47.497612392691849
 21
109.31303750690191
 31
0.0
  0
LINE
  5
1D5A
  8
3
 10
47.497612392691849
 20
108.5968470307115
 30
0.0
 11
46.781421916501358
 21
108.5968470307115
 31
0.0
  0
LINE
  5
1D5B
  8
3
 10
47.497612392691849
 20
109.31303750690191
 30
0.0
 11
46.781421916501358
 21
109.31303750690191
 31
0.0
  0
LINE
  5
1D5C
  8
3
 10
46.472850487929797
 20
109.6216089354732
 30
0.0
 11
46.781421916501358
 21
109.31303750690191
 31
0.0
  0
LINE
  5
1D5D
  8
3
 10
46.781421916501358
 20
108.5968470307115
 30
0.0
 11
46.472850487929797
 21
108.2882756021399
 31
0.0
  0
LINE
  5
1D5E
  8
3
 10
47.497612392691849
 20
108.5968470307115
 30
0.0
 11
47.806183821263119
 21
108.2882756021399
 31
0.0
  0
LINE
  5
1D5F
  8
3
 10
47.497612392691849
 20
109.31303750690191
 30
0.0
 11
47.806183821263119
 21
109.6216089354732
 31
0.0
  0
LINE
  5
1D60
  8
3
 10
46.781421916501358
 20
107.2635136973781
 30
0.0
 11
46.781421916501358
 21
107.97970417356861
 31
0.0
  0
LINE
  5
1D61
  8
3
 10
47.497612392691849
 20
107.2635136973782
 30
0.0
 11
47.497612392691849
 21
107.97970417356861
 31
0.0
  0
LINE
  5
1D62
  8
3
 10
47.497612392691849
 20
107.2635136973781
 30
0.0
 11
46.781421916501358
 21
107.2635136973781
 31
0.0
  0
LINE
  5
1D63
  8
3
 10
47.497612392691849
 20
107.97970417356861
 30
0.0
 11
46.781421916501358
 21
107.97970417356861
 31
0.0
  0
LINE
  5
1D64
  8
3
 10
46.472850487929797
 20
108.2882756021399
 30
0.0
 11
46.781421916501358
 21
107.97970417356861
 31
0.0
  0
LINE
  5
1D65
  8
3
 10
46.781421916501358
 20
107.2635136973781
 30
0.0
 11
46.472850487929797
 21
106.9549422688066
 31
0.0
  0
LINE
  5
1D66
  8
3
 10
47.497612392691849
 20
107.2635136973782
 30
0.0
 11
47.806183821263119
 21
106.9549422688066
 31
0.0
  0
LINE
  5
1D67
  8
3
 10
47.497612392691849
 20
107.97970417356861
 30
0.0
 11
47.806183821263119
 21
108.2882756021399
 31
0.0
  0
LINE
  5
1D68
  8
3
 10
47.497612392691849
 20
106.64637084023531
 30
0.0
 11
47.806183821263119
 21
106.9549422688066
 31
0.0
  0
LINE
  5
1D69
  8
3
 10
47.497612392691849
 20
105.9301803640448
 30
0.0
 11
47.806183821263119
 21
105.6216089354733
 31
0.0
  0
LINE
  5
1D6A
  8
3
 10
46.781421916501358
 20
105.9301803640448
 30
0.0
 11
46.472850487929797
 21
105.6216089354733
 31
0.0
  0
LINE
  5
1D6B
  8
3
 10
46.472850487929797
 20
106.9549422688066
 30
0.0
 11
46.781421916501358
 21
106.64637084023531
 31
0.0
  0
LINE
  5
1D6C
  8
3
 10
47.497612392691849
 20
106.64637084023531
 30
0.0
 11
46.781421916501358
 21
106.64637084023531
 31
0.0
  0
LINE
  5
1D6D
  8
3
 10
47.497612392691849
 20
105.9301803640448
 30
0.0
 11
46.781421916501358
 21
105.9301803640448
 31
0.0
  0
LINE
  5
1D6E
  8
3
 10
47.497612392691849
 20
105.9301803640448
 30
0.0
 11
47.497612392691849
 21
106.64637084023531
 31
0.0
  0
LINE
  5
1D6F
  8
3
 10
46.781421916501358
 20
105.9301803640448
 30
0.0
 11
46.781421916501358
 21
106.64637084023531
 31
0.0
  0
LINE
  5
1D73
  8
3
 10
48.114755249834673
 20
105.9301803640448
 30
0.0
 11
48.114755249834673
 21
106.64637084023531
 31
0.0
  0
LINE
  5
1D74
  8
3
 10
48.830945726025163
 20
105.9301803640448
 30
0.0
 11
48.830945726025163
 21
106.64637084023531
 31
0.0
  0
LINE
  5
1D75
  8
3
 10
48.830945726025163
 20
105.9301803640448
 30
0.0
 11
48.114755249834673
 21
105.9301803640448
 31
0.0
  0
LINE
  5
1D76
  8
3
 10
48.830945726025163
 20
106.64637084023531
 30
0.0
 11
48.114755249834673
 21
106.64637084023531
 31
0.0
  0
LINE
  5
1D77
  8
3
 10
47.806183821263119
 20
106.9549422688066
 30
0.0
 11
48.114755249834673
 21
106.64637084023531
 31
0.0
  0
LINE
  5
1D78
  8
3
 10
48.114755249834673
 20
105.9301803640448
 30
0.0
 11
47.806183821263119
 21
105.6216089354732
 31
0.0
  0
LINE
  5
1D79
  8
3
 10
48.830945726025163
 20
105.9301803640448
 30
0.0
 11
49.139517154596433
 21
105.6216089354732
 31
0.0
  0
LINE
  5
1D7A
  8
3
 10
48.830945726025163
 20
106.64637084023531
 30
0.0
 11
49.139517154596433
 21
106.9549422688066
 31
0.0
  0
LINE
  5
1D7B
  8
3
 10
48.830945726025163
 20
107.97970417356861
 30
0.0
 11
49.139517154596433
 21
108.2882756021399
 31
0.0
  0
LINE
  5
1D7C
  8
3
 10
48.830945726025163
 20
107.2635136973781
 30
0.0
 11
49.139517154596433
 21
106.9549422688066
 31
0.0
  0
LINE
  5
1D7D
  8
3
 10
48.114755249834673
 20
107.2635136973781
 30
0.0
 11
47.806183821263119
 21
106.9549422688066
 31
0.0
  0
LINE
  5
1D7E
  8
3
 10
47.806183821263119
 20
108.2882756021399
 30
0.0
 11
48.114755249834673
 21
107.97970417356861
 31
0.0
  0
LINE
  5
1D7F
  8
3
 10
48.830945726025163
 20
107.97970417356861
 30
0.0
 11
48.114755249834673
 21
107.97970417356861
 31
0.0
  0
LINE
  5
1D80
  8
3
 10
48.830945726025163
 20
107.2635136973781
 30
0.0
 11
48.114755249834673
 21
107.2635136973781
 31
0.0
  0
LINE
  5
1D81
  8
3
 10
48.830945726025163
 20
107.2635136973781
 30
0.0
 11
48.830945726025163
 21
107.97970417356861
 31
0.0
  0
LINE
  5
1D82
  8
3
 10
48.114755249834673
 20
107.2635136973781
 30
0.0
 11
48.114755249834673
 21
107.97970417356861
 31
0.0
  0
LINE
  5
1D83
  8
3
 10
48.830945726025163
 20
109.31303750690191
 30
0.0
 11
49.139517154596433
 21
109.6216089354732
 31
0.0
  0
LINE
  5
1D84
  8
3
 10
48.830945726025163
 20
108.5968470307115
 30
0.0
 11
49.139517154596433
 21
108.2882756021399
 31
0.0
  0
LINE
  5
1D85
  8
3
 10
48.114755249834673
 20
108.5968470307114
 30
0.0
 11
47.806183821263119
 21
108.2882756021399
 31
0.0
  0
LINE
  5
1D86
  8
3
 10
47.806183821263119
 20
109.6216089354732
 30
0.0
 11
48.114755249834673
 21
109.31303750690191
 31
0.0
  0
LINE
  5
1D87
  8
3
 10
48.830945726025163
 20
109.31303750690191
 30
0.0
 11
48.114755249834673
 21
109.31303750690191
 31
0.0
  0
LINE
  5
1D88
  8
3
 10
48.830945726025163
 20
108.5968470307115
 30
0.0
 11
48.114755249834673
 21
108.5968470307114
 31
0.0
  0
LINE
  5
1D89
  8
3
 10
48.830945726025163
 20
108.5968470307115
 30
0.0
 11
48.830945726025163
 21
109.31303750690191
 31
0.0
  0
LINE
  5
1D8A
  8
3
 10
48.114755249834673
 20
108.5968470307115
 30
0.0
 11
48.114755249834673
 21
109.31303750690191
 31
0.0
  0
LINE
  5
1D8B
  8
3
 10
48.830945726025163
 20
110.64637084023521
 30
0.0
 11
49.139517154596433
 21
110.95494226880651
 31
0.0
  0
LINE
  5
1D8C
  8
3
 10
48.830945726025163
 20
109.9301803640448
 30
0.0
 11
49.139517154596433
 21
109.6216089354732
 31
0.0
  0
LINE
  5
1D8D
  8
3
 10
48.114755249834673
 20
109.9301803640448
 30
0.0
 11
47.806183821263119
 21
109.6216089354732
 31
0.0
  0
LINE
  5
1D8E
  8
3
 10
47.806183821263119
 20
110.95494226880651
 30
0.0
 11
48.114755249834673
 21
110.64637084023521
 31
0.0
  0
LINE
  5
1D8F
  8
3
 10
48.830945726025163
 20
110.64637084023521
 30
0.0
 11
48.114755249834673
 21
110.64637084023521
 31
0.0
  0
LINE
  5
1D90
  8
3
 10
48.830945726025163
 20
109.9301803640448
 30
0.0
 11
48.114755249834673
 21
109.9301803640448
 31
0.0
  0
LINE
  5
1D91
  8
3
 10
48.830945726025163
 20
109.9301803640448
 30
0.0
 11
48.830945726025163
 21
110.64637084023521
 31
0.0
  0
LINE
  5
1D92
  8
3
 10
48.114755249834673
 20
109.9301803640448
 30
0.0
 11
48.114755249834673
 21
110.64637084023521
 31
0.0
  0
LINE
  5
1D93
  8
3
 10
48.830945726025163
 20
111.97970417356851
 30
0.0
 11
49.139517154596433
 21
112.28827560213981
 31
0.0
  0
LINE
  5
1D94
  8
3
 10
48.830945726025163
 20
111.2635136973781
 30
0.0
 11
49.139517154596433
 21
110.95494226880651
 31
0.0
  0
LINE
  5
1D95
  8
3
 10
48.114755249834673
 20
111.2635136973781
 30
0.0
 11
47.806183821263119
 21
110.95494226880651
 31
0.0
  0
LINE
  5
1D96
  8
3
 10
47.806183821263119
 20
112.28827560213981
 30
0.0
 11
48.114755249834673
 21
111.97970417356851
 31
0.0
  0
LINE
  5
1D97
  8
3
 10
48.830945726025163
 20
111.97970417356851
 30
0.0
 11
48.114755249834673
 21
111.97970417356851
 31
0.0
  0
LINE
  5
1D98
  8
3
 10
48.830945726025163
 20
111.2635136973781
 30
0.0
 11
48.114755249834673
 21
111.2635136973781
 31
0.0
  0
LINE
  5
1D99
  8
3
 10
48.830945726025163
 20
111.2635136973781
 30
0.0
 11
48.830945726025163
 21
111.97970417356851
 31
0.0
  0
LINE
  5
1D9A
  8
3
 10
48.114755249834673
 20
111.2635136973781
 30
0.0
 11
48.114755249834673
 21
111.97970417356851
 31
0.0
  0
LINE
  5
1D9B
  8
3
 10
48.114755249834673
 20
112.5968470307114
 30
0.0
 11
48.114755249834673
 21
113.31303750690179
 31
0.0
  0
LINE
  5
1D9C
  8
3
 10
48.830945726025163
 20
112.5968470307114
 30
0.0
 11
48.830945726025163
 21
113.31303750690191
 31
0.0
  0
LINE
  5
1D9D
  8
3
 10
48.830945726025163
 20
112.5968470307114
 30
0.0
 11
48.114755249834673
 21
112.5968470307114
 31
0.0
  0
LINE
  5
1D9E
  8
3
 10
48.830945726025163
 20
113.31303750690191
 30
0.0
 11
48.114755249834673
 21
113.31303750690191
 31
0.0
  0
LINE
  5
1D9F
  8
3
 10
47.806183821263119
 20
113.62160893547311
 30
0.0
 11
48.114755249834673
 21
113.31303750690179
 31
0.0
  0
LINE
  5
1DA0
  8
3
 10
48.114755249834673
 20
112.5968470307114
 30
0.0
 11
47.806183821263119
 21
112.28827560213981
 31
0.0
  0
LINE
  5
1DA1
  8
3
 10
48.830945726025163
 20
112.5968470307114
 30
0.0
 11
49.139517154596433
 21
112.28827560213981
 31
0.0
  0
LINE
  5
1DA2
  8
3
 10
48.830945726025163
 20
113.31303750690191
 30
0.0
 11
48.877251633128779
 21
113.35934341400549
 31
0.0
  0
LINE
  5
1DA3
  8
3
 10
49.448088583168001
 20
112.5968470307114
 30
0.0
 11
49.139517154596447
 21
112.28827560213981
 31
0.0
  0
LINE
  5
1DA4
  8
3
 10
49.565173867049708
 20
112.5968470307114
 30
0.0
 11
49.448088583168001
 21
112.5968470307114
 31
0.0
  0
LINE
  5
1DA5
  8
3
 10
49.448088583168001
 20
112.5968470307114
 30
0.0
 11
49.448088583167987
 21
112.73818192781469
 31
0.0
  0
LINE
  5
1DA7
  8
3
 10
49.448088583168001
 20
111.2635136973781
 30
0.0
 11
49.448088583168001
 21
111.97970417356851
 31
0.0
  0
LINE
  5
1DA8
  8
3
 10
50.164279059358492
 20
111.2635136973781
 30
0.0
 11
50.164279059358492
 21
111.7784708619582
 31
0.0
  0
LINE
  5
1DA9
  8
3
 10
50.164279059358492
 20
111.2635136973781
 30
0.0
 11
49.448088583168001
 21
111.2635136973781
 31
0.0
  0
LINE
  5
1DAA
  8
3
 10
50.028570385778892
 20
111.97970417356861
 30
0.0
 11
49.448088583168001
 21
111.97970417356851
 31
0.0
  0
LINE
  5
1DAB
  8
3
 10
49.139517154596447
 20
112.28827560213981
 30
0.0
 11
49.448088583168001
 21
111.97970417356851
 31
0.0
  0
LINE
  5
1DAC
  8
3
 10
49.448088583168001
 20
111.2635136973781
 30
0.0
 11
49.139517154596447
 21
110.95494226880651
 31
0.0
  0
LINE
  5
1DAD
  8
3
 10
50.164279059358492
 20
111.2635136973781
 30
0.0
 11
50.472850487929762
 21
110.95494226880651
 31
0.0
  0
LINE
  5
1DAF
  8
3
 10
49.448088583168001
 20
109.9301803640448
 30
0.0
 11
49.448088583168001
 21
110.64637084023521
 31
0.0
  0
LINE
  5
1DB0
  8
3
 10
50.164279059358492
 20
109.9301803640448
 30
0.0
 11
50.164279059358492
 21
110.64637084023521
 31
0.0
  0
LINE
  5
1DB1
  8
3
 10
50.164279059358492
 20
109.9301803640448
 30
0.0
 11
49.448088583168001
 21
109.9301803640448
 31
0.0
  0
LINE
  5
1DB2
  8
3
 10
50.164279059358492
 20
110.64637084023521
 30
0.0
 11
49.448088583168001
 21
110.64637084023521
 31
0.0
  0
LINE
  5
1DB3
  8
3
 10
49.139517154596447
 20
110.95494226880651
 30
0.0
 11
49.448088583168001
 21
110.64637084023521
 31
0.0
  0
LINE
  5
1DB4
  8
3
 10
49.448088583168001
 20
109.9301803640448
 30
0.0
 11
49.139517154596447
 21
109.6216089354732
 31
0.0
  0
LINE
  5
1DB5
  8
3
 10
50.164279059358492
 20
109.9301803640448
 30
0.0
 11
50.472850487929762
 21
109.6216089354732
 31
0.0
  0
LINE
  5
1DB6
  8
3
 10
50.164279059358492
 20
110.64637084023521
 30
0.0
 11
50.472850487929762
 21
110.95494226880651
 31
0.0
  0
LINE
  5
1DB7
  8
3
 10
49.448088583168001
 20
108.5968470307115
 30
0.0
 11
49.448088583168001
 21
109.31303750690191
 31
0.0
  0
LINE
  5
1DB8
  8
3
 10
50.164279059358492
 20
108.5968470307115
 30
0.0
 11
50.164279059358492
 21
109.31303750690191
 31
0.0
  0
LINE
  5
1DB9
  8
3
 10
50.164279059358492
 20
108.5968470307115
 30
0.0
 11
49.448088583168001
 21
108.5968470307114
 31
0.0
  0
LINE
  5
1DBA
  8
3
 10
50.164279059358492
 20
109.31303750690191
 30
0.0
 11
49.448088583168001
 21
109.31303750690191
 31
0.0
  0
LINE
  5
1DBB
  8
3
 10
49.139517154596447
 20
109.6216089354732
 30
0.0
 11
49.448088583168001
 21
109.31303750690191
 31
0.0
  0
LINE
  5
1DBC
  8
3
 10
49.448088583168001
 20
108.5968470307114
 30
0.0
 11
49.139517154596447
 21
108.2882756021399
 31
0.0
  0
LINE
  5
1DBD
  8
3
 10
50.164279059358492
 20
108.5968470307115
 30
0.0
 11
50.472850487929762
 21
108.2882756021399
 31
0.0
  0
LINE
  5
1DBE
  8
3
 10
50.164279059358492
 20
109.31303750690191
 30
0.0
 11
50.472850487929762
 21
109.6216089354732
 31
0.0
  0
LINE
  5
1DBF
  8
3
 10
49.448088583168001
 20
107.2635136973781
 30
0.0
 11
49.448088583168001
 21
107.97970417356861
 31
0.0
  0
LINE
  5
1DC0
  8
3
 10
50.164279059358492
 20
107.2635136973781
 30
0.0
 11
50.164279059358492
 21
107.97970417356861
 31
0.0
  0
LINE
  5
1DC1
  8
3
 10
50.164279059358492
 20
107.2635136973781
 30
0.0
 11
49.448088583168001
 21
107.2635136973781
 31
0.0
  0
LINE
  5
1DC2
  8
3
 10
50.164279059358492
 20
107.97970417356861
 30
0.0
 11
49.448088583168001
 21
107.97970417356861
 31
0.0
  0
LINE
  5
1DC3
  8
3
 10
49.139517154596447
 20
108.2882756021399
 30
0.0
 11
49.448088583168001
 21
107.97970417356861
 31
0.0
  0
LINE
  5
1DC4
  8
3
 10
49.448088583168001
 20
107.2635136973781
 30
0.0
 11
49.139517154596447
 21
106.9549422688066
 31
0.0
  0
LINE
  5
1DC5
  8
3
 10
50.164279059358492
 20
107.2635136973781
 30
0.0
 11
50.472850487929762
 21
106.9549422688066
 31
0.0
  0
LINE
  5
1DC6
  8
3
 10
50.164279059358492
 20
107.97970417356861
 30
0.0
 11
50.472850487929762
 21
108.2882756021399
 31
0.0
  0
LINE
  5
1DC7
  8
3
 10
50.164279059358492
 20
106.64637084023531
 30
0.0
 11
50.472850487929762
 21
106.9549422688066
 31
0.0
  0
LINE
  5
1DC8
  8
3
 10
50.164279059358492
 20
105.9301803640448
 30
0.0
 11
50.472850487929762
 21
105.6216089354732
 31
0.0
  0
LINE
  5
1DC9
  8
3
 10
49.448088583168001
 20
105.9301803640448
 30
0.0
 11
49.139517154596447
 21
105.6216089354732
 31
0.0
  0
LINE
  5
1DCA
  8
3
 10
49.139517154596447
 20
106.9549422688066
 30
0.0
 11
49.448088583168001
 21
106.64637084023531
 31
0.0
  0
LINE
  5
1DCB
  8
3
 10
50.164279059358492
 20
106.64637084023531
 30
0.0
 11
49.448088583168001
 21
106.64637084023531
 31
0.0
  0
LINE
  5
1DCC
  8
3
 10
50.164279059358492
 20
105.9301803640448
 30
0.0
 11
49.448088583168001
 21
105.9301803640448
 31
0.0
  0
LINE
  5
1DCD
  8
3
 10
50.164279059358492
 20
105.9301803640448
 30
0.0
 11
50.164279059358492
 21
106.64637084023531
 31
0.0
  0
LINE
  5
1DCE
  8
3
 10
49.448088583168001
 20
105.9301803640448
 30
0.0
 11
49.448088583168001
 21
106.64637084023531
 31
0.0
  0
LINE
  5
1DCF
  8
3
 10
50.781421916501301
 20
105.9301803640448
 30
0.0
 11
50.781421916501301
 21
106.64637084023531
 31
0.0
  0
LINE
  5
1DD0
  8
3
 10
51.497612392691792
 20
105.9301803640448
 30
0.0
 11
51.497612392691792
 21
106.64637084023531
 31
0.0
  0
LINE
  5
1DD1
  8
3
 10
51.497612392691792
 20
105.9301803640448
 30
0.0
 11
50.781421916501301
 21
105.9301803640448
 31
0.0
  0
LINE
  5
1DD2
  8
3
 10
51.497612392691792
 20
106.64637084023531
 30
0.0
 11
50.781421916501301
 21
106.64637084023531
 31
0.0
  0
LINE
  5
1DD3
  8
3
 10
50.472850487929747
 20
106.95494226880651
 30
0.0
 11
50.781421916501301
 21
106.64637084023531
 31
0.0
  0
LINE
  5
1DD4
  8
3
 10
50.781421916501301
 20
105.9301803640448
 30
0.0
 11
50.472850487929747
 21
105.6216089354732
 31
0.0
  0
LINE
  5
1DD5
  8
3
 10
51.497612392691792
 20
105.9301803640448
 30
0.0
 11
51.785309638099683
 21
105.6424831186367
 31
0.0
  0
LINE
  5
1DD6
  8
3
 10
51.497612392691792
 20
106.64637084023531
 30
0.0
 11
51.78530963809969
 21
106.9340680856432
 31
0.0
  0
LINE
  5
1DD7
  8
3
 10
51.497612392691792
 20
107.97970417356861
 30
0.0
 11
51.637135716108567
 21
108.1192274969854
 31
0.0
  0
LINE
  5
1DD8
  8
3
 10
51.497612392691792
 20
107.2635136973781
 30
0.0
 11
51.782313246991357
 21
106.9788128430783
 31
0.0
  0
LINE
  5
1DD9
  8
3
 10
50.781421916501301
 20
107.2635136973781
 30
0.0
 11
50.472850487929747
 21
106.95494226880651
 31
0.0
  0
LINE
  5
1DDA
  8
3
 10
50.472850487929747
 20
108.2882756021399
 30
0.0
 11
50.781421916501301
 21
107.97970417356861
 31
0.0
  0
LINE
  5
1DDB
  8
3
 10
51.497612392691792
 20
107.97970417356861
 30
0.0
 11
50.781421916501301
 21
107.97970417356861
 31
0.0
  0
LINE
  5
1DDC
  8
3
 10
51.497612392691792
 20
107.2635136973781
 30
0.0
 11
50.781421916501301
 21
107.2635136973781
 31
0.0
  0
LINE
  5
1DDD
  8
3
 10
51.497612392691792
 20
107.2635136973781
 30
0.0
 11
51.497612392691792
 21
107.97970417356861
 31
0.0
  0
LINE
  5
1DDE
  8
3
 10
50.781421916501301
 20
107.2635136973781
 30
0.0
 11
50.781421916501301
 21
107.97970417356861
 31
0.0
  0
LINE
  5
1DE0
  8
3
 10
51.497612392691792
 20
108.5968470307115
 30
0.0
 11
51.547841208037262
 21
108.5466182153659
 31
0.0
  0
LINE
  5
1DE1
  8
3
 10
50.781421916501301
 20
108.5968470307114
 30
0.0
 11
50.472850487929747
 21
108.2882756021399
 31
0.0
  0
LINE
  5
1DE2
  8
3
 10
50.472850487929747
 20
109.6216089354732
 30
0.0
 11
50.781421916501301
 21
109.31303750690191
 31
0.0
  0
LINE
  5
1DE3
  8
3
 10
51.337753231360509
 20
109.31303750690191
 30
0.0
 11
50.781421916501301
 21
109.31303750690191
 31
0.0
  0
LINE
  5
1DE4
  8
3
 10
51.497612392691792
 20
108.5968470307114
 30
0.0
 11
50.781421916501301
 21
108.5968470307114
 31
0.0
  0
LINE
  5
1DE5
  8
3
 10
51.497612392691792
 20
108.5968470307115
 30
0.0
 11
51.497612392691792
 21
108.7532730148971
 31
0.0
  0
LINE
  5
1DE6
  8
3
 10
50.781421916501301
 20
108.5968470307114
 30
0.0
 11
50.781421916501301
 21
109.31303750690191
 31
0.0
  0
LINE
  5
1DE9
  8
3
 10
50.781421916501301
 20
109.9301803640447
 30
0.0
 11
50.472850487929747
 21
109.6216089354732
 31
0.0
  0
LINE
  5
1DEA
  8
3
 10
50.472850487929747
 20
110.95494226880651
 30
0.0
 11
50.781421916501301
 21
110.64637084023521
 31
0.0
  0
LINE
  5
1DEB
  8
3
 10
50.806573029274887
 20
110.64637084023521
 30
0.0
 11
50.781421916501301
 21
110.64637084023521
 31
0.0
  0
LINE
  5
1DEC
  8
3
 10
51.11942867497649
 20
109.9301803640448
 30
0.0
 11
50.781421916501301
 21
109.9301803640447
 31
0.0
  0
LINE
  5
1DEE
  8
3
 10
50.781421916501301
 20
109.9301803640448
 30
0.0
 11
50.781421916501301
 21
110.64637084023521
 31
0.0
  0
LINE
  5
1DEF
  8
3
 10
32.830945726025377
 20
109.9301803640452
 30
0.0
 11
32.830945726025419
 21
110.6463708402356
 31
0.0
  0
LINE
  5
1DF0
  8
3
 10
32.492938967550181
 20
109.9301803640452
 30
0.0
 11
32.830945726025377
 21
109.9301803640452
 31
0.0
  0
LINE
  5
1DF1
  8
3
 10
32.80579461325182
 20
110.6463708402357
 30
0.0
 11
32.830945726025419
 21
110.6463708402357
 31
0.0
  0
LINE
  5
1DF2
  8
3
 10
33.13951715459698
 20
110.9549422688069
 30
0.0
 11
32.830945726025419
 21
110.6463708402356
 31
0.0
  0
LINE
  5
1DF3
  8
3
 10
32.830945726025377
 20
109.9301803640452
 30
0.0
 11
33.139517154596923
 21
109.6216089354736
 31
0.0
  0
LINE
  5
1DF4
  8
3
 10
32.830945726025313
 20
108.5968470307119
 30
0.0
 11
32.830945726025348
 21
109.3130375069023
 31
0.0
  0
LINE
  5
1DF5
  8
3
 10
32.114755249834822
 20
108.5968470307119
 30
0.0
 11
32.114755249834829
 21
108.7532730148976
 31
0.0
  0
LINE
  5
1DF6
  8
3
 10
32.114755249834822
 20
108.5968470307119
 30
0.0
 11
32.830945726025313
 21
108.5968470307119
 31
0.0
  0
LINE
  5
1DF7
  8
3
 10
32.274614411166141
 20
109.3130375069024
 30
0.0
 11
32.830945726025348
 21
109.3130375069024
 31
0.0
  0
LINE
  5
1DF8
  8
3
 10
33.139517154596923
 20
109.6216089354736
 30
0.0
 11
32.830945726025348
 21
109.3130375069023
 31
0.0
  0
LINE
  5
1DF9
  8
3
 10
32.830945726025313
 20
108.5968470307119
 30
0.0
 11
33.139517154596859
 21
108.2882756021403
 31
0.0
  0
LINE
  5
1DFA
  8
3
 10
32.114755249834822
 20
108.5968470307119
 30
0.0
 11
32.064526434489352
 21
108.54661821536639
 31
0.0
  0
LINE
  5
1DFB
  8
3
 10
32.830945726025249
 20
107.2635136973786
 30
0.0
 11
32.830945726025291
 21
107.979704173569
 31
0.0
  0
LINE
  5
1DFC
  8
3
 10
32.114755249834758
 20
107.2635136973786
 30
0.0
 11
32.114755249834793
 21
107.9797041735691
 31
0.0
  0
LINE
  5
1DFD
  8
3
 10
32.114755249834758
 20
107.2635136973786
 30
0.0
 11
32.830945726025249
 21
107.2635136973785
 31
0.0
  0
LINE
  5
1DFE
  8
3
 10
32.114755249834793
 20
107.9797041735691
 30
0.0
 11
32.830945726025291
 21
107.979704173569
 31
0.0
  0
LINE
  5
1DFF
  8
3
 10
33.139517154596859
 20
108.2882756021403
 30
0.0
 11
32.830945726025291
 21
107.979704173569
 31
0.0
  0
LINE
  5
1E00
  8
3
 10
32.830945726025249
 20
107.2635136973785
 30
0.0
 11
33.139517154596788
 21
106.954942268807
 31
0.0
  0
LINE
  5
1E01
  8
3
 10
32.114755249834758
 20
107.2635136973786
 30
0.0
 11
31.830054395535178
 21
106.9788128430787
 31
0.0
  0
LINE
  5
1E02
  8
3
 10
32.114755249834793
 20
107.9797041735691
 30
0.0
 11
31.975231926418019
 21
108.1192274969859
 31
0.0
  0
LINE
  5
1E03
  8
3
 10
32.11475524983473
 20
106.6463708402358
 30
0.0
 11
31.827058004426849
 21
106.9340680856436
 31
0.0
  0
LINE
  5
1E04
  8
3
 10
32.114755249834701
 20
105.9301803640453
 30
0.0
 11
31.827058004426799
 21
105.6424831186371
 31
0.0
  0
LINE
  5
1E05
  8
3
 10
32.830945726025178
 20
105.9301803640452
 30
0.0
 11
33.139517154596732
 21
105.6216089354737
 31
0.0
  0
LINE
  5
1E06
  8
3
 10
33.139517154596788
 20
106.954942268807
 30
0.0
 11
32.83094572602522
 21
106.6463708402357
 31
0.0
  0
LINE
  5
1E07
  8
3
 10
32.11475524983473
 20
106.6463708402358
 30
0.0
 11
32.83094572602522
 21
106.6463708402357
 31
0.0
  0
LINE
  5
1E08
  8
3
 10
32.114755249834701
 20
105.9301803640453
 30
0.0
 11
32.830945726025178
 21
105.9301803640452
 31
0.0
  0
LINE
  5
1E09
  8
3
 10
32.114755249834701
 20
105.9301803640453
 30
0.0
 11
32.11475524983473
 21
106.6463708402358
 31
0.0
  0
LINE
  5
1E0A
  8
3
 10
32.830945726025178
 20
105.9301803640452
 30
0.0
 11
32.83094572602522
 21
106.6463708402357
 31
0.0
  0
LINE
  5
1E0B
  8
3
 10
34.164279059358492
 20
105.9301803640452
 30
0.0
 11
34.16427905935852
 21
106.6463708402356
 31
0.0
  0
LINE
  5
1E0C
  8
3
 10
33.448088583167987
 20
105.9301803640452
 30
0.0
 11
33.44808858316803
 21
106.6463708402357
 31
0.0
  0
LINE
  5
1E0D
  8
3
 10
33.448088583167987
 20
105.9301803640452
 30
0.0
 11
34.164279059358492
 21
105.9301803640452
 31
0.0
  0
LINE
  5
1E0E
  8
3
 10
33.44808858316803
 20
106.6463708402357
 30
0.0
 11
34.16427905935852
 21
106.6463708402357
 31
0.0
  0
LINE
  5
1E0F
  8
3
 10
34.472850487930089
 20
106.9549422688069
 30
0.0
 11
34.16427905935852
 21
106.6463708402356
 31
0.0
  0
LINE
  5
1E10
  8
3
 10
34.164279059358492
 20
105.9301803640452
 30
0.0
 11
34.472850487930017
 21
105.6216089354736
 31
0.0
  0
LINE
  5
1E11
  8
3
 10
33.448088583167987
 20
105.9301803640452
 30
0.0
 11
33.13951715459671
 21
105.6216089354737
 31
0.0
  0
LINE
  5
1E12
  8
3
 10
33.44808858316803
 20
106.6463708402357
 30
0.0
 11
33.139517154596781
 21
106.954942268807
 31
0.0
  0
LINE
  5
1E13
  8
3
 10
33.448088583168101
 20
107.979704173569
 30
0.0
 11
33.139517154596838
 21
108.2882756021403
 31
0.0
  0
LINE
  5
1E14
  8
3
 10
33.448088583168058
 20
107.2635136973785
 30
0.0
 11
33.139517154596781
 21
106.954942268807
 31
0.0
  0
LINE
  5
1E15
  8
3
 10
34.164279059358549
 20
107.2635136973785
 30
0.0
 11
34.472850487930089
 21
106.9549422688069
 31
0.0
  0
LINE
  5
1E16
  8
3
 10
34.472850487930152
 20
108.2882756021402
 30
0.0
 11
34.164279059358577
 21
107.979704173569
 31
0.0
  0
LINE
  5
1E17
  8
3
 10
33.448088583168101
 20
107.979704173569
 30
0.0
 11
34.164279059358577
 21
107.979704173569
 31
0.0
  0
LINE
  5
1E18
  8
3
 10
33.448088583168058
 20
107.2635136973785
 30
0.0
 11
34.164279059358549
 21
107.2635136973785
 31
0.0
  0
LINE
  5
1E19
  8
3
 10
33.448088583168058
 20
107.2635136973785
 30
0.0
 11
33.448088583168101
 21
107.979704173569
 31
0.0
  0
LINE
  5
1E1A
  8
3
 10
34.164279059358549
 20
107.2635136973785
 30
0.0
 11
34.164279059358577
 21
107.979704173569
 31
0.0
  0
LINE
  5
1E1B
  8
3
 10
33.448088583168158
 20
109.3130375069023
 30
0.0
 11
33.139517154596902
 21
109.6216089354736
 31
0.0
  0
LINE
  5
1E1C
  8
3
 10
33.448088583168122
 20
108.5968470307119
 30
0.0
 11
33.139517154596838
 21
108.2882756021403
 31
0.0
  0
LINE
  5
1E1D
  8
3
 10
34.164279059358613
 20
108.5968470307118
 30
0.0
 11
34.472850487930152
 21
108.2882756021402
 31
0.0
  0
LINE
  5
1E1E
  8
3
 10
34.472850487930224
 20
109.6216089354735
 30
0.0
 11
34.164279059358648
 21
109.3130375069023
 31
0.0
  0
LINE
  5
1E1F
  8
3
 10
33.448088583168158
 20
109.3130375069023
 30
0.0
 11
34.164279059358648
 21
109.3130375069023
 31
0.0
  0
LINE
  5
1E20
  8
3
 10
33.448088583168122
 20
108.5968470307118
 30
0.0
 11
34.164279059358613
 21
108.5968470307118
 31
0.0
  0
LINE
  5
1E21
  8
3
 10
33.448088583168122
 20
108.5968470307119
 30
0.0
 11
33.448088583168158
 21
109.3130375069023
 31
0.0
  0
LINE
  5
1E22
  8
3
 10
34.164279059358613
 20
108.5968470307118
 30
0.0
 11
34.164279059358648
 21
109.3130375069023
 31
0.0
  0
LINE
  5
1E23
  8
3
 10
33.448088583168222
 20
110.6463708402356
 30
0.0
 11
33.139517154596973
 21
110.9549422688069
 31
0.0
  0
LINE
  5
1E24
  8
3
 10
33.448088583168193
 20
109.9301803640452
 30
0.0
 11
33.139517154596902
 21
109.6216089354736
 31
0.0
  0
LINE
  5
1E25
  8
3
 10
34.164279059358677
 20
109.9301803640451
 30
0.0
 11
34.472850487930224
 21
109.6216089354735
 31
0.0
  0
LINE
  5
1E26
  8
3
 10
34.47285048793028
 20
110.9549422688069
 30
0.0
 11
34.164279059358712
 21
110.6463708402356
 31
0.0
  0
LINE
  5
1E27
  8
3
 10
33.448088583168222
 20
110.6463708402356
 30
0.0
 11
34.164279059358712
 21
110.6463708402356
 31
0.0
  0
LINE
  5
1E28
  8
3
 10
33.448088583168193
 20
109.9301803640452
 30
0.0
 11
34.164279059358677
 21
109.9301803640451
 31
0.0
  0
LINE
  5
1E29
  8
3
 10
33.448088583168193
 20
109.9301803640452
 30
0.0
 11
33.448088583168222
 21
110.6463708402356
 31
0.0
  0
LINE
  5
1E2A
  8
3
 10
34.164279059358677
 20
109.9301803640451
 30
0.0
 11
34.164279059358712
 21
110.6463708402356
 31
0.0
  0
LINE
  5
1E2B
  8
3
 10
33.448088583168257
 20
111.2635136973785
 30
0.0
 11
33.139517154596973
 21
110.9549422688069
 31
0.0
  0
LINE
  5
1E2C
  8
3
 10
34.164279059358748
 20
111.2635136973784
 30
0.0
 11
34.47285048793028
 21
110.9549422688069
 31
0.0
  0
LINE
  5
1E2D
  8
3
 10
34.472850487930351
 20
112.2882756021402
 30
0.0
 11
34.164279059358783
 21
111.9797041735689
 31
0.0
  0
LINE
  5
1E2E
  8
3
 10
33.583797256747893
 20
111.979704173569
 30
0.0
 11
34.164279059358783
 21
111.9797041735689
 31
0.0
  0
LINE
  5
1E2F
  8
3
 10
33.448088583168257
 20
111.2635136973785
 30
0.0
 11
34.164279059358748
 21
111.2635136973784
 31
0.0
  0
LINE
  5
1E30
  8
3
 10
33.448088583168257
 20
111.2635136973785
 30
0.0
 11
33.448088583168278
 21
111.7784708619586
 31
0.0
  0
LINE
  5
1E31
  8
3
 10
34.164279059358748
 20
111.2635136973785
 30
0.0
 11
34.164279059358783
 21
111.9797041735689
 31
0.0
  0
LINE
  5
1E32
  8
3
 10
34.164279059358812
 20
112.5968470307117
 30
0.0
 11
34.164279059358833
 21
112.73818192781511
 31
0.0
  0
LINE
  5
1E33
  8
3
 10
34.047193775477098
 20
112.5968470307117
 30
0.0
 11
34.164279059358812
 21
112.5968470307117
 31
0.0
  0
LINE
  5
1E34
  8
3
 10
34.164279059358812
 20
112.5968470307117
 30
0.0
 11
34.472850487930351
 21
112.2882756021402
 31
0.0
  0
LINE
  5
1E35
  8
3
 10
34.781421916501692
 20
113.31303750690221
 30
0.0
 11
34.73511600939807
 21
113.35934341400581
 31
0.0
  0
LINE
  5
1E36
  8
3
 10
34.78142191650165
 20
112.5968470307117
 30
0.0
 11
34.472850487930373
 21
112.2882756021402
 31
0.0
  0
LINE
  5
1E37
  8
3
 10
35.49761239269214
 20
112.5968470307117
 30
0.0
 11
35.806183821263673
 21
112.2882756021401
 31
0.0
  0
LINE
  5
1E38
  8
3
 10
35.806183821263737
 20
113.6216089354734
 30
0.0
 11
35.497612392692183
 21
113.31303750690221
 31
0.0
  0
LINE
  5
1E39
  8
3
 10
34.781421916501692
 20
113.31303750690221
 30
0.0
 11
35.497612392692183
 21
113.31303750690221
 31
0.0
  0
LINE
  5
1E3A
  8
3
 10
34.78142191650165
 20
112.5968470307117
 30
0.0
 11
35.49761239269214
 21
112.5968470307117
 31
0.0
  0
LINE
  5
1E3B
  8
3
 10
34.78142191650165
 20
112.5968470307117
 30
0.0
 11
34.781421916501692
 21
113.31303750690221
 31
0.0
  0
LINE
  5
1E3C
  8
3
 10
35.49761239269214
 20
112.5968470307117
 30
0.0
 11
35.497612392692183
 21
113.31303750690221
 31
0.0
  0
LINE
  5
1E3D
  8
3
 10
35.497612392692083
 20
111.2635136973784
 30
0.0
 11
35.497612392692112
 21
111.97970417356881
 31
0.0
  0
LINE
  5
1E3E
  8
3
 10
34.781421916501593
 20
111.2635136973784
 30
0.0
 11
34.781421916501621
 21
111.9797041735689
 31
0.0
  0
LINE
  5
1E3F
  8
3
 10
34.781421916501593
 20
111.2635136973784
 30
0.0
 11
35.497612392692083
 21
111.2635136973784
 31
0.0
  0
LINE
  5
1E40
  8
3
 10
34.781421916501621
 20
111.9797041735689
 30
0.0
 11
35.497612392692112
 21
111.9797041735689
 31
0.0
  0
LINE
  5
1E41
  8
3
 10
35.806183821263673
 20
112.2882756021401
 30
0.0
 11
35.497612392692112
 21
111.97970417356881
 31
0.0
  0
LINE
  5
1E42
  8
3
 10
35.497612392692083
 20
111.2635136973784
 30
0.0
 11
35.806183821263602
 21
110.9549422688068
 31
0.0
  0
LINE
  5
1E43
  8
3
 10
34.781421916501593
 20
111.2635136973784
 30
0.0
 11
34.472850487930287
 21
110.9549422688069
 31
0.0
  0
LINE
  5
1E44
  8
3
 10
34.781421916501621
 20
111.9797041735689
 30
0.0
 11
34.472850487930373
 21
112.2882756021402
 31
0.0
  0
LINE
  5
1E45
  8
3
 10
35.497612392692012
 20
109.9301803640451
 30
0.0
 11
35.497612392692041
 21
110.64637084023551
 31
0.0
  0
LINE
  5
1E46
  8
3
 10
34.781421916501522
 20
109.9301803640451
 30
0.0
 11
34.78142191650155
 21
110.6463708402356
 31
0.0
  0
LINE
  5
1E47
  8
3
 10
34.781421916501522
 20
109.9301803640451
 30
0.0
 11
35.497612392692012
 21
109.930180364045
 31
0.0
  0
LINE
  5
1E48
  8
3
 10
34.78142191650155
 20
110.6463708402356
 30
0.0
 11
35.497612392692041
 21
110.64637084023551
 31
0.0
  0
LINE
  5
1E49
  8
3
 10
35.806183821263602
 20
110.9549422688068
 30
0.0
 11
35.497612392692041
 21
110.64637084023551
 31
0.0
  0
LINE
  5
1E4A
  8
3
 10
35.497612392692012
 20
109.930180364045
 30
0.0
 11
35.806183821263538
 21
109.6216089354735
 31
0.0
  0
LINE
  5
1E4B
  8
3
 10
34.781421916501522
 20
109.9301803640451
 30
0.0
 11
34.472850487930231
 21
109.6216089354735
 31
0.0
  0
LINE
  5
1E4C
  8
3
 10
34.78142191650155
 20
110.6463708402356
 30
0.0
 11
34.472850487930287
 21
110.9549422688069
 31
0.0
  0
LINE
  5
1E4D
  8
3
 10
35.497612392691941
 20
108.5968470307117
 30
0.0
 11
35.497612392691977
 21
109.31303750690221
 31
0.0
  0
LINE
  5
1E4E
  8
3
 10
34.781421916501451
 20
108.5968470307118
 30
0.0
 11
34.781421916501493
 21
109.3130375069023
 31
0.0
  0
LINE
  5
1E4F
  8
3
 10
34.781421916501451
 20
108.5968470307118
 30
0.0
 11
35.497612392691941
 21
108.5968470307117
 31
0.0
  0
LINE
  5
1E50
  8
3
 10
34.781421916501493
 20
109.3130375069023
 30
0.0
 11
35.497612392691977
 21
109.31303750690221
 31
0.0
  0
LINE
  5
1E51
  8
3
 10
35.806183821263538
 20
109.6216089354735
 30
0.0
 11
35.497612392691977
 21
109.31303750690221
 31
0.0
  0
LINE
  5
1E52
  8
3
 10
35.497612392691941
 20
108.5968470307117
 30
0.0
 11
35.806183821263481
 21
108.2882756021402
 31
0.0
  0
LINE
  5
1E53
  8
3
 10
34.781421916501451
 20
108.5968470307118
 30
0.0
 11
34.472850487930167
 21
108.2882756021402
 31
0.0
  0
LINE
  5
1E54
  8
3
 10
34.781421916501493
 20
109.3130375069023
 30
0.0
 11
34.472850487930231
 21
109.6216089354735
 31
0.0
  0
LINE
  5
1E55
  8
3
 10
35.497612392691877
 20
107.2635136973784
 30
0.0
 11
35.497612392691913
 21
107.9797041735689
 31
0.0
  0
LINE
  5
1E56
  8
3
 10
34.781421916501387
 20
107.2635136973785
 30
0.0
 11
34.781421916501422
 21
107.9797041735689
 31
0.0
  0
LINE
  5
1E57
  8
3
 10
34.781421916501387
 20
107.2635136973785
 30
0.0
 11
35.497612392691877
 21
107.2635136973784
 31
0.0
  0
LINE
  5
1E58
  8
3
 10
34.781421916501422
 20
107.9797041735689
 30
0.0
 11
35.497612392691913
 21
107.9797041735689
 31
0.0
  0
LINE
  5
1E59
  8
3
 10
35.806183821263481
 20
108.2882756021402
 30
0.0
 11
35.497612392691913
 21
107.9797041735689
 31
0.0
  0
LINE
  5
1E5A
  8
3
 10
35.497612392691877
 20
107.2635136973784
 30
0.0
 11
35.80618382126341
 21
106.9549422688069
 31
0.0
  0
LINE
  5
1E5B
  8
3
 10
34.781421916501387
 20
107.2635136973785
 30
0.0
 11
34.472850487930103
 21
106.9549422688069
 31
0.0
  0
LINE
  5
1E5C
  8
3
 10
34.781421916501422
 20
107.9797041735689
 30
0.0
 11
34.472850487930167
 21
108.2882756021402
 31
0.0
  0
LINE
  5
1E5D
  8
3
 10
34.781421916501358
 20
106.6463708402356
 30
0.0
 11
34.472850487930103
 21
106.9549422688069
 31
0.0
  0
LINE
  5
1E5E
  8
3
 10
34.781421916501323
 20
105.9301803640452
 30
0.0
 11
34.472850487930039
 21
105.6216089354736
 31
0.0
  0
LINE
  5
1E5F
  8
3
 10
35.497612392691813
 20
105.9301803640451
 30
0.0
 11
35.806183821263353
 21
105.6216089354735
 31
0.0
  0
LINE
  5
1E60
  8
3
 10
35.80618382126341
 20
106.9549422688069
 30
0.0
 11
35.497612392691849
 21
106.6463708402356
 31
0.0
  0
LINE
  5
1E61
  8
3
 10
34.781421916501358
 20
106.6463708402356
 30
0.0
 11
35.497612392691849
 21
106.6463708402356
 31
0.0
  0
LINE
  5
1E62
  8
3
 10
34.781421916501323
 20
105.9301803640452
 30
0.0
 11
35.497612392691813
 21
105.9301803640451
 31
0.0
  0
LINE
  5
1E63
  8
3
 10
34.781421916501323
 20
105.9301803640452
 30
0.0
 11
34.781421916501358
 21
106.6463708402356
 31
0.0
  0
LINE
  5
1E64
  8
3
 10
35.497612392691813
 20
105.9301803640451
 30
0.0
 11
35.497612392691849
 21
106.6463708402356
 31
0.0
  0
LINE
  5
1E65
  8
3
 10
36.830945726025121
 20
105.9301803640451
 30
0.0
 11
36.830945726025163
 21
106.64637084023551
 31
0.0
  0
LINE
  5
1E66
  8
3
 10
36.11475524983463
 20
105.9301803640451
 30
0.0
 11
36.114755249834673
 21
106.6463708402356
 31
0.0
  0
LINE
  5
1E67
  8
3
 10
36.11475524983463
 20
105.9301803640451
 30
0.0
 11
36.830945726025121
 21
105.9301803640451
 31
0.0
  0
LINE
  5
1E68
  8
3
 10
36.114755249834673
 20
106.6463708402356
 30
0.0
 11
36.830945726025163
 21
106.6463708402356
 31
0.0
  0
LINE
  5
1E69
  8
3
 10
37.139517154596732
 20
106.9549422688068
 30
0.0
 11
36.830945726025163
 21
106.64637084023551
 31
0.0
  0
LINE
  5
1E6A
  8
3
 10
36.830945726025121
 20
105.9301803640451
 30
0.0
 11
37.13951715459666
 21
105.6216089354735
 31
0.0
  0
LINE
  5
1E6B
  8
3
 10
36.11475524983463
 20
105.9301803640451
 30
0.0
 11
35.806183821263353
 21
105.6216089354735
 31
0.0
  0
LINE
  5
1E6C
  8
3
 10
36.114755249834673
 20
106.6463708402356
 30
0.0
 11
35.80618382126341
 21
106.9549422688069
 31
0.0
  0
LINE
  5
1E6D
  8
3
 10
36.11475524983473
 20
107.9797041735689
 30
0.0
 11
35.806183821263481
 21
108.2882756021402
 31
0.0
  0
LINE
  5
1E6E
  8
3
 10
36.114755249834701
 20
107.2635136973784
 30
0.0
 11
35.80618382126341
 21
106.9549422688069
 31
0.0
  0
LINE
  5
1E6F
  8
3
 10
36.830945726025192
 20
107.2635136973784
 30
0.0
 11
37.139517154596732
 21
106.9549422688068
 31
0.0
  0
LINE
  5
1E70
  8
3
 10
37.139517154596788
 20
108.2882756021401
 30
0.0
 11
36.83094572602522
 21
107.9797041735689
 31
0.0
  0
LINE
  5
1E71
  8
3
 10
36.11475524983473
 20
107.9797041735689
 30
0.0
 11
36.83094572602522
 21
107.9797041735689
 31
0.0
  0
LINE
  5
1E72
  8
3
 10
36.114755249834701
 20
107.2635136973784
 30
0.0
 11
36.830945726025192
 21
107.2635136973784
 31
0.0
  0
LINE
  5
1E73
  8
3
 10
36.114755249834701
 20
107.2635136973784
 30
0.0
 11
36.11475524983473
 21
107.9797041735689
 31
0.0
  0
LINE
  5
1E74
  8
3
 10
36.830945726025192
 20
107.2635136973784
 30
0.0
 11
36.83094572602522
 21
107.9797041735689
 31
0.0
  0
LINE
  5
1E75
  8
3
 10
36.114755249834793
 20
109.31303750690221
 30
0.0
 11
35.806183821263538
 21
109.6216089354735
 31
0.0
  0
LINE
  5
1E76
  8
3
 10
36.114755249834758
 20
108.5968470307117
 30
0.0
 11
35.806183821263481
 21
108.2882756021402
 31
0.0
  0
LINE
  5
1E77
  8
3
 10
36.830945726025249
 20
108.5968470307117
 30
0.0
 11
37.139517154596788
 21
108.2882756021401
 31
0.0
  0
LINE
  5
1E78
  8
3
 10
37.139517154596852
 20
109.6216089354734
 30
0.0
 11
36.830945726025291
 21
109.31303750690221
 31
0.0
  0
LINE
  5
1E79
  8
3
 10
36.114755249834793
 20
109.31303750690221
 30
0.0
 11
36.830945726025291
 21
109.31303750690221
 31
0.0
  0
LINE
  5
1E7A
  8
3
 10
36.114755249834758
 20
108.5968470307117
 30
0.0
 11
36.830945726025249
 21
108.5968470307117
 31
0.0
  0
LINE
  5
1E7B
  8
3
 10
36.114755249834758
 20
108.5968470307117
 30
0.0
 11
36.114755249834793
 21
109.31303750690221
 31
0.0
  0
LINE
  5
1E7C
  8
3
 10
36.830945726025249
 20
108.5968470307117
 30
0.0
 11
36.830945726025291
 21
109.31303750690221
 31
0.0
  0
LINE
  5
1E7D
  8
3
 10
36.114755249834857
 20
110.64637084023551
 30
0.0
 11
35.806183821263602
 21
110.9549422688068
 31
0.0
  0
LINE
  5
1E7E
  8
3
 10
36.114755249834822
 20
109.9301803640451
 30
0.0
 11
35.806183821263538
 21
109.6216089354735
 31
0.0
  0
LINE
  5
1E7F
  8
3
 10
36.830945726025313
 20
109.930180364045
 30
0.0
 11
37.139517154596852
 21
109.6216089354734
 31
0.0
  0
LINE
  5
1E80
  8
3
 10
37.139517154596923
 20
110.9549422688067
 30
0.0
 11
36.830945726025348
 21
110.64637084023551
 31
0.0
  0
LINE
  5
1E81
  8
3
 10
36.114755249834857
 20
110.64637084023551
 30
0.0
 11
36.830945726025348
 21
110.64637084023551
 31
0.0
  0
LINE
  5
1E82
  8
3
 10
36.114755249834822
 20
109.930180364045
 30
0.0
 11
36.830945726025313
 21
109.930180364045
 31
0.0
  0
LINE
  5
1E83
  8
3
 10
36.114755249834822
 20
109.9301803640451
 30
0.0
 11
36.114755249834857
 21
110.64637084023551
 31
0.0
  0
LINE
  5
1E84
  8
3
 10
36.830945726025313
 20
109.930180364045
 30
0.0
 11
36.830945726025348
 21
110.64637084023551
 31
0.0
  0
LINE
  5
1E85
  8
3
 10
36.114755249834928
 20
111.97970417356881
 30
0.0
 11
35.806183821263673
 21
112.2882756021401
 31
0.0
  0
LINE
  5
1E86
  8
3
 10
36.1147552498349
 20
111.2635136973784
 30
0.0
 11
35.806183821263602
 21
110.9549422688068
 31
0.0
  0
LINE
  5
1E87
  8
3
 10
36.830945726025377
 20
111.2635136973783
 30
0.0
 11
37.139517154596923
 21
110.9549422688067
 31
0.0
  0
LINE
  5
1E88
  8
3
 10
37.139517154596987
 20
112.2882756021401
 30
0.0
 11
36.830945726025419
 21
111.97970417356881
 31
0.0
  0
LINE
  5
1E89
  8
3
 10
36.114755249834928
 20
111.97970417356881
 30
0.0
 11
36.830945726025419
 21
111.97970417356881
 31
0.0
  0
LINE
  5
1E8A
  8
3
 10
36.1147552498349
 20
111.2635136973784
 30
0.0
 11
36.830945726025377
 21
111.2635136973783
 31
0.0
  0
LINE
  5
1E8B
  8
3
 10
36.1147552498349
 20
111.2635136973784
 30
0.0
 11
36.114755249834928
 21
111.97970417356881
 31
0.0
  0
LINE
  5
1E8C
  8
3
 10
36.830945726025377
 20
111.2635136973783
 30
0.0
 11
36.830945726025419
 21
111.97970417356881
 31
0.0
  0
LINE
  5
1E8D
  8
3
 10
37.023853838138344
 20
115.0706055852655
 30
0.0
 11
37.139517154597122
 21
114.9549422688067
 31
0.0
  0
LINE
  5
1E8E
  8
3
 10
36.830945726025512
 20
113.930180364045
 30
0.0
 11
36.830945726025547
 21
114.64637084023541
 31
0.0
  0
LINE
  5
1E8F
  8
3
 10
36.114755249835021
 20
113.930180364045
 30
0.0
 11
36.114755249835049
 21
114.51066216665591
 31
0.0
  0
LINE
  5
1E90
  8
3
 10
36.114755249835021
 20
113.930180364045
 30
0.0
 11
36.830945726025512
 21
113.9301803640449
 31
0.0
  0
LINE
  5
1E91
  8
3
 10
36.315988561445408
 20
114.64637084023551
 30
0.0
 11
36.830945726025547
 21
114.64637084023541
 31
0.0
  0
LINE
  5
1E92
  8
3
 10
37.139517154597122
 20
114.9549422688067
 30
0.0
 11
36.830945726025547
 21
114.64637084023541
 31
0.0
  0
LINE
  5
1E93
  8
3
 10
36.830945726025512
 20
113.9301803640449
 30
0.0
 11
37.139517154597051
 21
113.6216089354734
 31
0.0
  0
LINE
  5
1E94
  8
3
 10
36.114755249835021
 20
113.930180364045
 30
0.0
 11
35.806183821263737
 21
113.6216089354734
 31
0.0
  0
LINE
  5
1E95
  8
3
 10
36.830945726025448
 20
112.5968470307116
 30
0.0
 11
36.83094572602549
 21
113.31303750690211
 31
0.0
  0
LINE
  5
1E96
  8
3
 10
36.114755249834957
 20
112.5968470307117
 30
0.0
 11
36.114755249834992
 21
113.31303750690221
 31
0.0
  0
LINE
  5
1E97
  8
3
 10
36.114755249834957
 20
112.5968470307117
 30
0.0
 11
36.830945726025448
 21
112.5968470307116
 31
0.0
  0
LINE
  5
1E98
  8
3
 10
36.114755249834992
 20
113.31303750690221
 30
0.0
 11
36.83094572602549
 21
113.31303750690211
 31
0.0
  0
LINE
  5
1E99
  8
3
 10
37.139517154597051
 20
113.6216089354734
 30
0.0
 11
36.83094572602549
 21
113.31303750690211
 31
0.0
  0
LINE
  5
1E9A
  8
3
 10
36.830945726025448
 20
112.5968470307116
 30
0.0
 11
37.139517154596987
 21
112.2882756021401
 31
0.0
  0
LINE
  5
1E9B
  8
3
 10
36.114755249834957
 20
112.5968470307117
 30
0.0
 11
35.806183821263673
 21
112.2882756021401
 31
0.0
  0
LINE
  5
1E9C
  8
3
 10
36.114755249834992
 20
113.31303750690221
 30
0.0
 11
35.806183821263737
 21
113.6216089354734
 31
0.0
  0
LINE
  5
1E9D
  8
3
 10
38.16427905935889
 20
115.2635136973782
 30
0.0
 11
38.164279059358911
 21
115.6015204558534
 31
0.0
  0
LINE
  5
1E9E
  8
3
 10
37.448088583168399
 20
115.2635136973783
 30
0.0
 11
37.448088583168399
 21
115.2886648101518
 31
0.0
  0
LINE
  5
1E9F
  8
3
 10
38.164279059358442
 20
105.930180364045
 30
0.0
 11
38.164279059358471
 21
106.64637084023551
 31
0.0
  0
LINE
  5
1EA0
  8
3
 10
37.448088583167937
 20
105.9301803640451
 30
0.0
 11
37.44808858316798
 21
106.64637084023551
 31
0.0
  0
LINE
  5
1EA1
  8
3
 10
37.448088583167937
 20
105.930180364045
 30
0.0
 11
38.164279059358442
 21
105.930180364045
 31
0.0
  0
LINE
  5
1EA2
  8
3
 10
37.44808858316798
 20
106.64637084023551
 30
0.0
 11
38.164279059358471
 21
106.64637084023551
 31
0.0
  0
LINE
  5
1EA3
  8
3
 10
38.472850487930039
 20
106.9549422688067
 30
0.0
 11
38.164279059358471
 21
106.64637084023551
 31
0.0
  0
LINE
  5
1EA4
  8
3
 10
38.164279059358442
 20
105.930180364045
 30
0.0
 11
38.472850487929968
 21
105.6216089354734
 31
0.0
  0
LINE
  5
1EA5
  8
3
 10
37.448088583167937
 20
105.9301803640451
 30
0.0
 11
37.13951715459666
 21
105.6216089354735
 31
0.0
  0
LINE
  5
1EA6
  8
3
 10
37.44808858316798
 20
106.64637084023551
 30
0.0
 11
37.139517154596732
 21
106.9549422688068
 31
0.0
  0
LINE
  5
1EA7
  8
3
 10
37.448088583168051
 20
107.97970417356881
 30
0.0
 11
37.139517154596788
 21
108.2882756021401
 31
0.0
  0
LINE
  5
1EA8
  8
3
 10
37.448088583168008
 20
107.2635136973784
 30
0.0
 11
37.139517154596732
 21
106.9549422688068
 31
0.0
  0
LINE
  5
1EA9
  8
3
 10
38.164279059358499
 20
107.2635136973783
 30
0.0
 11
38.472850487930039
 21
106.9549422688067
 31
0.0
  0
LINE
  5
1EAA
  8
3
 10
38.472850487930103
 20
108.28827560214
 30
0.0
 11
38.164279059358527
 21
107.97970417356881
 31
0.0
  0
LINE
  5
1EAB
  8
3
 10
37.448088583168051
 20
107.97970417356881
 30
0.0
 11
38.164279059358527
 21
107.97970417356881
 31
0.0
  0
LINE
  5
1EAC
  8
3
 10
37.448088583168008
 20
107.2635136973784
 30
0.0
 11
38.164279059358499
 21
107.2635136973783
 31
0.0
  0
LINE
  5
1EAD
  8
3
 10
37.448088583168008
 20
107.2635136973784
 30
0.0
 11
37.448088583168051
 21
107.97970417356881
 31
0.0
  0
LINE
  5
1EAE
  8
3
 10
38.164279059358499
 20
107.2635136973783
 30
0.0
 11
38.164279059358527
 21
107.97970417356881
 31
0.0
  0
LINE
  5
1EAF
  8
3
 10
37.448088583168108
 20
109.31303750690211
 30
0.0
 11
37.139517154596852
 21
109.6216089354734
 31
0.0
  0
LINE
  5
1EB0
  8
3
 10
37.448088583168072
 20
108.5968470307117
 30
0.0
 11
37.139517154596788
 21
108.2882756021401
 31
0.0
  0
LINE
  5
1EB1
  8
3
 10
38.16427905935857
 20
108.5968470307116
 30
0.0
 11
38.472850487930103
 21
108.28827560214
 31
0.0
  0
LINE
  5
1EB2
  8
3
 10
38.472850487930167
 20
109.6216089354734
 30
0.0
 11
38.164279059358599
 21
109.31303750690211
 31
0.0
  0
LINE
  5
1EB3
  8
3
 10
37.448088583168108
 20
109.31303750690211
 30
0.0
 11
38.164279059358599
 21
109.31303750690211
 31
0.0
  0
LINE
  5
1EB4
  8
3
 10
37.448088583168072
 20
108.5968470307117
 30
0.0
 11
38.16427905935857
 21
108.5968470307116
 31
0.0
  0
LINE
  5
1EB5
  8
3
 10
37.448088583168072
 20
108.5968470307117
 30
0.0
 11
37.448088583168108
 21
109.31303750690211
 31
0.0
  0
LINE
  5
1EB6
  8
3
 10
38.16427905935857
 20
108.5968470307116
 30
0.0
 11
38.164279059358599
 21
109.31303750690211
 31
0.0
  0
LINE
  5
1EB7
  8
3
 10
37.448088583168172
 20
110.64637084023551
 30
0.0
 11
37.139517154596923
 21
110.9549422688067
 31
0.0
  0
LINE
  5
1EB8
  8
3
 10
37.448088583168143
 20
109.930180364045
 30
0.0
 11
37.139517154596852
 21
109.6216089354734
 31
0.0
  0
LINE
  5
1EB9
  8
3
 10
38.164279059358627
 20
109.9301803640449
 30
0.0
 11
38.472850487930167
 21
109.6216089354734
 31
0.0
  0
LINE
  5
1EBA
  8
3
 10
38.472850487930231
 20
110.9549422688067
 30
0.0
 11
38.164279059358662
 21
110.64637084023541
 31
0.0
  0
LINE
  5
1EBB
  8
3
 10
37.448088583168172
 20
110.64637084023551
 30
0.0
 11
38.164279059358662
 21
110.64637084023541
 31
0.0
  0
LINE
  5
1EBC
  8
3
 10
37.448088583168143
 20
109.930180364045
 30
0.0
 11
38.164279059358627
 21
109.9301803640449
 31
0.0
  0
LINE
  5
1EBD
  8
3
 10
37.448088583168143
 20
109.930180364045
 30
0.0
 11
37.448088583168172
 21
110.64637084023551
 31
0.0
  0
LINE
  5
1EBE
  8
3
 10
38.164279059358627
 20
109.930180364045
 30
0.0
 11
38.164279059358662
 21
110.64637084023541
 31
0.0
  0
LINE
  5
1EBF
  8
3
 10
37.44808858316825
 20
111.97970417356881
 30
0.0
 11
37.139517154596987
 21
112.2882756021401
 31
0.0
  0
LINE
  5
1EC0
  8
3
 10
37.448088583168207
 20
111.2635136973783
 30
0.0
 11
37.139517154596923
 21
110.9549422688067
 31
0.0
  0
LINE
  5
1EC1
  8
3
 10
38.164279059358698
 20
111.2635136973783
 30
0.0
 11
38.472850487930231
 21
110.9549422688067
 31
0.0
  0
LINE
  5
1EC2
  8
3
 10
38.472850487930302
 20
112.28827560214
 30
0.0
 11
38.164279059358734
 21
111.97970417356871
 31
0.0
  0
LINE
  5
1EC3
  8
3
 10
37.44808858316825
 20
111.97970417356881
 30
0.0
 11
38.164279059358734
 21
111.97970417356871
 31
0.0
  0
LINE
  5
1EC4
  8
3
 10
37.448088583168207
 20
111.2635136973783
 30
0.0
 11
38.164279059358698
 21
111.2635136973783
 31
0.0
  0
LINE
  5
1EC5
  8
3
 10
37.448088583168207
 20
111.2635136973783
 30
0.0
 11
37.44808858316825
 21
111.97970417356881
 31
0.0
  0
LINE
  5
1EC6
  8
3
 10
38.164279059358698
 20
111.2635136973783
 30
0.0
 11
38.164279059358734
 21
111.97970417356871
 31
0.0
  0
LINE
  5
1EC7
  8
3
 10
37.448088583168399
 20
115.2635136973783
 30
0.0
 11
38.16427905935889
 21
115.2635136973782
 31
0.0
  0
LINE
  5
1EC8
  8
3
 10
38.16427905935889
 20
115.2635136973782
 30
0.0
 11
38.47285048793043
 21
114.9549422688066
 31
0.0
  0
LINE
  5
1EC9
  8
3
 10
37.448088583168399
 20
115.2635136973783
 30
0.0
 11
37.139517154597122
 21
114.9549422688067
 31
0.0
  0
LINE
  5
1ECA
  8
3
 10
38.164279059358833
 20
113.9301803640449
 30
0.0
 11
38.164279059358861
 21
114.64637084023541
 31
0.0
  0
LINE
  5
1ECB
  8
3
 10
37.448088583168328
 20
113.9301803640449
 30
0.0
 11
37.448088583168371
 21
114.64637084023541
 31
0.0
  0
LINE
  5
1ECC
  8
3
 10
37.448088583168328
 20
113.9301803640449
 30
0.0
 11
38.164279059358833
 21
113.9301803640449
 31
0.0
  0
LINE
  5
1ECD
  8
3
 10
37.448088583168371
 20
114.64637084023541
 30
0.0
 11
38.164279059358861
 21
114.64637084023541
 31
0.0
  0
LINE
  5
1ECE
  8
3
 10
38.47285048793043
 20
114.9549422688066
 30
0.0
 11
38.164279059358861
 21
114.64637084023541
 31
0.0
  0
LINE
  5
1ECF
  8
3
 10
38.164279059358833
 20
113.9301803640449
 30
0.0
 11
38.472850487930359
 21
113.6216089354733
 31
0.0
  0
LINE
  5
1ED0
  8
3
 10
37.448088583168328
 20
113.9301803640449
 30
0.0
 11
37.139517154597051
 21
113.6216089354734
 31
0.0
  0
LINE
  5
1ED1
  8
3
 10
37.448088583168371
 20
114.64637084023541
 30
0.0
 11
37.139517154597122
 21
114.9549422688067
 31
0.0
  0
LINE
  5
1ED2
  8
3
 10
38.164279059358762
 20
112.5968470307116
 30
0.0
 11
38.164279059358797
 21
113.31303750690201
 31
0.0
  0
LINE
  5
1ED3
  8
3
 10
37.448088583168271
 20
112.5968470307116
 30
0.0
 11
37.448088583168307
 21
113.31303750690211
 31
0.0
  0
LINE
  5
1ED4
  8
3
 10
37.448088583168271
 20
112.5968470307116
 30
0.0
 11
38.164279059358762
 21
112.5968470307116
 31
0.0
  0
LINE
  5
1ED5
  8
3
 10
37.448088583168307
 20
113.31303750690211
 30
0.0
 11
38.164279059358797
 21
113.31303750690201
 31
0.0
  0
LINE
  5
1ED6
  8
3
 10
38.472850487930359
 20
113.6216089354733
 30
0.0
 11
38.164279059358797
 21
113.31303750690201
 31
0.0
  0
LINE
  5
1ED7
  8
3
 10
38.164279059358762
 20
112.5968470307116
 30
0.0
 11
38.472850487930302
 21
112.28827560214
 31
0.0
  0
LINE
  5
1ED8
  8
3
 10
37.448088583168271
 20
112.5968470307116
 30
0.0
 11
37.139517154596987
 21
112.2882756021401
 31
0.0
  0
LINE
  5
1ED9
  8
3
 10
37.448088583168307
 20
113.31303750690211
 30
0.0
 11
37.139517154597051
 21
113.6216089354734
 31
0.0
  0
LINE
  5
1EDA
  8
3
 10
39.497612392692197
 20
115.2635136973781
 30
0.0
 11
39.49761239269224
 21
115.97970417356861
 31
0.0
  0
LINE
  5
1EDB
  8
3
 10
39.341186408506601
 20
115.97970417356861
 30
0.0
 11
39.49761239269224
 21
115.97970417356861
 31
0.0
  0
LINE
  5
1EDC
  8
3
 10
38.781421916501721
 20
115.2635136973782
 30
0.0
 11
38.781421916501749
 21
115.81984501223739
 31
0.0
  0
LINE
  5
1EDD
  8
3
 10
39.49761239269175
 20
105.930180364045
 30
0.0
 11
39.497612392691792
 21
106.64637084023541
 31
0.0
  0
LINE
  5
1EDE
  8
3
 10
38.781421916501259
 20
105.930180364045
 30
0.0
 11
38.781421916501287
 21
106.64637084023541
 31
0.0
  0
LINE
  5
1EDF
  8
3
 10
38.781421916501259
 20
105.930180364045
 30
0.0
 11
39.49761239269175
 21
105.9301803640449
 31
0.0
  0
LINE
  5
1EE0
  8
3
 10
38.781421916501287
 20
106.64637084023541
 30
0.0
 11
39.497612392691792
 21
106.64637084023541
 31
0.0
  0
LINE
  5
1EE1
  8
3
 10
39.80618382126336
 20
106.9549422688067
 30
0.0
 11
39.497612392691792
 21
106.64637084023541
 31
0.0
  0
LINE
  5
1EE2
  8
3
 10
39.49761239269175
 20
105.9301803640449
 30
0.0
 11
39.806183821263289
 21
105.6216089354734
 31
0.0
  0
LINE
  5
1EE3
  8
3
 10
38.781421916501259
 20
105.930180364045
 30
0.0
 11
38.472850487929968
 21
105.6216089354734
 31
0.0
  0
LINE
  5
1EE4
  8
3
 10
38.781421916501287
 20
106.64637084023541
 30
0.0
 11
38.472850487930039
 21
106.9549422688067
 31
0.0
  0
LINE
  5
1EE5
  8
3
 10
38.781421916501358
 20
107.97970417356881
 30
0.0
 11
38.472850487930103
 21
108.28827560214
 31
0.0
  0
LINE
  5
1EE6
  8
3
 10
38.781421916501323
 20
107.2635136973783
 30
0.0
 11
38.472850487930039
 21
106.9549422688067
 31
0.0
  0
LINE
  5
1EE7
  8
3
 10
39.497612392691813
 20
107.2635136973782
 30
0.0
 11
39.80618382126336
 21
106.9549422688067
 31
0.0
  0
LINE
  5
1EE8
  8
3
 10
39.806183821263417
 20
108.28827560214
 30
0.0
 11
39.497612392691849
 21
107.97970417356871
 31
0.0
  0
LINE
  5
1EE9
  8
3
 10
38.781421916501358
 20
107.97970417356881
 30
0.0
 11
39.497612392691849
 21
107.97970417356871
 31
0.0
  0
LINE
  5
1EEA
  8
3
 10
38.781421916501323
 20
107.2635136973783
 30
0.0
 11
39.497612392691813
 21
107.2635136973782
 31
0.0
  0
LINE
  5
1EEB
  8
3
 10
38.781421916501323
 20
107.2635136973783
 30
0.0
 11
38.781421916501358
 21
107.97970417356881
 31
0.0
  0
LINE
  5
1EEC
  8
3
 10
39.497612392691813
 20
107.2635136973783
 30
0.0
 11
39.497612392691849
 21
107.97970417356871
 31
0.0
  0
LINE
  5
1EED
  8
3
 10
38.781421916501422
 20
109.31303750690211
 30
0.0
 11
38.472850487930167
 21
109.6216089354734
 31
0.0
  0
LINE
  5
1EEE
  8
3
 10
38.781421916501387
 20
108.5968470307116
 30
0.0
 11
38.472850487930103
 21
108.28827560214
 31
0.0
  0
LINE
  5
1EEF
  8
3
 10
39.497612392691877
 20
108.5968470307116
 30
0.0
 11
39.806183821263417
 21
108.28827560214
 31
0.0
  0
LINE
  5
1EF0
  8
3
 10
39.806183821263481
 20
109.6216089354733
 30
0.0
 11
39.49761239269192
 21
109.31303750690201
 31
0.0
  0
LINE
  5
1EF1
  8
3
 10
38.781421916501422
 20
109.31303750690211
 30
0.0
 11
39.49761239269192
 21
109.31303750690211
 31
0.0
  0
LINE
  5
1EF2
  8
3
 10
38.781421916501387
 20
108.5968470307116
 30
0.0
 11
39.497612392691877
 21
108.5968470307116
 31
0.0
  0
LINE
  5
1EF3
  8
3
 10
38.781421916501387
 20
108.5968470307116
 30
0.0
 11
38.781421916501422
 21
109.31303750690211
 31
0.0
  0
LINE
  5
1EF4
  8
3
 10
39.497612392691877
 20
108.5968470307116
 30
0.0
 11
39.49761239269192
 21
109.31303750690201
 31
0.0
  0
LINE
  5
1EF5
  8
3
 10
38.781421916501479
 20
110.64637084023541
 30
0.0
 11
38.472850487930231
 21
110.9549422688067
 31
0.0
  0
LINE
  5
1EF6
  8
3
 10
38.781421916501451
 20
109.9301803640449
 30
0.0
 11
38.472850487930167
 21
109.6216089354734
 31
0.0
  0
LINE
  5
1EF7
  8
3
 10
39.497612392691941
 20
109.9301803640449
 30
0.0
 11
39.806183821263481
 21
109.6216089354733
 31
0.0
  0
LINE
  5
1EF8
  8
3
 10
39.806183821263552
 20
110.9549422688066
 30
0.0
 11
39.497612392691977
 21
110.64637084023541
 31
0.0
  0
LINE
  5
1EF9
  8
3
 10
38.781421916501479
 20
110.64637084023541
 30
0.0
 11
39.497612392691977
 21
110.64637084023541
 31
0.0
  0
LINE
  5
1EFA
  8
3
 10
38.781421916501451
 20
109.9301803640449
 30
0.0
 11
39.497612392691941
 21
109.9301803640449
 31
0.0
  0
LINE
  5
1EFB
  8
3
 10
38.781421916501451
 20
109.9301803640449
 30
0.0
 11
38.781421916501479
 21
110.64637084023541
 31
0.0
  0
LINE
  5
1EFC
  8
3
 10
39.497612392691941
 20
109.9301803640449
 30
0.0
 11
39.497612392691977
 21
110.64637084023541
 31
0.0
  0
LINE
  5
1EFD
  8
3
 10
38.781421916501557
 20
111.97970417356871
 30
0.0
 11
38.472850487930302
 21
112.28827560214
 31
0.0
  0
LINE
  5
1EFE
  8
3
 10
38.781421916501522
 20
111.2635136973783
 30
0.0
 11
38.472850487930231
 21
110.9549422688067
 31
0.0
  0
LINE
  5
1EFF
  8
3
 10
39.497612392692012
 20
111.2635136973782
 30
0.0
 11
39.806183821263552
 21
110.9549422688066
 31
0.0
  0
LINE
  5
1F00
  8
3
 10
39.806183821263623
 20
112.2882756021399
 30
0.0
 11
39.497612392692048
 21
111.97970417356871
 31
0.0
  0
LINE
  5
1F01
  8
3
 10
38.781421916501557
 20
111.97970417356871
 30
0.0
 11
39.497612392692048
 21
111.97970417356871
 31
0.0
  0
LINE
  5
1F02
  8
3
 10
38.781421916501522
 20
111.2635136973782
 30
0.0
 11
39.497612392692012
 21
111.2635136973782
 31
0.0
  0
LINE
  5
1F03
  8
3
 10
38.781421916501522
 20
111.2635136973783
 30
0.0
 11
38.781421916501557
 21
111.97970417356871
 31
0.0
  0
LINE
  5
1F04
  8
3
 10
39.497612392692012
 20
111.2635136973782
 30
0.0
 11
39.497612392692048
 21
111.97970417356871
 31
0.0
  0
LINE
  5
1F05
  8
3
 10
38.781421916501721
 20
115.2635136973782
 30
0.0
 11
39.497612392692197
 21
115.2635136973781
 31
0.0
  0
LINE
  5
1F06
  8
3
 10
39.497612392692197
 20
115.2635136973781
 30
0.0
 11
39.806183821263751
 21
114.9549422688066
 31
0.0
  0
LINE
  5
1F07
  8
3
 10
38.781421916501721
 20
115.2635136973782
 30
0.0
 11
38.47285048793043
 21
114.9549422688066
 31
0.0
  0
LINE
  5
1F08
  8
3
 10
39.49761239269214
 20
113.9301803640448
 30
0.0
 11
39.497612392692183
 21
114.64637084023531
 31
0.0
  0
LINE
  5
1F09
  8
3
 10
38.78142191650165
 20
113.9301803640449
 30
0.0
 11
38.781421916501692
 21
114.64637084023531
 31
0.0
  0
LINE
  5
1F0A
  8
3
 10
38.78142191650165
 20
113.9301803640449
 30
0.0
 11
39.49761239269214
 21
113.9301803640448
 31
0.0
  0
LINE
  5
1F0B
  8
3
 10
38.781421916501692
 20
114.64637084023531
 30
0.0
 11
39.497612392692183
 21
114.64637084023531
 31
0.0
  0
LINE
  5
1F0C
  8
3
 10
39.806183821263751
 20
114.9549422688066
 30
0.0
 11
39.497612392692183
 21
114.64637084023531
 31
0.0
  0
LINE
  5
1F0D
  8
3
 10
39.49761239269214
 20
113.9301803640448
 30
0.0
 11
39.80618382126368
 21
113.6216089354732
 31
0.0
  0
LINE
  5
1F0E
  8
3
 10
38.78142191650165
 20
113.9301803640449
 30
0.0
 11
38.472850487930359
 21
113.6216089354733
 31
0.0
  0
LINE
  5
1F0F
  8
3
 10
38.781421916501692
 20
114.64637084023531
 30
0.0
 11
38.47285048793043
 21
114.9549422688066
 31
0.0
  0
LINE
  5
1F10
  8
3
 10
39.497612392692069
 20
112.5968470307115
 30
0.0
 11
39.497612392692112
 21
113.31303750690201
 31
0.0
  0
LINE
  5
1F11
  8
3
 10
38.781421916501593
 20
112.5968470307116
 30
0.0
 11
38.781421916501621
 21
113.31303750690201
 31
0.0
  0
LINE
  5
1F12
  8
3
 10
38.781421916501593
 20
112.5968470307115
 30
0.0
 11
39.497612392692069
 21
112.5968470307115
 31
0.0
  0
LINE
  5
1F13
  8
3
 10
38.781421916501621
 20
113.31303750690201
 30
0.0
 11
39.497612392692112
 21
113.31303750690201
 31
0.0
  0
LINE
  5
1F14
  8
3
 10
39.80618382126368
 20
113.6216089354732
 30
0.0
 11
39.497612392692112
 21
113.31303750690201
 31
0.0
  0
LINE
  5
1F15
  8
3
 10
39.497612392692069
 20
112.5968470307115
 30
0.0
 11
39.806183821263623
 21
112.2882756021399
 31
0.0
  0
LINE
  5
1F16
  8
3
 10
38.781421916501593
 20
112.5968470307116
 30
0.0
 11
38.472850487930302
 21
112.28827560214
 31
0.0
  0
LINE
  5
1F17
  8
3
 10
38.781421916501621
 20
113.31303750690201
 30
0.0
 11
38.472850487930359
 21
113.6216089354733
 31
0.0
  0
LINE
  5
1F18
  8
3
 10
40.830945726025519
 20
115.2635136973781
 30
0.0
 11
40.830945726025547
 21
115.97970417356851
 31
0.0
  0
LINE
  5
1F19
  8
3
 10
40.114755249835063
 20
115.97970417356861
 30
0.0
 11
40.830945726025547
 21
115.97970417356851
 31
0.0
  0
LINE
  5
1F1A
  8
3
 10
40.114755249835021
 20
115.2635136973781
 30
0.0
 11
40.114755249835063
 21
115.97970417356861
 31
0.0
  0
LINE
  5
1F1B
  8
3
 10
40.830945726025057
 20
105.9301803640449
 30
0.0
 11
40.830945726025099
 21
106.64637084023531
 31
0.0
  0
LINE
  5
1F1C
  8
3
 10
40.114755249834573
 20
105.9301803640449
 30
0.0
 11
40.114755249834609
 21
106.64637084023541
 31
0.0
  0
LINE
  5
1F1D
  8
3
 10
40.114755249834573
 20
105.9301803640449
 30
0.0
 11
40.830945726025057
 21
105.9301803640449
 31
0.0
  0
LINE
  5
1F1E
  8
3
 10
40.114755249834609
 20
106.64637084023541
 30
0.0
 11
40.830945726025099
 21
106.64637084023541
 31
0.0
  0
LINE
  5
1F1F
  8
3
 10
41.13951715459666
 20
106.9549422688066
 30
0.0
 11
40.830945726025099
 21
106.64637084023531
 31
0.0
  0
LINE
  5
1F20
  8
3
 10
40.830945726025057
 20
105.9301803640449
 30
0.0
 11
41.139517154596597
 21
105.6216089354733
 31
0.0
  0
LINE
  5
1F21
  8
3
 10
40.114755249834573
 20
105.9301803640449
 30
0.0
 11
39.806183821263289
 21
105.6216089354734
 31
0.0
  0
LINE
  5
1F22
  8
3
 10
40.114755249834609
 20
106.64637084023541
 30
0.0
 11
39.80618382126336
 21
106.9549422688067
 31
0.0
  0
LINE
  5
1F23
  8
3
 10
40.114755249834673
 20
107.97970417356871
 30
0.0
 11
39.806183821263417
 21
108.28827560214
 31
0.0
  0
LINE
  5
1F24
  8
3
 10
40.11475524983463
 20
107.2635136973782
 30
0.0
 11
39.80618382126336
 21
106.9549422688067
 31
0.0
  0
LINE
  5
1F25
  8
3
 10
40.830945726025121
 20
107.2635136973782
 30
0.0
 11
41.13951715459666
 21
106.9549422688066
 31
0.0
  0
LINE
  5
1F26
  8
3
 10
41.139517154596717
 20
108.2882756021399
 30
0.0
 11
40.830945726025163
 21
107.97970417356871
 31
0.0
  0
LINE
  5
1F27
  8
3
 10
40.114755249834673
 20
107.97970417356871
 30
0.0
 11
40.830945726025163
 21
107.97970417356871
 31
0.0
  0
LINE
  5
1F28
  8
3
 10
40.11475524983463
 20
107.2635136973782
 30
0.0
 11
40.830945726025121
 21
107.2635136973782
 31
0.0
  0
LINE
  5
1F29
  8
3
 10
40.11475524983463
 20
107.2635136973782
 30
0.0
 11
40.114755249834673
 21
107.97970417356871
 31
0.0
  0
LINE
  5
1F2A
  8
3
 10
40.830945726025121
 20
107.2635136973782
 30
0.0
 11
40.830945726025163
 21
107.97970417356871
 31
0.0
  0
LINE
  5
1F2B
  8
3
 10
40.11475524983473
 20
109.31303750690201
 30
0.0
 11
39.806183821263481
 21
109.6216089354733
 31
0.0
  0
LINE
  5
1F2C
  8
3
 10
40.114755249834687
 20
108.5968470307115
 30
0.0
 11
39.806183821263417
 21
108.28827560214
 31
0.0
  0
LINE
  5
1F2D
  8
3
 10
40.830945726025192
 20
108.5968470307115
 30
0.0
 11
41.139517154596717
 21
108.2882756021399
 31
0.0
  0
LINE
  5
1F2E
  8
3
 10
41.139517154596803
 20
109.6216089354732
 30
0.0
 11
40.83094572602522
 21
109.31303750690201
 31
0.0
  0
LINE
  5
1F2F
  8
3
 10
40.11475524983473
 20
109.31303750690201
 30
0.0
 11
40.83094572602522
 21
109.31303750690201
 31
0.0
  0
LINE
  5
1F30
  8
3
 10
40.114755249834687
 20
108.5968470307115
 30
0.0
 11
40.830945726025192
 21
108.5968470307115
 31
0.0
  0
LINE
  5
1F31
  8
3
 10
40.114755249834687
 20
108.5968470307115
 30
0.0
 11
40.11475524983473
 21
109.31303750690201
 31
0.0
  0
LINE
  5
1F32
  8
3
 10
40.830945726025192
 20
108.5968470307115
 30
0.0
 11
40.83094572602522
 21
109.31303750690201
 31
0.0
  0
LINE
  5
1F33
  8
3
 10
40.114755249834801
 20
110.64637084023531
 30
0.0
 11
39.806183821263552
 21
110.9549422688066
 31
0.0
  0
LINE
  5
1F34
  8
3
 10
40.114755249834772
 20
109.9301803640449
 30
0.0
 11
39.806183821263481
 21
109.6216089354733
 31
0.0
  0
LINE
  5
1F35
  8
3
 10
40.830945726025249
 20
109.9301803640448
 30
0.0
 11
41.139517154596803
 21
109.6216089354732
 31
0.0
  0
LINE
  5
1F36
  8
3
 10
41.139517154596859
 20
110.9549422688066
 30
0.0
 11
40.830945726025277
 21
110.64637084023531
 31
0.0
  0
LINE
  5
1F37
  8
3
 10
40.114755249834801
 20
110.64637084023531
 30
0.0
 11
40.830945726025277
 21
110.64637084023531
 31
0.0
  0
LINE
  5
1F38
  8
3
 10
40.114755249834772
 20
109.9301803640448
 30
0.0
 11
40.830945726025249
 21
109.9301803640448
 31
0.0
  0
LINE
  5
1F39
  8
3
 10
40.114755249834772
 20
109.9301803640449
 30
0.0
 11
40.114755249834801
 21
110.64637084023531
 31
0.0
  0
LINE
  5
1F3A
  8
3
 10
40.830945726025249
 20
109.9301803640448
 30
0.0
 11
40.830945726025277
 21
110.64637084023531
 31
0.0
  0
LINE
  5
1F3B
  8
3
 10
40.114755249834872
 20
111.97970417356861
 30
0.0
 11
39.806183821263623
 21
112.2882756021399
 31
0.0
  0
LINE
  5
1F3C
  8
3
 10
40.114755249834843
 20
111.2635136973782
 30
0.0
 11
39.806183821263552
 21
110.9549422688066
 31
0.0
  0
LINE
  5
1F3D
  8
3
 10
40.83094572602532
 20
111.2635136973781
 30
0.0
 11
41.139517154596859
 21
110.9549422688066
 31
0.0
  0
LINE
  5
1F3E
  8
3
 10
41.13951715459693
 20
112.2882756021399
 30
0.0
 11
40.830945726025362
 21
111.97970417356861
 31
0.0
  0
LINE
  5
1F3F
  8
3
 10
40.114755249834872
 20
111.97970417356861
 30
0.0
 11
40.830945726025362
 21
111.97970417356861
 31
0.0
  0
LINE
  5
1F40
  8
3
 10
40.114755249834843
 20
111.2635136973782
 30
0.0
 11
40.83094572602532
 21
111.2635136973781
 31
0.0
  0
LINE
  5
1F41
  8
3
 10
40.114755249834843
 20
111.2635136973782
 30
0.0
 11
40.114755249834872
 21
111.97970417356861
 31
0.0
  0
LINE
  5
1F42
  8
3
 10
40.83094572602532
 20
111.2635136973781
 30
0.0
 11
40.830945726025362
 21
111.97970417356861
 31
0.0
  0
LINE
  5
1F43
  8
3
 10
40.114755249835021
 20
115.2635136973781
 30
0.0
 11
40.830945726025519
 21
115.2635136973781
 31
0.0
  0
LINE
  5
1F44
  8
3
 10
40.830945726025519
 20
115.2635136973781
 30
0.0
 11
41.139517154597051
 21
114.95494226880651
 31
0.0
  0
LINE
  5
1F45
  8
3
 10
40.114755249835021
 20
115.2635136973781
 30
0.0
 11
39.806183821263751
 21
114.9549422688066
 31
0.0
  0
LINE
  5
1F46
  8
3
 10
40.830945726025448
 20
113.9301803640448
 30
0.0
 11
40.83094572602549
 21
114.64637084023521
 31
0.0
  0
LINE
  5
1F47
  8
3
 10
40.114755249834957
 20
113.9301803640448
 30
0.0
 11
40.114755249835
 21
114.64637084023531
 31
0.0
  0
LINE
  5
1F48
  8
3
 10
40.114755249834957
 20
113.9301803640448
 30
0.0
 11
40.830945726025448
 21
113.9301803640448
 31
0.0
  0
LINE
  5
1F49
  8
3
 10
40.114755249835
 20
114.64637084023531
 30
0.0
 11
40.83094572602549
 21
114.64637084023521
 31
0.0
  0
LINE
  5
1F4A
  8
3
 10
41.139517154597051
 20
114.95494226880651
 30
0.0
 11
40.83094572602549
 21
114.64637084023521
 31
0.0
  0
LINE
  5
1F4B
  8
3
 10
40.830945726025448
 20
113.9301803640448
 30
0.0
 11
41.139517154596987
 21
113.6216089354732
 31
0.0
  0
LINE
  5
1F4C
  8
3
 10
40.114755249834957
 20
113.9301803640448
 30
0.0
 11
39.80618382126368
 21
113.6216089354732
 31
0.0
  0
LINE
  5
1F4D
  8
3
 10
40.114755249835
 20
114.64637084023531
 30
0.0
 11
39.806183821263751
 21
114.9549422688066
 31
0.0
  0
LINE
  5
1F4E
  8
3
 10
40.830945726025391
 20
112.5968470307114
 30
0.0
 11
40.830945726025433
 21
113.31303750690191
 31
0.0
  0
LINE
  5
1F4F
  8
3
 10
40.1147552498349
 20
112.5968470307115
 30
0.0
 11
40.114755249834928
 21
113.31303750690201
 31
0.0
  0
LINE
  5
1F50
  8
3
 10
40.1147552498349
 20
112.5968470307115
 30
0.0
 11
40.830945726025391
 21
112.5968470307114
 31
0.0
  0
LINE
  5
1F51
  8
3
 10
40.114755249834928
 20
113.31303750690201
 30
0.0
 11
40.830945726025433
 21
113.31303750690191
 31
0.0
  0
LINE
  5
1F52
  8
3
 10
41.139517154596987
 20
113.6216089354732
 30
0.0
 11
40.830945726025433
 21
113.31303750690191
 31
0.0
  0
LINE
  5
1F53
  8
3
 10
40.830945726025391
 20
112.5968470307114
 30
0.0
 11
41.13951715459693
 21
112.2882756021399
 31
0.0
  0
LINE
  5
1F54
  8
3
 10
40.1147552498349
 20
112.5968470307115
 30
0.0
 11
39.806183821263623
 21
112.2882756021399
 31
0.0
  0
LINE
  5
1F55
  8
3
 10
40.114755249834928
 20
113.31303750690201
 30
0.0
 11
39.80618382126368
 21
113.6216089354732
 31
0.0
  0
LINE
  5
1F56
  8
3
 10
40.114755249834928
 20
99.263513697378144
 30
0.0
 11
39.80618382126368
 21
98.95494226880686
 31
0.0
  0
LINE
  5
1F57
  8
3
 10
40.1147552498349
 20
99.979704173568607
 30
0.0
 11
39.806183821263623
 21
100.2882756021401
 31
0.0
  0
LINE
  5
1F58
  8
3
 10
40.830945726025391
 20
99.979704173568663
 30
0.0
 11
41.13951715459693
 21
100.2882756021402
 31
0.0
  0
LINE
  5
1F59
  8
3
 10
41.139517154596987
 20
98.954942268806931
 30
0.0
 11
40.830945726025433
 21
99.263513697378187
 31
0.0
  0
LINE
  5
1F5A
  8
3
 10
40.114755249834928
 20
99.263513697378144
 30
0.0
 11
40.830945726025433
 21
99.263513697378173
 31
0.0
  0
LINE
  5
1F5B
  8
3
 10
40.1147552498349
 20
99.979704173568621
 30
0.0
 11
40.830945726025391
 21
99.979704173568663
 31
0.0
  0
LINE
  5
1F5C
  8
3
 10
40.1147552498349
 20
99.979704173568607
 30
0.0
 11
40.114755249834928
 21
99.263513697378144
 31
0.0
  0
LINE
  5
1F5D
  8
3
 10
40.830945726025391
 20
99.979704173568649
 30
0.0
 11
40.830945726025433
 21
99.263513697378187
 31
0.0
  0
LINE
  5
1F5E
  8
3
 10
40.114755249835
 20
97.930180364044816
 30
0.0
 11
39.806183821263751
 21
97.621608935473546
 31
0.0
  0
LINE
  5
1F5F
  8
3
 10
40.114755249834957
 20
98.646370840235292
 30
0.0
 11
39.80618382126368
 21
98.95494226880686
 31
0.0
  0
LINE
  5
1F60
  8
3
 10
40.830945726025448
 20
98.646370840235335
 30
0.0
 11
41.139517154596987
 21
98.954942268806931
 31
0.0
  0
LINE
  5
1F61
  8
3
 10
41.139517154597051
 20
97.621608935473603
 30
0.0
 11
40.83094572602549
 21
97.930180364044887
 31
0.0
  0
LINE
  5
1F62
  8
3
 10
40.114755249835
 20
97.930180364044816
 30
0.0
 11
40.83094572602549
 21
97.930180364044858
 31
0.0
  0
LINE
  5
1F63
  8
3
 10
40.114755249834957
 20
98.646370840235306
 30
0.0
 11
40.830945726025448
 21
98.646370840235335
 31
0.0
  0
LINE
  5
1F64
  8
3
 10
40.114755249834957
 20
98.646370840235292
 30
0.0
 11
40.114755249835
 21
97.930180364044816
 31
0.0
  0
LINE
  5
1F65
  8
3
 10
40.830945726025448
 20
98.646370840235335
 30
0.0
 11
40.83094572602549
 21
97.930180364044887
 31
0.0
  0
LINE
  5
1F66
  8
3
 10
40.114755249835021
 20
97.313037506901978
 30
0.0
 11
39.806183821263751
 21
97.621608935473546
 31
0.0
  0
LINE
  5
1F67
  8
3
 10
40.830945726025519
 20
97.313037506902035
 30
0.0
 11
41.139517154597051
 21
97.621608935473603
 31
0.0
  0
LINE
  5
1F68
  8
3
 10
40.114755249835021
 20
97.313037506902006
 30
0.0
 11
40.830945726025519
 21
97.313037506902035
 31
0.0
  0
LINE
  5
1F69
  8
3
 10
40.83094572602532
 20
101.31303750690191
 30
0.0
 11
40.830945726025362
 21
100.5968470307115
 31
0.0
  0
LINE
  5
1F6A
  8
3
 10
40.114755249834843
 20
101.31303750690191
 30
0.0
 11
40.114755249834872
 21
100.5968470307114
 31
0.0
  0
LINE
  5
1F6B
  8
3
 10
40.114755249834843
 20
101.31303750690191
 30
0.0
 11
40.83094572602532
 21
101.31303750690191
 31
0.0
  0
LINE
  5
1F6C
  8
3
 10
40.114755249834872
 20
100.5968470307114
 30
0.0
 11
40.830945726025362
 21
100.5968470307115
 31
0.0
  0
LINE
  5
1F6D
  8
3
 10
41.13951715459693
 20
100.2882756021402
 30
0.0
 11
40.830945726025362
 21
100.5968470307115
 31
0.0
  0
LINE
  5
1F6E
  8
3
 10
40.83094572602532
 20
101.31303750690191
 30
0.0
 11
41.139517154596859
 21
101.6216089354735
 31
0.0
  0
LINE
  5
1F6F
  8
3
 10
40.114755249834843
 20
101.31303750690191
 30
0.0
 11
39.806183821263552
 21
101.6216089354735
 31
0.0
  0
LINE
  5
1F70
  8
3
 10
40.114755249834872
 20
100.5968470307114
 30
0.0
 11
39.806183821263623
 21
100.2882756021401
 31
0.0
  0
LINE
  5
1F71
  8
3
 10
40.830945726025249
 20
102.64637084023531
 30
0.0
 11
40.830945726025277
 21
101.9301803640448
 31
0.0
  0
LINE
  5
1F72
  8
3
 10
40.114755249834772
 20
102.64637084023521
 30
0.0
 11
40.114755249834801
 21
101.9301803640447
 31
0.0
  0
LINE
  5
1F73
  8
3
 10
40.114755249834772
 20
102.64637084023521
 30
0.0
 11
40.830945726025249
 21
102.64637084023531
 31
0.0
  0
LINE
  5
1F74
  8
3
 10
40.114755249834801
 20
101.9301803640447
 30
0.0
 11
40.830945726025277
 21
101.9301803640448
 31
0.0
  0
LINE
  5
1F75
  8
3
 10
41.139517154596859
 20
101.6216089354735
 30
0.0
 11
40.830945726025277
 21
101.9301803640448
 31
0.0
  0
LINE
  5
1F76
  8
3
 10
40.830945726025249
 20
102.64637084023531
 30
0.0
 11
41.139517154596803
 21
102.9549422688068
 31
0.0
  0
LINE
  5
1F77
  8
3
 10
40.114755249834772
 20
102.64637084023521
 30
0.0
 11
39.806183821263481
 21
102.9549422688068
 31
0.0
  0
LINE
  5
1F78
  8
3
 10
40.114755249834801
 20
101.9301803640447
 30
0.0
 11
39.806183821263552
 21
101.6216089354735
 31
0.0
  0
LINE
  5
1F79
  8
3
 10
40.830945726025192
 20
103.97970417356861
 30
0.0
 11
40.83094572602522
 21
103.2635136973781
 31
0.0
  0
LINE
  5
1F7A
  8
3
 10
40.114755249834687
 20
103.97970417356851
 30
0.0
 11
40.11475524983473
 21
103.2635136973781
 31
0.0
  0
LINE
  5
1F7B
  8
3
 10
40.114755249834687
 20
103.97970417356851
 30
0.0
 11
40.830945726025192
 21
103.97970417356861
 31
0.0
  0
LINE
  5
1F7C
  8
3
 10
40.11475524983473
 20
103.2635136973781
 30
0.0
 11
40.83094572602522
 21
103.2635136973781
 31
0.0
  0
LINE
  5
1F7D
  8
3
 10
41.139517154596803
 20
102.9549422688068
 30
0.0
 11
40.83094572602522
 21
103.2635136973781
 31
0.0
  0
LINE
  5
1F7E
  8
3
 10
40.830945726025192
 20
103.97970417356861
 30
0.0
 11
41.139517154596717
 21
104.2882756021402
 31
0.0
  0
LINE
  5
1F7F
  8
3
 10
40.114755249834687
 20
103.97970417356851
 30
0.0
 11
39.806183821263417
 21
104.2882756021401
 31
0.0
  0
LINE
  5
1F80
  8
3
 10
40.11475524983473
 20
103.2635136973781
 30
0.0
 11
39.806183821263481
 21
102.9549422688068
 31
0.0
  0
LINE
  5
1F81
  8
3
 10
40.830945726025121
 20
105.31303750690191
 30
0.0
 11
40.830945726025163
 21
104.5968470307114
 31
0.0
  0
LINE
  5
1F82
  8
3
 10
40.11475524983463
 20
105.31303750690179
 30
0.0
 11
40.114755249834673
 21
104.5968470307114
 31
0.0
  0
LINE
  5
1F83
  8
3
 10
40.11475524983463
 20
105.31303750690191
 30
0.0
 11
40.830945726025121
 21
105.31303750690191
 31
0.0
  0
LINE
  5
1F84
  8
3
 10
40.114755249834673
 20
104.5968470307114
 30
0.0
 11
40.830945726025163
 21
104.5968470307114
 31
0.0
  0
LINE
  5
1F85
  8
3
 10
41.139517154596717
 20
104.2882756021402
 30
0.0
 11
40.830945726025163
 21
104.5968470307114
 31
0.0
  0
LINE
  5
1F86
  8
3
 10
40.830945726025121
 20
105.31303750690191
 30
0.0
 11
41.13951715459666
 21
105.6216089354735
 31
0.0
  0
LINE
  5
1F87
  8
3
 10
40.11475524983463
 20
105.31303750690179
 30
0.0
 11
39.80618382126336
 21
105.6216089354734
 31
0.0
  0
LINE
  5
1F88
  8
3
 10
40.114755249834673
 20
104.5968470307114
 30
0.0
 11
39.806183821263417
 21
104.2882756021401
 31
0.0
  0
LINE
  5
1F89
  8
3
 10
40.114755249835021
 20
97.313037506901978
 30
0.0
 11
40.114755249835063
 21
96.596847030711515
 31
0.0
  0
LINE
  5
1F8A
  8
3
 10
40.114755249835063
 20
96.596847030711515
 30
0.0
 11
40.830945726025547
 21
96.596847030711544
 31
0.0
  0
LINE
  5
1F8B
  8
3
 10
40.830945726025519
 20
97.31303750690202
 30
0.0
 11
40.830945726025547
 21
96.596847030711572
 31
0.0
  0
LINE
  5
1F8C
  8
3
 10
38.781421916501621
 20
99.263513697378073
 30
0.0
 11
38.472850487930359
 21
98.954942268806775
 31
0.0
  0
LINE
  5
1F8D
  8
3
 10
38.781421916501593
 20
99.979704173568535
 30
0.0
 11
38.472850487930302
 21
100.2882756021401
 31
0.0
  0
LINE
  5
1F8E
  8
3
 10
39.497612392692069
 20
99.979704173568607
 30
0.0
 11
39.806183821263623
 21
100.2882756021401
 31
0.0
  0
LINE
  5
1F8F
  8
3
 10
39.80618382126368
 20
98.95494226880686
 30
0.0
 11
39.497612392692112
 21
99.263513697378116
 31
0.0
  0
LINE
  5
1F90
  8
3
 10
38.781421916501621
 20
99.263513697378073
 30
0.0
 11
39.497612392692112
 21
99.263513697378102
 31
0.0
  0
LINE
  5
1F91
  8
3
 10
38.781421916501593
 20
99.97970417356855
 30
0.0
 11
39.497612392692069
 21
99.979704173568607
 31
0.0
  0
LINE
  5
1F92
  8
3
 10
38.781421916501593
 20
99.979704173568535
 30
0.0
 11
38.781421916501621
 21
99.263513697378073
 31
0.0
  0
LINE
  5
1F93
  8
3
 10
39.497612392692069
 20
99.979704173568578
 30
0.0
 11
39.497612392692112
 21
99.263513697378116
 31
0.0
  0
LINE
  5
1F94
  8
3
 10
38.781421916501692
 20
97.930180364044745
 30
0.0
 11
38.47285048793043
 21
97.621608935473475
 31
0.0
  0
LINE
  5
1F95
  8
3
 10
38.78142191650165
 20
98.646370840235221
 30
0.0
 11
38.472850487930359
 21
98.954942268806775
 31
0.0
  0
LINE
  5
1F96
  8
3
 10
39.49761239269214
 20
98.646370840235264
 30
0.0
 11
39.80618382126368
 21
98.95494226880686
 31
0.0
  0
LINE
  5
1F97
  8
3
 10
39.806183821263751
 20
97.621608935473546
 30
0.0
 11
39.497612392692183
 21
97.930180364044816
 31
0.0
  0
LINE
  5
1F98
  8
3
 10
38.781421916501692
 20
97.930180364044745
 30
0.0
 11
39.497612392692183
 21
97.930180364044787
 31
0.0
  0
LINE
  5
1F99
  8
3
 10
38.78142191650165
 20
98.646370840235235
 30
0.0
 11
39.49761239269214
 21
98.646370840235264
 31
0.0
  0
LINE
  5
1F9A
  8
3
 10
38.78142191650165
 20
98.646370840235221
 30
0.0
 11
38.781421916501692
 21
97.930180364044745
 31
0.0
  0
LINE
  5
1F9B
  8
3
 10
39.49761239269214
 20
98.646370840235264
 30
0.0
 11
39.497612392692183
 21
97.930180364044816
 31
0.0
  0
LINE
  5
1F9C
  8
3
 10
38.781421916501721
 20
97.313037506901907
 30
0.0
 11
38.47285048793043
 21
97.621608935473475
 31
0.0
  0
LINE
  5
1F9D
  8
3
 10
39.497612392692197
 20
97.313037506901964
 30
0.0
 11
39.806183821263751
 21
97.621608935473546
 31
0.0
  0
LINE
  5
1F9E
  8
3
 10
38.781421916501721
 20
97.313037506901935
 30
0.0
 11
39.497612392692197
 21
97.313037506901964
 31
0.0
  0
LINE
  5
1F9F
  8
3
 10
39.497612392692012
 20
101.31303750690191
 30
0.0
 11
39.497612392692048
 21
100.5968470307114
 31
0.0
  0
LINE
  5
1FA0
  8
3
 10
38.781421916501522
 20
101.31303750690179
 30
0.0
 11
38.781421916501557
 21
100.5968470307114
 31
0.0
  0
LINE
  5
1FA1
  8
3
 10
38.781421916501522
 20
101.31303750690179
 30
0.0
 11
39.497612392692012
 21
101.31303750690191
 31
0.0
  0
LINE
  5
1FA2
  8
3
 10
38.781421916501557
 20
100.5968470307114
 30
0.0
 11
39.497612392692048
 21
100.5968470307114
 31
0.0
  0
LINE
  5
1FA3
  8
3
 10
39.806183821263623
 20
100.2882756021401
 30
0.0
 11
39.497612392692048
 21
100.5968470307114
 31
0.0
  0
LINE
  5
1FA4
  8
3
 10
39.497612392692012
 20
101.31303750690191
 30
0.0
 11
39.806183821263552
 21
101.6216089354735
 31
0.0
  0
LINE
  5
1FA5
  8
3
 10
38.781421916501522
 20
101.31303750690179
 30
0.0
 11
38.472850487930231
 21
101.6216089354734
 31
0.0
  0
LINE
  5
1FA6
  8
3
 10
38.781421916501557
 20
100.5968470307114
 30
0.0
 11
38.472850487930302
 21
100.2882756021401
 31
0.0
  0
LINE
  5
1FA7
  8
3
 10
39.497612392691941
 20
102.64637084023521
 30
0.0
 11
39.497612392691977
 21
101.9301803640447
 31
0.0
  0
LINE
  5
1FA8
  8
3
 10
38.781421916501451
 20
102.64637084023509
 30
0.0
 11
38.781421916501479
 21
101.9301803640447
 31
0.0
  0
LINE
  5
1FA9
  8
3
 10
38.781421916501451
 20
102.64637084023521
 30
0.0
 11
39.497612392691941
 21
102.64637084023521
 31
0.0
  0
LINE
  5
1FAA
  8
3
 10
38.781421916501479
 20
101.9301803640447
 30
0.0
 11
39.497612392691977
 21
101.9301803640447
 31
0.0
  0
LINE
  5
1FAB
  8
3
 10
39.806183821263552
 20
101.6216089354735
 30
0.0
 11
39.497612392691977
 21
101.9301803640447
 31
0.0
  0
LINE
  5
1FAC
  8
3
 10
39.497612392691941
 20
102.64637084023521
 30
0.0
 11
39.806183821263481
 21
102.9549422688068
 31
0.0
  0
LINE
  5
1FAD
  8
3
 10
38.781421916501451
 20
102.64637084023509
 30
0.0
 11
38.472850487930167
 21
102.9549422688067
 31
0.0
  0
LINE
  5
1FAE
  8
3
 10
38.781421916501479
 20
101.9301803640447
 30
0.0
 11
38.472850487930231
 21
101.6216089354734
 31
0.0
  0
LINE
  5
1FAF
  8
3
 10
39.497612392691877
 20
103.97970417356851
 30
0.0
 11
39.49761239269192
 21
103.263513697378
 31
0.0
  0
LINE
  5
1FB0
  8
3
 10
38.781421916501387
 20
103.97970417356839
 30
0.0
 11
38.781421916501422
 21
103.263513697378
 31
0.0
  0
LINE
  5
1FB1
  8
3
 10
38.781421916501387
 20
103.97970417356851
 30
0.0
 11
39.497612392691877
 21
103.97970417356851
 31
0.0
  0
LINE
  5
1FB2
  8
3
 10
38.781421916501422
 20
103.263513697378
 30
0.0
 11
39.49761239269192
 21
103.263513697378
 31
0.0
  0
LINE
  5
1FB3
  8
3
 10
39.806183821263481
 20
102.9549422688068
 30
0.0
 11
39.49761239269192
 21
103.263513697378
 31
0.0
  0
LINE
  5
1FB4
  8
3
 10
39.497612392691877
 20
103.97970417356851
 30
0.0
 11
39.806183821263417
 21
104.2882756021401
 31
0.0
  0
LINE
  5
1FB5
  8
3
 10
38.781421916501387
 20
103.97970417356839
 30
0.0
 11
38.472850487930103
 21
104.28827560214
 31
0.0
  0
LINE
  5
1FB6
  8
3
 10
38.781421916501422
 20
103.263513697378
 30
0.0
 11
38.472850487930167
 21
102.9549422688067
 31
0.0
  0
LINE
  5
1FB7
  8
3
 10
39.497612392691813
 20
105.31303750690179
 30
0.0
 11
39.497612392691849
 21
104.5968470307113
 31
0.0
  0
LINE
  5
1FB8
  8
3
 10
38.781421916501323
 20
105.31303750690179
 30
0.0
 11
38.781421916501358
 21
104.5968470307113
 31
0.0
  0
LINE
  5
1FB9
  8
3
 10
38.781421916501323
 20
105.31303750690179
 30
0.0
 11
39.497612392691813
 21
105.31303750690179
 31
0.0
  0
LINE
  5
1FBA
  8
3
 10
38.781421916501358
 20
104.5968470307113
 30
0.0
 11
39.497612392691849
 21
104.5968470307113
 31
0.0
  0
LINE
  5
1FBB
  8
3
 10
39.806183821263417
 20
104.2882756021401
 30
0.0
 11
39.497612392691849
 21
104.5968470307113
 31
0.0
  0
LINE
  5
1FBC
  8
3
 10
39.497612392691813
 20
105.31303750690179
 30
0.0
 11
39.80618382126336
 21
105.6216089354734
 31
0.0
  0
LINE
  5
1FBD
  8
3
 10
38.781421916501323
 20
105.31303750690179
 30
0.0
 11
38.472850487930039
 21
105.6216089354733
 31
0.0
  0
LINE
  5
1FBE
  8
3
 10
38.781421916501358
 20
104.5968470307113
 30
0.0
 11
38.472850487930103
 21
104.28827560214
 31
0.0
  0
LINE
  5
1FBF
  8
3
 10
38.781421916501721
 20
97.313037506901907
 30
0.0
 11
38.781421916501749
 21
96.756706192042728
 31
0.0
  0
LINE
  5
1FC0
  8
3
 10
39.341186408506601
 20
96.596847030711459
 30
0.0
 11
39.49761239269224
 21
96.596847030711487
 31
0.0
  0
LINE
  5
1FC1
  8
3
 10
39.497612392692197
 20
97.313037506901935
 30
0.0
 11
39.49761239269224
 21
96.596847030711501
 31
0.0
  0
LINE
  5
1FC2
  8
3
 10
37.448088583168307
 20
99.263513697378016
 30
0.0
 11
37.139517154597051
 21
98.954942268806704
 31
0.0
  0
LINE
  5
1FC3
  8
3
 10
37.448088583168271
 20
99.979704173568464
 30
0.0
 11
37.139517154596987
 21
100.28827560214
 31
0.0
  0
LINE
  5
1FC4
  8
3
 10
38.164279059358762
 20
99.979704173568535
 30
0.0
 11
38.472850487930302
 21
100.2882756021401
 31
0.0
  0
LINE
  5
1FC5
  8
3
 10
38.472850487930359
 20
98.954942268806775
 30
0.0
 11
38.164279059358797
 21
99.263513697378059
 31
0.0
  0
LINE
  5
1FC6
  8
3
 10
37.448088583168307
 20
99.263513697378016
 30
0.0
 11
38.164279059358797
 21
99.263513697378045
 31
0.0
  0
LINE
  5
1FC7
  8
3
 10
37.448088583168271
 20
99.979704173568479
 30
0.0
 11
38.164279059358762
 21
99.979704173568535
 31
0.0
  0
LINE
  5
1FC8
  8
3
 10
37.448088583168271
 20
99.979704173568464
 30
0.0
 11
37.448088583168307
 21
99.263513697378016
 31
0.0
  0
LINE
  5
1FC9
  8
3
 10
38.164279059358762
 20
99.979704173568535
 30
0.0
 11
38.164279059358797
 21
99.263513697378059
 31
0.0
  0
LINE
  5
1FCA
  8
3
 10
37.448088583168371
 20
97.930180364044674
 30
0.0
 11
37.139517154597122
 21
97.621608935473404
 31
0.0
  0
LINE
  5
1FCB
  8
3
 10
37.448088583168328
 20
98.64637084023515
 30
0.0
 11
37.139517154597051
 21
98.954942268806704
 31
0.0
  0
LINE
  5
1FCC
  8
3
 10
38.164279059358833
 20
98.646370840235221
 30
0.0
 11
38.472850487930359
 21
98.954942268806775
 31
0.0
  0
LINE
  5
1FCD
  8
3
 10
38.47285048793043
 20
97.621608935473475
 30
0.0
 11
38.164279059358861
 21
97.930180364044745
 31
0.0
  0
LINE
  5
1FCE
  8
3
 10
37.448088583168371
 20
97.930180364044674
 30
0.0
 11
38.164279059358861
 21
97.930180364044745
 31
0.0
  0
LINE
  5
1FCF
  8
3
 10
37.448088583168328
 20
98.646370840235164
 30
0.0
 11
38.164279059358833
 21
98.646370840235221
 31
0.0
  0
LINE
  5
1FD0
  8
3
 10
37.448088583168328
 20
98.64637084023515
 30
0.0
 11
37.448088583168371
 21
97.930180364044674
 31
0.0
  0
LINE
  5
1FD1
  8
3
 10
38.164279059358833
 20
98.646370840235207
 30
0.0
 11
38.164279059358861
 21
97.930180364044745
 31
0.0
  0
LINE
  5
1FD2
  8
3
 10
37.448088583168399
 20
97.313037506901836
 30
0.0
 11
37.139517154597122
 21
97.621608935473404
 31
0.0
  0
LINE
  5
1FD3
  8
3
 10
38.16427905935889
 20
97.313037506901907
 30
0.0
 11
38.47285048793043
 21
97.621608935473475
 31
0.0
  0
LINE
  5
1FD4
  8
3
 10
37.448088583168399
 20
97.313037506901864
 30
0.0
 11
38.16427905935889
 21
97.313037506901907
 31
0.0
  0
LINE
  5
1FD5
  8
3
 10
38.164279059358698
 20
101.31303750690179
 30
0.0
 11
38.164279059358734
 21
100.5968470307113
 31
0.0
  0
LINE
  5
1FD6
  8
3
 10
37.448088583168207
 20
101.31303750690169
 30
0.0
 11
37.44808858316825
 21
100.5968470307113
 31
0.0
  0
LINE
  5
1FD7
  8
3
 10
37.448088583168207
 20
101.31303750690179
 30
0.0
 11
38.164279059358698
 21
101.31303750690179
 31
0.0
  0
LINE
  5
1FD8
  8
3
 10
37.44808858316825
 20
100.5968470307113
 30
0.0
 11
38.164279059358734
 21
100.5968470307113
 31
0.0
  0
LINE
  5
1FD9
  8
3
 10
38.472850487930302
 20
100.2882756021401
 30
0.0
 11
38.164279059358734
 21
100.5968470307113
 31
0.0
  0
LINE
  5
1FDA
  8
3
 10
38.164279059358698
 20
101.31303750690179
 30
0.0
 11
38.472850487930231
 21
101.6216089354734
 31
0.0
  0
LINE
  5
1FDB
  8
3
 10
37.448088583168207
 20
101.31303750690169
 30
0.0
 11
37.139517154596923
 21
101.6216089354733
 31
0.0
  0
LINE
  5
1FDC
  8
3
 10
37.44808858316825
 20
100.5968470307113
 30
0.0
 11
37.139517154596987
 21
100.28827560214
 31
0.0
  0
LINE
  5
1FDD
  8
3
 10
38.164279059358627
 20
102.64637084023509
 30
0.0
 11
38.164279059358662
 21
101.9301803640447
 31
0.0
  0
LINE
  5
1FDE
  8
3
 10
37.448088583168143
 20
102.64637084023509
 30
0.0
 11
37.448088583168172
 21
101.9301803640446
 31
0.0
  0
LINE
  5
1FDF
  8
3
 10
37.448088583168143
 20
102.64637084023509
 30
0.0
 11
38.164279059358627
 21
102.64637084023509
 31
0.0
  0
LINE
  5
1FE0
  8
3
 10
37.448088583168172
 20
101.9301803640446
 30
0.0
 11
38.164279059358662
 21
101.9301803640446
 31
0.0
  0
LINE
  5
1FE1
  8
3
 10
38.472850487930231
 20
101.6216089354734
 30
0.0
 11
38.164279059358662
 21
101.9301803640447
 31
0.0
  0
LINE
  5
1FE2
  8
3
 10
38.164279059358627
 20
102.64637084023509
 30
0.0
 11
38.472850487930167
 21
102.9549422688067
 31
0.0
  0
LINE
  5
1FE3
  8
3
 10
37.448088583168143
 20
102.64637084023509
 30
0.0
 11
37.139517154596852
 21
102.9549422688066
 31
0.0
  0
LINE
  5
1FE4
  8
3
 10
37.448088583168172
 20
101.9301803640446
 30
0.0
 11
37.139517154596923
 21
101.6216089354733
 31
0.0
  0
LINE
  5
1FE5
  8
3
 10
38.16427905935857
 20
103.97970417356839
 30
0.0
 11
38.164279059358599
 21
103.263513697378
 31
0.0
  0
LINE
  5
1FE6
  8
3
 10
37.448088583168072
 20
103.97970417356839
 30
0.0
 11
37.448088583168108
 21
103.2635136973779
 31
0.0
  0
LINE
  5
1FE7
  8
3
 10
37.448088583168072
 20
103.97970417356839
 30
0.0
 11
38.16427905935857
 21
103.97970417356839
 31
0.0
  0
LINE
  5
1FE8
  8
3
 10
37.448088583168108
 20
103.2635136973779
 30
0.0
 11
38.164279059358599
 21
103.263513697378
 31
0.0
  0
LINE
  5
1FE9
  8
3
 10
38.472850487930167
 20
102.9549422688067
 30
0.0
 11
38.164279059358599
 21
103.263513697378
 31
0.0
  0
LINE
  5
1FEA
  8
3
 10
38.16427905935857
 20
103.97970417356839
 30
0.0
 11
38.472850487930103
 21
104.28827560214
 31
0.0
  0
LINE
  5
1FEB
  8
3
 10
37.448088583168072
 20
103.97970417356839
 30
0.0
 11
37.139517154596788
 21
104.28827560214
 31
0.0
  0
LINE
  5
1FEC
  8
3
 10
37.448088583168108
 20
103.2635136973779
 30
0.0
 11
37.139517154596852
 21
102.9549422688066
 31
0.0
  0
LINE
  5
1FED
  8
3
 10
38.164279059358499
 20
105.31303750690169
 30
0.0
 11
38.164279059358527
 21
104.5968470307113
 31
0.0
  0
LINE
  5
1FEE
  8
3
 10
37.448088583168008
 20
105.31303750690169
 30
0.0
 11
37.448088583168051
 21
104.5968470307112
 31
0.0
  0
LINE
  5
1FEF
  8
3
 10
37.448088583168008
 20
105.31303750690169
 30
0.0
 11
38.164279059358499
 21
105.31303750690179
 31
0.0
  0
LINE
  5
1FF0
  8
3
 10
37.448088583168051
 20
104.5968470307112
 30
0.0
 11
38.164279059358527
 21
104.5968470307113
 31
0.0
  0
LINE
  5
1FF1
  8
3
 10
38.472850487930103
 20
104.28827560214
 30
0.0
 11
38.164279059358527
 21
104.5968470307113
 31
0.0
  0
LINE
  5
1FF2
  8
3
 10
38.164279059358499
 20
105.31303750690179
 30
0.0
 11
38.472850487930039
 21
105.6216089354733
 31
0.0
  0
LINE
  5
1FF3
  8
3
 10
37.448088583168008
 20
105.31303750690169
 30
0.0
 11
37.139517154596732
 21
105.6216089354733
 31
0.0
  0
LINE
  5
1FF4
  8
3
 10
37.448088583168051
 20
104.5968470307112
 30
0.0
 11
37.139517154596788
 21
104.28827560214
 31
0.0
  0
LINE
  5
1FF5
  8
3
 10
37.448088583168399
 20
97.313037506901836
 30
0.0
 11
37.448088583168399
 21
97.287886394128279
 31
0.0
  0
LINE
  5
1FF6
  8
3
 10
38.16427905935889
 20
97.313037506901892
 30
0.0
 11
38.164279059358911
 21
96.975030748426704
 31
0.0
  0
LINE
  5
1FF7
  8
3
 10
36.114755249834992
 20
99.263513697377945
 30
0.0
 11
35.806183821263737
 21
98.954942268806661
 31
0.0
  0
LINE
  5
1FF8
  8
3
 10
36.114755249834957
 20
99.979704173568408
 30
0.0
 11
35.806183821263673
 21
100.2882756021399
 31
0.0
  0
LINE
  5
1FF9
  8
3
 10
36.830945726025448
 20
99.979704173568464
 30
0.0
 11
37.139517154596987
 21
100.28827560214
 31
0.0
  0
LINE
  5
1FFA
  8
3
 10
37.139517154597051
 20
98.954942268806704
 30
0.0
 11
36.83094572602549
 21
99.263513697377988
 31
0.0
  0
LINE
  5
1FFB
  8
3
 10
36.114755249834992
 20
99.263513697377945
 30
0.0
 11
36.83094572602549
 21
99.263513697377974
 31
0.0
  0
LINE
  5
1FFC
  8
3
 10
36.114755249834957
 20
99.979704173568422
 30
0.0
 11
36.830945726025448
 21
99.979704173568464
 31
0.0
  0
LINE
  5
1FFD
  8
3
 10
36.114755249834957
 20
99.979704173568408
 30
0.0
 11
36.114755249834992
 21
99.263513697377945
 31
0.0
  0
LINE
  5
1FFE
  8
3
 10
36.830945726025448
 20
99.979704173568464
 30
0.0
 11
36.83094572602549
 21
99.263513697377988
 31
0.0
  0
LINE
  5
1FFF
  8
3
 10
36.114755249835021
 20
98.646370840235093
 30
0.0
 11
35.806183821263737
 21
98.954942268806661
 31
0.0
  0
LINE
  5
2000
  8
3
 10
36.830945726025512
 20
98.64637084023515
 30
0.0
 11
37.139517154597051
 21
98.954942268806704
 31
0.0
  0
LINE
  5
2001
  8
3
 10
37.139517154597122
 20
97.621608935473404
 30
0.0
 11
36.830945726025547
 21
97.930180364044674
 31
0.0
  0
LINE
  5
2002
  8
3
 10
36.315988561445408
 20
97.930180364044617
 30
0.0
 11
36.830945726025547
 21
97.930180364044659
 31
0.0
  0
LINE
  5
2003
  8
3
 10
36.114755249835021
 20
98.646370840235107
 30
0.0
 11
36.830945726025512
 21
98.64637084023515
 31
0.0
  0
LINE
  5
2004
  8
3
 10
36.114755249835021
 20
98.646370840235093
 30
0.0
 11
36.114755249835049
 21
98.065889037624217
 31
0.0
  0
LINE
  5
2005
  8
3
 10
36.830945726025512
 20
98.646370840235136
 30
0.0
 11
36.830945726025547
 21
97.930180364044674
 31
0.0
  0
LINE
  5
2006
  8
3
 10
37.023853838138344
 20
97.505945619014611
 30
0.0
 11
37.139517154597122
 21
97.621608935473404
 31
0.0
  0
LINE
  5
2007
  8
3
 10
36.830945726025377
 20
101.31303750690169
 30
0.0
 11
36.830945726025419
 21
100.5968470307113
 31
0.0
  0
LINE
  5
2008
  8
3
 10
36.1147552498349
 20
101.31303750690169
 30
0.0
 11
36.114755249834928
 21
100.5968470307112
 31
0.0
  0
LINE
  5
2009
  8
3
 10
36.1147552498349
 20
101.31303750690169
 30
0.0
 11
36.830945726025377
 21
101.31303750690169
 31
0.0
  0
LINE
  5
200A
  8
3
 10
36.114755249834928
 20
100.5968470307112
 30
0.0
 11
36.830945726025419
 21
100.5968470307113
 31
0.0
  0
LINE
  5
200B
  8
3
 10
37.139517154596987
 20
100.28827560214
 30
0.0
 11
36.830945726025419
 21
100.5968470307113
 31
0.0
  0
LINE
  5
200C
  8
3
 10
36.830945726025377
 20
101.31303750690169
 30
0.0
 11
37.139517154596923
 21
101.6216089354733
 31
0.0
  0
LINE
  5
200D
  8
3
 10
36.1147552498349
 20
101.31303750690169
 30
0.0
 11
35.806183821263602
 21
101.6216089354733
 31
0.0
  0
LINE
  5
200E
  8
3
 10
36.114755249834928
 20
100.5968470307112
 30
0.0
 11
35.806183821263673
 21
100.2882756021399
 31
0.0
  0
LINE
  5
200F
  8
3
 10
36.830945726025313
 20
102.64637084023509
 30
0.0
 11
36.830945726025348
 21
101.9301803640446
 31
0.0
  0
LINE
  5
2010
  8
3
 10
36.114755249834822
 20
102.64637084023499
 30
0.0
 11
36.114755249834857
 21
101.9301803640445
 31
0.0
  0
LINE
  5
2011
  8
3
 10
36.114755249834822
 20
102.64637084023499
 30
0.0
 11
36.830945726025313
 21
102.64637084023509
 31
0.0
  0
LINE
  5
2012
  8
3
 10
36.114755249834857
 20
101.9301803640445
 30
0.0
 11
36.830945726025348
 21
101.9301803640446
 31
0.0
  0
LINE
  5
2013
  8
3
 10
37.139517154596923
 20
101.6216089354733
 30
0.0
 11
36.830945726025348
 21
101.9301803640446
 31
0.0
  0
LINE
  5
2014
  8
3
 10
36.830945726025313
 20
102.64637084023509
 30
0.0
 11
37.139517154596852
 21
102.9549422688066
 31
0.0
  0
LINE
  5
2015
  8
3
 10
36.114755249834822
 20
102.64637084023499
 30
0.0
 11
35.806183821263538
 21
102.9549422688066
 31
0.0
  0
LINE
  5
2016
  8
3
 10
36.114755249834857
 20
101.9301803640445
 30
0.0
 11
35.806183821263602
 21
101.6216089354733
 31
0.0
  0
LINE
  5
2017
  8
3
 10
36.830945726025249
 20
103.97970417356839
 30
0.0
 11
36.830945726025291
 21
103.2635136973779
 31
0.0
  0
LINE
  5
2018
  8
3
 10
36.114755249834758
 20
103.97970417356829
 30
0.0
 11
36.114755249834793
 21
103.2635136973779
 31
0.0
  0
LINE
  5
2019
  8
3
 10
36.114755249834758
 20
103.97970417356829
 30
0.0
 11
36.830945726025249
 21
103.97970417356839
 31
0.0
  0
LINE
  5
201A
  8
3
 10
36.114755249834793
 20
103.2635136973779
 30
0.0
 11
36.830945726025291
 21
103.2635136973779
 31
0.0
  0
LINE
  5
201B
  8
3
 10
37.139517154596852
 20
102.9549422688066
 30
0.0
 11
36.830945726025291
 21
103.2635136973779
 31
0.0
  0
LINE
  5
201C
  8
3
 10
36.830945726025249
 20
103.97970417356839
 30
0.0
 11
37.139517154596788
 21
104.28827560214
 31
0.0
  0
LINE
  5
201D
  8
3
 10
36.114755249834758
 20
103.97970417356829
 30
0.0
 11
35.806183821263481
 21
104.2882756021399
 31
0.0
  0
LINE
  5
201E
  8
3
 10
36.114755249834793
 20
103.2635136973779
 30
0.0
 11
35.806183821263538
 21
102.9549422688066
 31
0.0
  0
LINE
  5
201F
  8
3
 10
36.830945726025192
 20
105.31303750690169
 30
0.0
 11
36.83094572602522
 21
104.5968470307112
 31
0.0
  0
LINE
  5
2020
  8
3
 10
36.114755249834701
 20
105.31303750690159
 30
0.0
 11
36.11475524983473
 21
104.5968470307112
 31
0.0
  0
LINE
  5
2021
  8
3
 10
36.114755249834701
 20
105.31303750690169
 30
0.0
 11
36.830945726025192
 21
105.31303750690169
 31
0.0
  0
LINE
  5
2022
  8
3
 10
36.11475524983473
 20
104.5968470307112
 30
0.0
 11
36.83094572602522
 21
104.5968470307112
 31
0.0
  0
LINE
  5
2023
  8
3
 10
37.139517154596788
 20
104.28827560214
 30
0.0
 11
36.83094572602522
 21
104.5968470307112
 31
0.0
  0
LINE
  5
2024
  8
3
 10
36.830945726025192
 20
105.31303750690169
 30
0.0
 11
37.139517154596732
 21
105.6216089354733
 31
0.0
  0
LINE
  5
2025
  8
3
 10
36.114755249834701
 20
105.31303750690159
 30
0.0
 11
35.80618382126341
 21
105.6216089354732
 31
0.0
  0
LINE
  5
2026
  8
3
 10
36.11475524983473
 20
104.5968470307112
 30
0.0
 11
35.806183821263481
 21
104.2882756021399
 31
0.0
  0
LINE
  5
2027
  8
3
 10
34.781421916501422
 20
104.5968470307111
 30
0.0
 11
34.472850487930167
 21
104.28827560213981
 31
0.0
  0
LINE
  5
2028
  8
3
 10
34.781421916501387
 20
105.31303750690159
 30
0.0
 11
34.472850487930103
 21
105.6216089354732
 31
0.0
  0
LINE
  5
2029
  8
3
 10
35.497612392691877
 20
105.31303750690169
 30
0.0
 11
35.80618382126341
 21
105.6216089354732
 31
0.0
  0
LINE
  5
202A
  8
3
 10
35.806183821263481
 20
104.2882756021399
 30
0.0
 11
35.497612392691913
 21
104.5968470307112
 31
0.0
  0
LINE
  5
202B
  8
3
 10
34.781421916501422
 20
104.5968470307111
 30
0.0
 11
35.497612392691913
 21
104.5968470307112
 31
0.0
  0
LINE
  5
202C
  8
3
 10
34.781421916501387
 20
105.31303750690159
 30
0.0
 11
35.497612392691877
 21
105.31303750690169
 31
0.0
  0
LINE
  5
202D
  8
3
 10
34.781421916501387
 20
105.31303750690159
 30
0.0
 11
34.781421916501422
 21
104.5968470307111
 31
0.0
  0
LINE
  5
202E
  8
3
 10
35.497612392691877
 20
105.31303750690159
 30
0.0
 11
35.497612392691913
 21
104.5968470307112
 31
0.0
  0
LINE
  5
202F
  8
3
 10
34.781421916501493
 20
103.2635136973778
 30
0.0
 11
34.472850487930231
 21
102.95494226880651
 31
0.0
  0
LINE
  5
2030
  8
3
 10
34.781421916501451
 20
103.97970417356829
 30
0.0
 11
34.472850487930167
 21
104.28827560213981
 31
0.0
  0
LINE
  5
2031
  8
3
 10
35.497612392691941
 20
103.97970417356829
 30
0.0
 11
35.806183821263481
 21
104.2882756021399
 31
0.0
  0
LINE
  5
2032
  8
3
 10
35.806183821263538
 20
102.9549422688066
 30
0.0
 11
35.497612392691977
 21
103.2635136973779
 31
0.0
  0
LINE
  5
2033
  8
3
 10
34.781421916501493
 20
103.2635136973778
 30
0.0
 11
35.497612392691977
 21
103.2635136973778
 31
0.0
  0
LINE
  5
2034
  8
3
 10
34.781421916501451
 20
103.97970417356829
 30
0.0
 11
35.497612392691941
 21
103.97970417356829
 31
0.0
  0
LINE
  5
2035
  8
3
 10
34.781421916501451
 20
103.97970417356829
 30
0.0
 11
34.781421916501493
 21
103.2635136973778
 31
0.0
  0
LINE
  5
2036
  8
3
 10
35.497612392691941
 20
103.97970417356829
 30
0.0
 11
35.497612392691977
 21
103.2635136973779
 31
0.0
  0
LINE
  5
2037
  8
3
 10
34.78142191650155
 20
101.9301803640445
 30
0.0
 11
34.472850487930287
 21
101.6216089354732
 31
0.0
  0
LINE
  5
2038
  8
3
 10
34.781421916501522
 20
102.64637084023499
 30
0.0
 11
34.472850487930231
 21
102.95494226880651
 31
0.0
  0
LINE
  5
2039
  8
3
 10
35.497612392692012
 20
102.64637084023499
 30
0.0
 11
35.806183821263538
 21
102.9549422688066
 31
0.0
  0
LINE
  5
203A
  8
3
 10
35.806183821263602
 20
101.6216089354733
 30
0.0
 11
35.497612392692041
 21
101.9301803640445
 31
0.0
  0
LINE
  5
203B
  8
3
 10
34.78142191650155
 20
101.9301803640445
 30
0.0
 11
35.497612392692041
 21
101.9301803640445
 31
0.0
  0
LINE
  5
203C
  8
3
 10
34.781421916501522
 20
102.64637084023499
 30
0.0
 11
35.497612392692012
 21
102.64637084023499
 31
0.0
  0
LINE
  5
203D
  8
3
 10
34.781421916501522
 20
102.64637084023499
 30
0.0
 11
34.78142191650155
 21
101.9301803640445
 31
0.0
  0
LINE
  5
203E
  8
3
 10
35.497612392692012
 20
102.64637084023499
 30
0.0
 11
35.497612392692041
 21
101.9301803640445
 31
0.0
  0
LINE
  5
203F
  8
3
 10
34.781421916501621
 20
100.5968470307112
 30
0.0
 11
34.472850487930373
 21
100.2882756021399
 31
0.0
  0
LINE
  5
2040
  8
3
 10
34.781421916501593
 20
101.31303750690159
 30
0.0
 11
34.472850487930287
 21
101.6216089354732
 31
0.0
  0
LINE
  5
2041
  8
3
 10
35.497612392692083
 20
101.31303750690169
 30
0.0
 11
35.806183821263602
 21
101.6216089354733
 31
0.0
  0
LINE
  5
2042
  8
3
 10
35.806183821263673
 20
100.28827560214
 30
0.0
 11
35.497612392692112
 21
100.5968470307112
 31
0.0
  0
LINE
  5
2043
  8
3
 10
34.781421916501621
 20
100.5968470307112
 30
0.0
 11
35.497612392692112
 21
100.5968470307112
 31
0.0
  0
LINE
  5
2044
  8
3
 10
34.781421916501593
 20
101.31303750690169
 30
0.0
 11
35.497612392692083
 21
101.31303750690169
 31
0.0
  0
LINE
  5
2045
  8
3
 10
34.781421916501593
 20
101.31303750690159
 30
0.0
 11
34.781421916501621
 21
100.5968470307112
 31
0.0
  0
LINE
  5
2046
  8
3
 10
35.497612392692083
 20
101.31303750690169
 30
0.0
 11
35.497612392692112
 21
100.5968470307112
 31
0.0
  0
LINE
  5
2047
  8
3
 10
35.49761239269214
 20
99.979704173568408
 30
0.0
 11
35.497612392692183
 21
99.263513697377945
 31
0.0
  0
LINE
  5
2048
  8
3
 10
34.78142191650165
 20
99.979704173568351
 30
0.0
 11
34.781421916501692
 21
99.263513697377888
 31
0.0
  0
LINE
  5
2049
  8
3
 10
34.78142191650165
 20
99.979704173568365
 30
0.0
 11
35.49761239269214
 21
99.979704173568422
 31
0.0
  0
LINE
  5
204A
  8
3
 10
34.781421916501692
 20
99.263513697377888
 30
0.0
 11
35.497612392692183
 21
99.263513697377945
 31
0.0
  0
LINE
  5
204B
  8
3
 10
35.806183821263737
 20
98.954942268806676
 30
0.0
 11
35.497612392692183
 21
99.263513697377945
 31
0.0
  0
LINE
  5
204C
  8
3
 10
35.49761239269214
 20
99.979704173568422
 30
0.0
 11
35.806183821263673
 21
100.28827560214
 31
0.0
  0
LINE
  5
204D
  8
3
 10
34.78142191650165
 20
99.979704173568351
 30
0.0
 11
34.472850487930373
 21
100.2882756021399
 31
0.0
  0
LINE
  5
204E
  8
3
 10
34.781421916501692
 20
99.263513697377888
 30
0.0
 11
34.73511600939807
 21
99.217207790274287
 31
0.0
  0
LINE
  5
204F
  8
3
 10
34.164279059358812
 20
99.979704173568351
 30
0.0
 11
34.472850487930351
 21
100.2882756021399
 31
0.0
  0
LINE
  5
2050
  8
3
 10
34.047193775477098
 20
99.979704173568337
 30
0.0
 11
34.164279059358812
 21
99.979704173568351
 31
0.0
  0
LINE
  5
2051
  8
3
 10
34.164279059358812
 20
99.979704173568337
 30
0.0
 11
34.164279059358833
 21
99.838369276465045
 31
0.0
  0
LINE
  5
2052
  8
3
 10
34.164279059358748
 20
101.31303750690159
 30
0.0
 11
34.164279059358783
 21
100.5968470307112
 31
0.0
  0
LINE
  5
2053
  8
3
 10
33.448088583168257
 20
101.31303750690159
 30
0.0
 11
33.448088583168278
 21
100.7980803423215
 31
0.0
  0
LINE
  5
2054
  8
3
 10
33.448088583168257
 20
101.31303750690159
 30
0.0
 11
34.164279059358748
 21
101.31303750690159
 31
0.0
  0
LINE
  5
2055
  8
3
 10
33.583797256747893
 20
100.5968470307111
 30
0.0
 11
34.164279059358783
 21
100.5968470307111
 31
0.0
  0
LINE
  5
2056
  8
3
 10
34.472850487930351
 20
100.2882756021399
 30
0.0
 11
34.164279059358783
 21
100.5968470307112
 31
0.0
  0
LINE
  5
2057
  8
3
 10
34.164279059358748
 20
101.31303750690159
 30
0.0
 11
34.47285048793028
 21
101.6216089354732
 31
0.0
  0
LINE
  5
2058
  8
3
 10
33.448088583168257
 20
101.31303750690159
 30
0.0
 11
33.139517154596973
 21
101.62160893547311
 31
0.0
  0
LINE
  5
2059
  8
3
 10
34.164279059358677
 20
102.64637084023489
 30
0.0
 11
34.164279059358712
 21
101.9301803640445
 31
0.0
  0
LINE
  5
205A
  8
3
 10
33.448088583168193
 20
102.64637084023489
 30
0.0
 11
33.448088583168222
 21
101.9301803640444
 31
0.0
  0
LINE
  5
205B
  8
3
 10
33.448088583168193
 20
102.64637084023489
 30
0.0
 11
34.164279059358677
 21
102.64637084023499
 31
0.0
  0
LINE
  5
205C
  8
3
 10
33.448088583168222
 20
101.9301803640444
 30
0.0
 11
34.164279059358712
 21
101.9301803640445
 31
0.0
  0
LINE
  5
205D
  8
3
 10
34.47285048793028
 20
101.6216089354732
 30
0.0
 11
34.164279059358712
 21
101.9301803640445
 31
0.0
  0
LINE
  5
205E
  8
3
 10
34.164279059358677
 20
102.64637084023499
 30
0.0
 11
34.472850487930224
 21
102.95494226880651
 31
0.0
  0
LINE
  5
205F
  8
3
 10
33.448088583168193
 20
102.64637084023489
 30
0.0
 11
33.139517154596902
 21
102.95494226880651
 31
0.0
  0
LINE
  5
2060
  8
3
 10
33.448088583168222
 20
101.9301803640444
 30
0.0
 11
33.139517154596973
 21
101.62160893547311
 31
0.0
  0
LINE
  5
2061
  8
3
 10
34.164279059358613
 20
103.97970417356819
 30
0.0
 11
34.164279059358648
 21
103.2635136973778
 31
0.0
  0
LINE
  5
2062
  8
3
 10
33.448088583168122
 20
103.97970417356819
 30
0.0
 11
33.448088583168158
 21
103.2635136973778
 31
0.0
  0
LINE
  5
2063
  8
3
 10
33.448088583168122
 20
103.97970417356819
 30
0.0
 11
34.164279059358613
 21
103.97970417356829
 31
0.0
  0
LINE
  5
2064
  8
3
 10
33.448088583168158
 20
103.2635136973778
 30
0.0
 11
34.164279059358648
 21
103.2635136973778
 31
0.0
  0
LINE
  5
2065
  8
3
 10
34.472850487930224
 20
102.95494226880651
 30
0.0
 11
34.164279059358648
 21
103.2635136973778
 31
0.0
  0
LINE
  5
2066
  8
3
 10
34.164279059358613
 20
103.97970417356829
 30
0.0
 11
34.472850487930152
 21
104.28827560213981
 31
0.0
  0
LINE
  5
2067
  8
3
 10
33.448088583168122
 20
103.97970417356819
 30
0.0
 11
33.139517154596838
 21
104.28827560213981
 31
0.0
  0
LINE
  5
2068
  8
3
 10
33.448088583168158
 20
103.2635136973778
 30
0.0
 11
33.139517154596902
 21
102.95494226880651
 31
0.0
  0
LINE
  5
2069
  8
3
 10
34.164279059358549
 20
105.31303750690159
 30
0.0
 11
34.164279059358577
 21
104.5968470307111
 31
0.0
  0
LINE
  5
206A
  8
3
 10
33.448088583168058
 20
105.31303750690149
 30
0.0
 11
33.448088583168101
 21
104.5968470307111
 31
0.0
  0
LINE
  5
206B
  8
3
 10
33.448088583168058
 20
105.31303750690149
 30
0.0
 11
34.164279059358549
 21
105.31303750690159
 31
0.0
  0
LINE
  5
206C
  8
3
 10
33.448088583168101
 20
104.5968470307111
 30
0.0
 11
34.164279059358577
 21
104.5968470307111
 31
0.0
  0
LINE
  5
206D
  8
3
 10
34.472850487930152
 20
104.28827560213981
 30
0.0
 11
34.164279059358577
 21
104.5968470307111
 31
0.0
  0
LINE
  5
206E
  8
3
 10
34.164279059358549
 20
105.31303750690159
 30
0.0
 11
34.472850487930089
 21
105.6216089354732
 31
0.0
  0
LINE
  5
206F
  8
3
 10
33.448088583168058
 20
105.31303750690149
 30
0.0
 11
33.139517154596781
 21
105.62160893547311
 31
0.0
  0
LINE
  5
2070
  8
3
 10
33.448088583168101
 20
104.5968470307111
 30
0.0
 11
33.139517154596838
 21
104.28827560213981
 31
0.0
  0
LINE
  5
2071
  8
3
 10
32.114755249834793
 20
104.596847030711
 30
0.0
 11
31.975231926418019
 21
104.45732370729419
 31
0.0
  0
LINE
  5
2072
  8
3
 10
32.830945726025249
 20
105.31303750690149
 30
0.0
 11
33.139517154596788
 21
105.62160893547311
 31
0.0
  0
LINE
  5
2073
  8
3
 10
33.139517154596859
 20
104.28827560213981
 30
0.0
 11
32.830945726025291
 21
104.5968470307111
 31
0.0
  0
LINE
  5
2074
  8
3
 10
32.114755249834793
 20
104.596847030711
 30
0.0
 11
32.830945726025291
 21
104.596847030711
 31
0.0
  0
LINE
  5
2075
  8
3
 10
32.114755249834758
 20
105.31303750690149
 30
0.0
 11
32.830945726025249
 21
105.31303750690149
 31
0.0
  0
LINE
  5
2076
  8
3
 10
32.114755249834758
 20
105.31303750690149
 30
0.0
 11
32.114755249834793
 21
104.596847030711
 31
0.0
  0
LINE
  5
2077
  8
3
 10
32.830945726025249
 20
105.31303750690149
 30
0.0
 11
32.830945726025291
 21
104.5968470307111
 31
0.0
  0
LINE
  5
2078
  8
3
 10
32.114755249834822
 20
103.97970417356819
 30
0.0
 11
32.064526434489352
 21
104.0299329889137
 31
0.0
  0
LINE
  5
2079
  8
3
 10
32.830945726025313
 20
103.97970417356819
 30
0.0
 11
33.139517154596859
 21
104.28827560213981
 31
0.0
  0
LINE
  5
207A
  8
3
 10
33.139517154596923
 20
102.95494226880651
 30
0.0
 11
32.830945726025348
 21
103.2635136973777
 31
0.0
  0
LINE
  5
207B
  8
3
 10
32.274614411166141
 20
103.2635136973777
 30
0.0
 11
32.830945726025348
 21
103.2635136973777
 31
0.0
  0
LINE
  5
207C
  8
3
 10
32.114755249834822
 20
103.97970417356819
 30
0.0
 11
32.830945726025313
 21
103.97970417356819
 31
0.0
  0
LINE
  5
207D
  8
3
 10
32.114755249834822
 20
103.97970417356819
 30
0.0
 11
32.114755249834829
 21
103.82327818938251
 31
0.0
  0
LINE
  5
207E
  8
3
 10
32.830945726025313
 20
103.97970417356819
 30
0.0
 11
32.830945726025348
 21
103.2635136973777
 31
0.0
  0
LINE
  5
207F
  8
3
 10
32.830945726025377
 20
102.64637084023489
 30
0.0
 11
33.139517154596923
 21
102.95494226880651
 31
0.0
  0
LINE
  5
2080
  8
3
 10
33.13951715459698
 20
101.6216089354732
 30
0.0
 11
32.830945726025419
 21
101.9301803640444
 31
0.0
  0
LINE
  5
2081
  8
3
 10
32.80579461325182
 20
101.9301803640444
 30
0.0
 11
32.830945726025419
 21
101.9301803640444
 31
0.0
  0
LINE
  5
2082
  8
3
 10
32.492938967550181
 20
102.64637084023489
 30
0.0
 11
32.830945726025377
 21
102.64637084023489
 31
0.0
  0
LINE
  5
2083
  8
3
 10
32.830945726025377
 20
102.64637084023489
 30
0.0
 11
32.830945726025419
 21
101.9301803640444
 31
0.0
  0
LINE
  5
2084
  8
3
 10
50.781421916501301
 20
102.64637084023531
 30
0.0
 11
50.781421916501301
 21
101.9301803640449
 31
0.0
  0
LINE
  5
2085
  8
3
 10
51.11942867497649
 20
102.64637084023531
 30
0.0
 11
50.781421916501301
 21
102.64637084023531
 31
0.0
  0
LINE
  5
2086
  8
3
 10
50.806573029274887
 20
101.9301803640448
 30
0.0
 11
50.781421916501301
 21
101.9301803640448
 31
0.0
  0
LINE
  5
2087
  8
3
 10
50.472850487929747
 20
101.6216089354736
 30
0.0
 11
50.781421916501301
 21
101.9301803640449
 31
0.0
  0
LINE
  5
2088
  8
3
 10
50.781421916501301
 20
102.64637084023531
 30
0.0
 11
50.472850487929747
 21
102.9549422688069
 31
0.0
  0
LINE
  5
2089
  8
3
 10
50.781421916501301
 20
103.97970417356861
 30
0.0
 11
50.781421916501301
 21
103.2635136973782
 31
0.0
  0
LINE
  5
208A
  8
3
 10
51.497612392691792
 20
103.97970417356861
 30
0.0
 11
51.497612392691792
 21
103.8232781893829
 31
0.0
  0
LINE
  5
208B
  8
3
 10
51.497612392691792
 20
103.97970417356861
 30
0.0
 11
50.781421916501301
 21
103.97970417356861
 31
0.0
  0
LINE
  5
208C
  8
3
 10
51.337753231360509
 20
103.2635136973782
 30
0.0
 11
50.781421916501301
 21
103.2635136973782
 31
0.0
  0
LINE
  5
208D
  8
3
 10
50.472850487929747
 20
102.9549422688069
 30
0.0
 11
50.781421916501301
 21
103.2635136973782
 31
0.0
  0
LINE
  5
208E
  8
3
 10
50.781421916501301
 20
103.97970417356861
 30
0.0
 11
50.472850487929747
 21
104.2882756021402
 31
0.0
  0
LINE
  5
208F
  8
3
 10
51.497612392691792
 20
103.97970417356861
 30
0.0
 11
51.547841208037262
 21
104.0299329889141
 31
0.0
  0
LINE
  5
2090
  8
3
 10
50.781421916501301
 20
105.31303750690191
 30
0.0
 11
50.781421916501301
 21
104.5968470307115
 31
0.0
  0
LINE
  5
2091
  8
3
 10
51.497612392691792
 20
105.31303750690191
 30
0.0
 11
51.497612392691792
 21
104.5968470307115
 31
0.0
  0
LINE
  5
2092
  8
3
 10
51.497612392691792
 20
105.31303750690191
 30
0.0
 11
50.781421916501301
 21
105.31303750690201
 31
0.0
  0
LINE
  5
2093
  8
3
 10
51.497612392691792
 20
104.5968470307115
 30
0.0
 11
50.781421916501301
 21
104.5968470307115
 31
0.0
  0
LINE
  5
2094
  8
3
 10
50.472850487929747
 20
104.2882756021402
 30
0.0
 11
50.781421916501301
 21
104.5968470307115
 31
0.0
  0
LINE
  5
2095
  8
3
 10
50.781421916501301
 20
105.31303750690201
 30
0.0
 11
50.472850487929747
 21
105.6216089354735
 31
0.0
  0
LINE
  5
2096
  8
3
 10
51.497612392691792
 20
105.31303750690191
 30
0.0
 11
51.782313246991357
 21
105.59773836120181
 31
0.0
  0
LINE
  5
2097
  8
3
 10
51.497612392691792
 20
104.5968470307115
 30
0.0
 11
51.637135716108567
 21
104.45732370729471
 31
0.0
  0
LINE
  5
2098
  8
3
 10
50.164279059358492
 20
104.5968470307115
 30
0.0
 11
50.472850487929762
 21
104.2882756021402
 31
0.0
  0
LINE
  5
2099
  8
3
 10
50.164279059358492
 20
105.31303750690191
 30
0.0
 11
50.472850487929762
 21
105.6216089354735
 31
0.0
  0
LINE
  5
209A
  8
3
 10
49.448088583168001
 20
105.31303750690191
 30
0.0
 11
49.139517154596447
 21
105.6216089354735
 31
0.0
  0
LINE
  5
209B
  8
3
 10
49.139517154596447
 20
104.2882756021402
 30
0.0
 11
49.448088583168001
 21
104.5968470307115
 31
0.0
  0
LINE
  5
209C
  8
3
 10
50.164279059358492
 20
104.5968470307115
 30
0.0
 11
49.448088583168001
 21
104.5968470307115
 31
0.0
  0
LINE
  5
209D
  8
3
 10
50.164279059358492
 20
105.31303750690191
 30
0.0
 11
49.448088583168001
 21
105.31303750690191
 31
0.0
  0
LINE
  5
209E
  8
3
 10
50.164279059358492
 20
105.31303750690191
 30
0.0
 11
50.164279059358492
 21
104.5968470307115
 31
0.0
  0
LINE
  5
209F
  8
3
 10
49.448088583168001
 20
105.31303750690191
 30
0.0
 11
49.448088583168001
 21
104.5968470307115
 31
0.0
  0
LINE
  5
20A0
  8
3
 10
50.164279059358492
 20
103.2635136973782
 30
0.0
 11
50.472850487929762
 21
102.9549422688069
 31
0.0
  0
LINE
  5
20A1
  8
3
 10
50.164279059358492
 20
103.97970417356861
 30
0.0
 11
50.472850487929762
 21
104.2882756021402
 31
0.0
  0
LINE
  5
20A2
  8
3
 10
49.448088583168001
 20
103.97970417356861
 30
0.0
 11
49.139517154596447
 21
104.2882756021402
 31
0.0
  0
LINE
  5
20A3
  8
3
 10
49.139517154596447
 20
102.9549422688069
 30
0.0
 11
49.448088583168001
 21
103.2635136973782
 31
0.0
  0
LINE
  5
20A4
  8
3
 10
50.164279059358492
 20
103.2635136973782
 30
0.0
 11
49.448088583168001
 21
103.2635136973782
 31
0.0
  0
LINE
  5
20A5
  8
3
 10
50.164279059358492
 20
103.97970417356861
 30
0.0
 11
49.448088583168001
 21
103.97970417356861
 31
0.0
  0
LINE
  5
20A6
  8
3
 10
50.164279059358492
 20
103.97970417356861
 30
0.0
 11
50.164279059358492
 21
103.2635136973782
 31
0.0
  0
LINE
  5
20A7
  8
3
 10
49.448088583168001
 20
103.97970417356861
 30
0.0
 11
49.448088583168001
 21
103.2635136973782
 31
0.0
  0
LINE
  5
20A8
  8
3
 10
50.164279059358492
 20
101.9301803640448
 30
0.0
 11
50.472850487929762
 21
101.6216089354736
 31
0.0
  0
LINE
  5
20A9
  8
3
 10
50.164279059358492
 20
102.64637084023531
 30
0.0
 11
50.472850487929762
 21
102.9549422688069
 31
0.0
  0
LINE
  5
20AA
  8
3
 10
49.448088583168001
 20
102.64637084023531
 30
0.0
 11
49.139517154596447
 21
102.9549422688069
 31
0.0
  0
LINE
  5
20AB
  8
3
 10
49.139517154596447
 20
101.6216089354736
 30
0.0
 11
49.448088583168001
 21
101.9301803640448
 31
0.0
  0
LINE
  5
20AC
  8
3
 10
50.164279059358492
 20
101.9301803640448
 30
0.0
 11
49.448088583168001
 21
101.9301803640448
 31
0.0
  0
LINE
  5
20AD
  8
3
 10
50.164279059358492
 20
102.64637084023531
 30
0.0
 11
49.448088583168001
 21
102.64637084023531
 31
0.0
  0
LINE
  5
20AE
  8
3
 10
50.164279059358492
 20
102.64637084023531
 30
0.0
 11
50.164279059358492
 21
101.9301803640448
 31
0.0
  0
LINE
  5
20AF
  8
3
 10
49.448088583168001
 20
102.64637084023531
 30
0.0
 11
49.448088583168001
 21
101.9301803640448
 31
0.0
  0
LINE
  5
20B0
  8
3
 10
50.164279059358492
 20
101.31303750690201
 30
0.0
 11
50.472850487929762
 21
101.6216089354736
 31
0.0
  0
LINE
  5
20B1
  8
3
 10
49.448088583168001
 20
101.31303750690201
 30
0.0
 11
49.139517154596447
 21
101.6216089354736
 31
0.0
  0
LINE
  5
20B2
  8
3
 10
49.139517154596447
 20
100.2882756021403
 30
0.0
 11
49.448088583168001
 21
100.5968470307115
 31
0.0
  0
LINE
  5
20B3
  8
3
 10
50.028570385778892
 20
100.5968470307115
 30
0.0
 11
49.448088583168001
 21
100.5968470307115
 31
0.0
  0
LINE
  5
20B4
  8
3
 10
50.164279059358492
 20
101.31303750690201
 30
0.0
 11
49.448088583168001
 21
101.31303750690201
 31
0.0
  0
LINE
  5
20B5
  8
3
 10
50.164279059358492
 20
101.31303750690201
 30
0.0
 11
50.164279059358492
 21
100.7980803423219
 31
0.0
  0
LINE
  5
20B6
  8
3
 10
49.448088583168001
 20
101.31303750690201
 30
0.0
 11
49.448088583168001
 21
100.5968470307115
 31
0.0
  0
LINE
  5
20B7
  8
3
 10
49.448088583168001
 20
99.979704173568706
 30
0.0
 11
49.448088583167987
 21
99.838369276465414
 31
0.0
  0
LINE
  5
20B8
  8
3
 10
49.565173867049708
 20
99.979704173568706
 30
0.0
 11
49.448088583168001
 21
99.979704173568734
 31
0.0
  0
LINE
  5
20B9
  8
3
 10
49.448088583168001
 20
99.979704173568734
 30
0.0
 11
49.139517154596447
 21
100.2882756021403
 31
0.0
  0
LINE
  5
20BA
  8
3
 10
48.830945726025163
 20
99.263513697378215
 30
0.0
 11
48.877251633128779
 21
99.217207790274628
 31
0.0
  0
LINE
  5
20BB
  8
3
 10
48.830945726025163
 20
99.979704173568692
 30
0.0
 11
49.139517154596433
 21
100.2882756021403
 31
0.0
  0
LINE
  5
20BC
  8
3
 10
48.114755249834673
 20
99.979704173568734
 30
0.0
 11
47.806183821263119
 21
100.2882756021403
 31
0.0
  0
LINE
  5
20BD
  8
3
 10
47.806183821263119
 20
98.95494226880696
 30
0.0
 11
48.114755249834673
 21
99.263513697378244
 31
0.0
  0
LINE
  5
20BE
  8
3
 10
48.830945726025163
 20
99.263513697378215
 30
0.0
 11
48.114755249834673
 21
99.263513697378215
 31
0.0
  0
LINE
  5
20BF
  8
3
 10
48.830945726025163
 20
99.979704173568706
 30
0.0
 11
48.114755249834673
 21
99.979704173568734
 31
0.0
  0
LINE
  5
20C0
  8
3
 10
48.830945726025163
 20
99.979704173568692
 30
0.0
 11
48.830945726025163
 21
99.263513697378215
 31
0.0
  0
LINE
  5
20C1
  8
3
 10
48.114755249834673
 20
99.979704173568706
 30
0.0
 11
48.114755249834673
 21
99.263513697378244
 31
0.0
  0
LINE
  5
20C2
  8
3
 10
48.114755249834673
 20
101.31303750690201
 30
0.0
 11
48.114755249834673
 21
100.5968470307115
 31
0.0
  0
LINE
  5
20C3
  8
3
 10
48.830945726025163
 20
101.31303750690201
 30
0.0
 11
48.830945726025163
 21
100.5968470307115
 31
0.0
  0
LINE
  5
20C4
  8
3
 10
48.830945726025163
 20
101.31303750690201
 30
0.0
 11
48.114755249834673
 21
101.31303750690201
 31
0.0
  0
LINE
  5
20C5
  8
3
 10
48.830945726025163
 20
100.5968470307115
 30
0.0
 11
48.114755249834673
 21
100.5968470307115
 31
0.0
  0
LINE
  5
20C6
  8
3
 10
47.806183821263119
 20
100.2882756021403
 30
0.0
 11
48.114755249834673
 21
100.5968470307115
 31
0.0
  0
LINE
  5
20C7
  8
3
 10
48.114755249834673
 20
101.31303750690201
 30
0.0
 11
47.806183821263119
 21
101.6216089354736
 31
0.0
  0
LINE
  5
20C8
  8
3
 10
48.830945726025163
 20
101.31303750690201
 30
0.0
 11
49.139517154596433
 21
101.6216089354736
 31
0.0
  0
LINE
  5
20C9
  8
3
 10
48.830945726025163
 20
100.5968470307115
 30
0.0
 11
49.139517154596433
 21
100.2882756021403
 31
0.0
  0
LINE
  5
20CA
  8
3
 10
48.114755249834673
 20
102.64637084023531
 30
0.0
 11
48.114755249834673
 21
101.9301803640448
 31
0.0
  0
LINE
  5
20CB
  8
3
 10
48.830945726025163
 20
102.64637084023531
 30
0.0
 11
48.830945726025163
 21
101.9301803640448
 31
0.0
  0
LINE
  5
20CC
  8
3
 10
48.830945726025163
 20
102.64637084023531
 30
0.0
 11
48.114755249834673
 21
102.64637084023531
 31
0.0
  0
LINE
  5
20CD
  8
3
 10
48.830945726025163
 20
101.9301803640448
 30
0.0
 11
48.114755249834673
 21
101.9301803640448
 31
0.0
  0
LINE
  5
20CE
  8
3
 10
47.806183821263119
 20
101.6216089354736
 30
0.0
 11
48.114755249834673
 21
101.9301803640448
 31
0.0
  0
LINE
  5
20CF
  8
3
 10
48.114755249834673
 20
102.64637084023531
 30
0.0
 11
47.806183821263119
 21
102.9549422688069
 31
0.0
  0
LINE
  5
20D0
  8
3
 10
48.830945726025163
 20
102.64637084023531
 30
0.0
 11
49.139517154596433
 21
102.9549422688069
 31
0.0
  0
LINE
  5
20D1
  8
3
 10
48.830945726025163
 20
101.9301803640448
 30
0.0
 11
49.139517154596433
 21
101.6216089354736
 31
0.0
  0
LINE
  5
20D2
  8
3
 10
48.114755249834673
 20
103.97970417356861
 30
0.0
 11
48.114755249834673
 21
103.2635136973782
 31
0.0
  0
LINE
  5
20D3
  8
3
 10
48.830945726025163
 20
103.97970417356861
 30
0.0
 11
48.830945726025163
 21
103.2635136973782
 31
0.0
  0
LINE
  5
20D4
  8
3
 10
48.830945726025163
 20
103.97970417356861
 30
0.0
 11
48.114755249834673
 21
103.97970417356861
 31
0.0
  0
LINE
  5
20D5
  8
3
 10
48.830945726025163
 20
103.2635136973782
 30
0.0
 11
48.114755249834673
 21
103.2635136973782
 31
0.0
  0
LINE
  5
20D6
  8
3
 10
47.806183821263119
 20
102.9549422688069
 30
0.0
 11
48.114755249834673
 21
103.2635136973782
 31
0.0
  0
LINE
  5
20D7
  8
3
 10
48.114755249834673
 20
103.97970417356861
 30
0.0
 11
47.806183821263119
 21
104.2882756021402
 31
0.0
  0
LINE
  5
20D8
  8
3
 10
48.830945726025163
 20
103.97970417356861
 30
0.0
 11
49.139517154596433
 21
104.2882756021402
 31
0.0
  0
LINE
  5
20D9
  8
3
 10
48.830945726025163
 20
103.2635136973782
 30
0.0
 11
49.139517154596433
 21
102.9549422688069
 31
0.0
  0
LINE
  5
20DA
  8
3
 10
48.114755249834673
 20
105.31303750690191
 30
0.0
 11
48.114755249834673
 21
104.5968470307115
 31
0.0
  0
LINE
  5
20DB
  8
3
 10
48.830945726025163
 20
105.31303750690191
 30
0.0
 11
48.830945726025163
 21
104.5968470307115
 31
0.0
  0
LINE
  5
20DC
  8
3
 10
48.830945726025163
 20
105.31303750690191
 30
0.0
 11
48.114755249834673
 21
105.31303750690191
 31
0.0
  0
LINE
  5
20DD
  8
3
 10
48.830945726025163
 20
104.5968470307115
 30
0.0
 11
48.114755249834673
 21
104.5968470307115
 31
0.0
  0
LINE
  5
20DE
  8
3
 10
47.806183821263119
 20
104.2882756021402
 30
0.0
 11
48.114755249834673
 21
104.5968470307115
 31
0.0
  0
LINE
  5
20DF
  8
3
 10
48.114755249834673
 20
105.31303750690191
 30
0.0
 11
47.806183821263119
 21
105.6216089354735
 31
0.0
  0
LINE
  5
20E0
  8
3
 10
48.830945726025163
 20
105.31303750690191
 30
0.0
 11
49.139517154596433
 21
105.6216089354735
 31
0.0
  0
LINE
  5
20E1
  8
3
 10
48.830945726025163
 20
104.5968470307115
 30
0.0
 11
49.139517154596433
 21
104.2882756021402
 31
0.0
  0
LINE
  5
20E2
  8
3
 10
47.497612392691849
 20
104.5968470307115
 30
0.0
 11
47.806183821263119
 21
104.2882756021402
 31
0.0
  0
LINE
  5
20E3
  8
3
 10
47.497612392691849
 20
105.31303750690191
 30
0.0
 11
47.806183821263119
 21
105.6216089354735
 31
0.0
  0
LINE
  5
20E4
  8
3
 10
46.781421916501358
 20
105.31303750690191
 30
0.0
 11
46.472850487929797
 21
105.6216089354735
 31
0.0
  0
LINE
  5
20E5
  8
3
 10
46.472850487929797
 20
104.2882756021402
 30
0.0
 11
46.781421916501358
 21
104.5968470307115
 31
0.0
  0
LINE
  5
20E6
  8
3
 10
47.497612392691849
 20
104.5968470307115
 30
0.0
 11
46.781421916501358
 21
104.5968470307115
 31
0.0
  0
LINE
  5
20E7
  8
3
 10
47.497612392691849
 20
105.31303750690191
 30
0.0
 11
46.781421916501358
 21
105.31303750690191
 31
0.0
  0
LINE
  5
20E8
  8
3
 10
47.497612392691849
 20
105.31303750690191
 30
0.0
 11
47.497612392691849
 21
104.5968470307115
 31
0.0
  0
LINE
  5
20E9
  8
3
 10
46.781421916501358
 20
105.31303750690191
 30
0.0
 11
46.781421916501358
 21
104.5968470307115
 31
0.0
  0
LINE
  5
20EA
  8
3
 10
47.497612392691849
 20
103.2635136973781
 30
0.0
 11
47.806183821263119
 21
102.9549422688069
 31
0.0
  0
LINE
  5
20EB
  8
3
 10
47.497612392691849
 20
103.97970417356861
 30
0.0
 11
47.806183821263119
 21
104.2882756021402
 31
0.0
  0
LINE
  5
20EC
  8
3
 10
46.781421916501358
 20
103.97970417356861
 30
0.0
 11
46.472850487929797
 21
104.2882756021402
 31
0.0
  0
LINE
  5
20ED
  8
3
 10
46.472850487929797
 20
102.9549422688069
 30
0.0
 11
46.781421916501358
 21
103.2635136973782
 31
0.0
  0
LINE
  5
20EE
  8
3
 10
47.497612392691849
 20
103.2635136973781
 30
0.0
 11
46.781421916501358
 21
103.2635136973781
 31
0.0
  0
LINE
  5
20EF
  8
3
 10
47.497612392691849
 20
103.97970417356861
 30
0.0
 11
46.781421916501358
 21
103.97970417356861
 31
0.0
  0
LINE
  5
20F0
  8
3
 10
47.497612392691849
 20
103.97970417356861
 30
0.0
 11
47.497612392691849
 21
103.2635136973781
 31
0.0
  0
LINE
  5
20F1
  8
3
 10
46.781421916501358
 20
103.97970417356861
 30
0.0
 11
46.781421916501358
 21
103.2635136973782
 31
0.0
  0
LINE
  5
20F2
  8
3
 10
47.497612392691849
 20
101.9301803640448
 30
0.0
 11
47.806183821263119
 21
101.6216089354736
 31
0.0
  0
LINE
  5
20F3
  8
3
 10
47.497612392691849
 20
102.64637084023531
 30
0.0
 11
47.806183821263119
 21
102.9549422688069
 31
0.0
  0
LINE
  5
20F4
  8
3
 10
46.781421916501358
 20
102.64637084023531
 30
0.0
 11
46.472850487929797
 21
102.9549422688069
 31
0.0
  0
LINE
  5
20F5
  8
3
 10
46.472850487929797
 20
101.6216089354736
 30
0.0
 11
46.781421916501358
 21
101.9301803640448
 31
0.0
  0
LINE
  5
20F6
  8
3
 10
47.497612392691849
 20
101.9301803640448
 30
0.0
 11
46.781421916501358
 21
101.9301803640448
 31
0.0
  0
LINE
  5
20F7
  8
3
 10
47.497612392691849
 20
102.64637084023531
 30
0.0
 11
46.781421916501358
 21
102.64637084023531
 31
0.0
  0
LINE
  5
20F8
  8
3
 10
47.497612392691849
 20
102.64637084023531
 30
0.0
 11
47.497612392691849
 21
101.9301803640448
 31
0.0
  0
LINE
  5
20F9
  8
3
 10
46.781421916501358
 20
102.64637084023531
 30
0.0
 11
46.781421916501358
 21
101.9301803640448
 31
0.0
  0
LINE
  5
20FA
  8
3
 10
47.497612392691849
 20
100.5968470307115
 30
0.0
 11
47.806183821263119
 21
100.2882756021402
 31
0.0
  0
LINE
  5
20FB
  8
3
 10
47.497612392691849
 20
101.31303750690201
 30
0.0
 11
47.806183821263119
 21
101.6216089354736
 31
0.0
  0
LINE
  5
20FC
  8
3
 10
46.781421916501358
 20
101.31303750690201
 30
0.0
 11
46.472850487929797
 21
101.6216089354736
 31
0.0
  0
LINE
  5
20FD
  8
3
 10
46.472850487929797
 20
100.2882756021402
 30
0.0
 11
46.781421916501358
 21
100.5968470307115
 31
0.0
  0
LINE
  5
20FE
  8
3
 10
47.497612392691849
 20
100.5968470307115
 30
0.0
 11
46.781421916501358
 21
100.5968470307115
 31
0.0
  0
LINE
  5
20FF
  8
3
 10
47.497612392691849
 20
101.31303750690201
 30
0.0
 11
46.781421916501358
 21
101.31303750690201
 31
0.0
  0
LINE
  5
2100
  8
3
 10
47.497612392691849
 20
101.31303750690201
 30
0.0
 11
47.497612392691849
 21
100.5968470307115
 31
0.0
  0
LINE
  5
2101
  8
3
 10
46.781421916501358
 20
101.31303750690201
 30
0.0
 11
46.781421916501358
 21
100.5968470307115
 31
0.0
  0
LINE
  5
2102
  8
3
 10
46.58851380438859
 20
97.505945619014838
 30
0.0
 11
46.472850487929797
 21
97.621608935473631
 31
0.0
  0
LINE
  5
2103
  8
3
 10
46.781421916501358
 20
98.646370840235377
 30
0.0
 11
46.781421916501358
 21
97.930180364044915
 31
0.0
  0
LINE
  5
2104
  8
3
 10
47.497612392691849
 20
98.646370840235363
 30
0.0
 11
47.497612392691849
 21
98.065889037624487
 31
0.0
  0
LINE
  5
2105
  8
3
 10
47.497612392691849
 20
98.646370840235377
 30
0.0
 11
46.781421916501358
 21
98.646370840235406
 31
0.0
  0
LINE
  5
2106
  8
3
 10
47.29637908108149
 20
97.930180364044901
 30
0.0
 11
46.781421916501358
 21
97.930180364044901
 31
0.0
  0
LINE
  5
2107
  8
3
 10
46.472850487929797
 20
97.621608935473631
 30
0.0
 11
46.781421916501358
 21
97.930180364044915
 31
0.0
  0
LINE
  5
2108
  8
3
 10
46.781421916501358
 20
98.646370840235406
 30
0.0
 11
46.472850487929797
 21
98.954942268806946
 31
0.0
  0
LINE
  5
2109
  8
3
 10
47.497612392691849
 20
98.646370840235363
 30
0.0
 11
47.806183821263119
 21
98.954942268806946
 31
0.0
  0
LINE
  5
210A
  8
3
 10
46.781421916501358
 20
99.979704173568692
 30
0.0
 11
46.781421916501358
 21
99.263513697378215
 31
0.0
  0
LINE
  5
210B
  8
3
 10
47.497612392691849
 20
99.979704173568663
 30
0.0
 11
47.497612392691849
 21
99.263513697378215
 31
0.0
  0
LINE
  5
210C
  8
3
 10
47.497612392691849
 20
99.979704173568692
 30
0.0
 11
46.781421916501358
 21
99.979704173568706
 31
0.0
  0
LINE
  5
210D
  8
3
 10
47.497612392691849
 20
99.263513697378215
 30
0.0
 11
46.781421916501358
 21
99.263513697378215
 31
0.0
  0
LINE
  5
210E
  8
3
 10
46.472850487929797
 20
98.954942268806946
 30
0.0
 11
46.781421916501358
 21
99.263513697378215
 31
0.0
  0
LINE
  5
210F
  8
3
 10
46.781421916501358
 20
99.979704173568706
 30
0.0
 11
46.472850487929797
 21
100.2882756021402
 31
0.0
  0
LINE
  5
2110
  8
3
 10
47.497612392691849
 20
99.979704173568663
 30
0.0
 11
47.806183821263119
 21
100.2882756021402
 31
0.0
  0
LINE
  5
2111
  8
3
 10
47.497612392691849
 20
99.263513697378215
 30
0.0
 11
47.806183821263119
 21
98.954942268806946
 31
0.0
  0
LINE
  5
2112
  8
3
 10
45.448088583168037
 20
97.313037506902063
 30
0.0
 11
45.448088583168037
 21
96.975030748426889
 31
0.0
  0
LINE
  5
2113
  8
3
 10
46.164279059358527
 20
97.313037506902049
 30
0.0
 11
46.164279059358527
 21
97.287886394128492
 31
0.0
  0
LINE
  5
2114
  8
3
 10
46.164279059358527
 20
104.5968470307115
 30
0.0
 11
46.472850487929797
 21
104.2882756021402
 31
0.0
  0
LINE
  5
2115
  8
3
 10
46.164279059358527
 20
105.31303750690191
 30
0.0
 11
46.472850487929797
 21
105.6216089354735
 31
0.0
  0
LINE
  5
2116
  8
3
 10
45.448088583168037
 20
105.31303750690191
 30
0.0
 11
45.13951715459649
 21
105.6216089354735
 31
0.0
  0
LINE
  5
2117
  8
3
 10
45.13951715459649
 20
104.2882756021402
 30
0.0
 11
45.448088583168037
 21
104.5968470307115
 31
0.0
  0
LINE
  5
2118
  8
3
 10
46.164279059358527
 20
104.5968470307115
 30
0.0
 11
45.448088583168037
 21
104.5968470307115
 31
0.0
  0
LINE
  5
2119
  8
3
 10
46.164279059358527
 20
105.31303750690191
 30
0.0
 11
45.448088583168037
 21
105.31303750690191
 31
0.0
  0
LINE
  5
211A
  8
3
 10
46.164279059358527
 20
105.31303750690191
 30
0.0
 11
46.164279059358527
 21
104.5968470307115
 31
0.0
  0
LINE
  5
211B
  8
3
 10
45.448088583168037
 20
105.31303750690191
 30
0.0
 11
45.448088583168037
 21
104.5968470307115
 31
0.0
  0
LINE
  5
211C
  8
3
 10
46.164279059358527
 20
103.2635136973781
 30
0.0
 11
46.472850487929797
 21
102.9549422688069
 31
0.0
  0
LINE
  5
211D
  8
3
 10
46.164279059358527
 20
103.97970417356861
 30
0.0
 11
46.472850487929797
 21
104.2882756021402
 31
0.0
  0
LINE
  5
211E
  8
3
 10
45.448088583168037
 20
103.97970417356861
 30
0.0
 11
45.13951715459649
 21
104.2882756021402
 31
0.0
  0
LINE
  5
211F
  8
3
 10
45.13951715459649
 20
102.9549422688069
 30
0.0
 11
45.448088583168037
 21
103.2635136973782
 31
0.0
  0
LINE
  5
2120
  8
3
 10
46.164279059358527
 20
103.2635136973781
 30
0.0
 11
45.448088583168037
 21
103.2635136973781
 31
0.0
  0
LINE
  5
2121
  8
3
 10
46.164279059358527
 20
103.97970417356861
 30
0.0
 11
45.448088583168037
 21
103.97970417356861
 31
0.0
  0
LINE
  5
2122
  8
3
 10
46.164279059358527
 20
103.97970417356861
 30
0.0
 11
46.164279059358527
 21
103.2635136973781
 31
0.0
  0
LINE
  5
2123
  8
3
 10
45.448088583168037
 20
103.97970417356861
 30
0.0
 11
45.448088583168037
 21
103.2635136973782
 31
0.0
  0
LINE
  5
2124
  8
3
 10
46.164279059358527
 20
101.9301803640448
 30
0.0
 11
46.472850487929797
 21
101.6216089354736
 31
0.0
  0
LINE
  5
2125
  8
3
 10
46.164279059358527
 20
102.64637084023531
 30
0.0
 11
46.472850487929797
 21
102.9549422688069
 31
0.0
  0
LINE
  5
2126
  8
3
 10
45.448088583168037
 20
102.64637084023531
 30
0.0
 11
45.13951715459649
 21
102.9549422688069
 31
0.0
  0
LINE
  5
2127
  8
3
 10
45.13951715459649
 20
101.6216089354736
 30
0.0
 11
45.448088583168037
 21
101.9301803640448
 31
0.0
  0
LINE
  5
2128
  8
3
 10
46.164279059358527
 20
101.9301803640448
 30
0.0
 11
45.448088583168037
 21
101.9301803640448
 31
0.0
  0
LINE
  5
2129
  8
3
 10
46.164279059358527
 20
102.64637084023531
 30
0.0
 11
45.448088583168037
 21
102.64637084023531
 31
0.0
  0
LINE
  5
212A
  8
3
 10
46.164279059358527
 20
102.64637084023531
 30
0.0
 11
46.164279059358527
 21
101.9301803640448
 31
0.0
  0
LINE
  5
212B
  8
3
 10
45.448088583168037
 20
102.64637084023531
 30
0.0
 11
45.448088583168037
 21
101.9301803640448
 31
0.0
  0
LINE
  5
212C
  8
3
 10
46.164279059358527
 20
100.5968470307115
 30
0.0
 11
46.472850487929797
 21
100.2882756021402
 31
0.0
  0
LINE
  5
212D
  8
3
 10
46.164279059358527
 20
101.31303750690201
 30
0.0
 11
46.472850487929797
 21
101.6216089354736
 31
0.0
  0
LINE
  5
212E
  8
3
 10
45.448088583168037
 20
101.31303750690201
 30
0.0
 11
45.13951715459649
 21
101.6216089354736
 31
0.0
  0
LINE
  5
212F
  8
3
 10
45.13951715459649
 20
100.2882756021402
 30
0.0
 11
45.448088583168037
 21
100.5968470307115
 31
0.0
  0
LINE
  5
2130
  8
3
 10
46.164279059358527
 20
100.5968470307115
 30
0.0
 11
45.448088583168037
 21
100.5968470307115
 31
0.0
  0
LINE
  5
2131
  8
3
 10
46.164279059358527
 20
101.31303750690201
 30
0.0
 11
45.448088583168037
 21
101.31303750690201
 31
0.0
  0
LINE
  5
2132
  8
3
 10
46.164279059358527
 20
101.31303750690201
 30
0.0
 11
46.164279059358527
 21
100.5968470307115
 31
0.0
  0
LINE
  5
2133
  8
3
 10
45.448088583168037
 20
101.31303750690201
 30
0.0
 11
45.448088583168037
 21
100.5968470307115
 31
0.0
  0
LINE
  5
2134
  8
3
 10
46.164279059358527
 20
97.313037506902063
 30
0.0
 11
45.448088583168037
 21
97.313037506902091
 31
0.0
  0
LINE
  5
2135
  8
3
 10
45.448088583168037
 20
97.313037506902091
 30
0.0
 11
45.13951715459649
 21
97.621608935473631
 31
0.0
  0
LINE
  5
2136
  8
3
 10
46.164279059358527
 20
97.313037506902049
 30
0.0
 11
46.472850487929797
 21
97.621608935473631
 31
0.0
  0
LINE
  5
2137
  8
3
 10
45.448088583168037
 20
98.646370840235377
 30
0.0
 11
45.448088583168037
 21
97.930180364044915
 31
0.0
  0
LINE
  5
2138
  8
3
 10
46.164279059358527
 20
98.646370840235363
 30
0.0
 11
46.164279059358527
 21
97.930180364044901
 31
0.0
  0
LINE
  5
2139
  8
3
 10
46.164279059358527
 20
98.646370840235377
 30
0.0
 11
45.448088583168037
 21
98.646370840235406
 31
0.0
  0
LINE
  5
213A
  8
3
 10
46.164279059358527
 20
97.930180364044901
 30
0.0
 11
45.448088583168037
 21
97.930180364044901
 31
0.0
  0
LINE
  5
213B
  8
3
 10
45.13951715459649
 20
97.621608935473631
 30
0.0
 11
45.448088583168037
 21
97.930180364044915
 31
0.0
  0
LINE
  5
213C
  8
3
 10
45.448088583168037
 20
98.646370840235406
 30
0.0
 11
45.13951715459649
 21
98.954942268806946
 31
0.0
  0
LINE
  5
213D
  8
3
 10
46.164279059358527
 20
98.646370840235363
 30
0.0
 11
46.472850487929797
 21
98.954942268806946
 31
0.0
  0
LINE
  5
213E
  8
3
 10
46.164279059358527
 20
97.930180364044901
 30
0.0
 11
46.472850487929797
 21
97.621608935473631
 31
0.0
  0
LINE
  5
213F
  8
3
 10
45.448088583168037
 20
99.979704173568692
 30
0.0
 11
45.448088583168037
 21
99.263513697378215
 31
0.0
  0
LINE
  5
2140
  8
3
 10
46.164279059358527
 20
99.979704173568663
 30
0.0
 11
46.164279059358527
 21
99.263513697378215
 31
0.0
  0
LINE
  5
2141
  8
3
 10
46.164279059358527
 20
99.979704173568692
 30
0.0
 11
45.448088583168037
 21
99.979704173568706
 31
0.0
  0
LINE
  5
2142
  8
3
 10
46.164279059358527
 20
99.263513697378215
 30
0.0
 11
45.448088583168037
 21
99.263513697378215
 31
0.0
  0
LINE
  5
2143
  8
3
 10
45.13951715459649
 20
98.954942268806946
 30
0.0
 11
45.448088583168037
 21
99.263513697378215
 31
0.0
  0
LINE
  5
2144
  8
3
 10
45.448088583168037
 20
99.979704173568706
 30
0.0
 11
45.13951715459649
 21
100.2882756021402
 31
0.0
  0
LINE
  5
2145
  8
3
 10
46.164279059358527
 20
99.979704173568663
 30
0.0
 11
46.472850487929797
 21
100.2882756021402
 31
0.0
  0
LINE
  5
2146
  8
3
 10
46.164279059358527
 20
99.263513697378215
 30
0.0
 11
46.472850487929797
 21
98.954942268806946
 31
0.0
  0
LINE
  5
2147
  8
3
 10
44.114755249834722
 20
97.313037506902063
 30
0.0
 11
44.114755249834722
 21
96.596847030711601
 31
0.0
  0
LINE
  5
2148
  8
3
 10
44.271181234020368
 20
96.596847030711572
 30
0.0
 11
44.114755249834722
 21
96.596847030711587
 31
0.0
  0
LINE
  5
2149
  8
3
 10
44.83094572602522
 20
97.313037506902049
 30
0.0
 11
44.830945726025213
 21
96.756706192042884
 31
0.0
  0
LINE
  5
214A
  8
3
 10
44.83094572602522
 20
104.5968470307115
 30
0.0
 11
45.13951715459649
 21
104.2882756021402
 31
0.0
  0
LINE
  5
214B
  8
3
 10
44.83094572602522
 20
105.31303750690191
 30
0.0
 11
45.13951715459649
 21
105.6216089354735
 31
0.0
  0
LINE
  5
214C
  8
3
 10
44.114755249834722
 20
105.31303750690191
 30
0.0
 11
43.806183821263168
 21
105.6216089354735
 31
0.0
  0
LINE
  5
214D
  8
3
 10
43.806183821263168
 20
104.2882756021402
 30
0.0
 11
44.114755249834722
 21
104.5968470307115
 31
0.0
  0
LINE
  5
214E
  8
3
 10
44.83094572602522
 20
104.5968470307115
 30
0.0
 11
44.114755249834722
 21
104.5968470307115
 31
0.0
  0
LINE
  5
214F
  8
3
 10
44.83094572602522
 20
105.31303750690191
 30
0.0
 11
44.114755249834722
 21
105.31303750690191
 31
0.0
  0
LINE
  5
2150
  8
3
 10
44.83094572602522
 20
105.31303750690191
 30
0.0
 11
44.83094572602522
 21
104.5968470307115
 31
0.0
  0
LINE
  5
2151
  8
3
 10
44.114755249834722
 20
105.31303750690191
 30
0.0
 11
44.114755249834722
 21
104.5968470307115
 31
0.0
  0
LINE
  5
2152
  8
3
 10
44.83094572602522
 20
103.2635136973781
 30
0.0
 11
45.13951715459649
 21
102.9549422688069
 31
0.0
  0
LINE
  5
2153
  8
3
 10
44.83094572602522
 20
103.97970417356861
 30
0.0
 11
45.13951715459649
 21
104.2882756021402
 31
0.0
  0
LINE
  5
2154
  8
3
 10
44.114755249834722
 20
103.97970417356861
 30
0.0
 11
43.806183821263168
 21
104.2882756021402
 31
0.0
  0
LINE
  5
2155
  8
3
 10
43.806183821263168
 20
102.9549422688069
 30
0.0
 11
44.114755249834722
 21
103.2635136973782
 31
0.0
  0
LINE
  5
2156
  8
3
 10
44.83094572602522
 20
103.2635136973781
 30
0.0
 11
44.114755249834722
 21
103.2635136973781
 31
0.0
  0
LINE
  5
2157
  8
3
 10
44.83094572602522
 20
103.97970417356861
 30
0.0
 11
44.114755249834722
 21
103.97970417356861
 31
0.0
  0
LINE
  5
2158
  8
3
 10
44.83094572602522
 20
103.97970417356861
 30
0.0
 11
44.83094572602522
 21
103.2635136973781
 31
0.0
  0
LINE
  5
2159
  8
3
 10
44.114755249834722
 20
103.97970417356861
 30
0.0
 11
44.114755249834722
 21
103.2635136973782
 31
0.0
  0
LINE
  5
215A
  8
3
 10
44.83094572602522
 20
101.9301803640448
 30
0.0
 11
45.13951715459649
 21
101.6216089354736
 31
0.0
  0
LINE
  5
215B
  8
3
 10
44.83094572602522
 20
102.64637084023531
 30
0.0
 11
45.13951715459649
 21
102.9549422688069
 31
0.0
  0
LINE
  5
215C
  8
3
 10
44.114755249834722
 20
102.64637084023531
 30
0.0
 11
43.806183821263168
 21
102.9549422688069
 31
0.0
  0
LINE
  5
215D
  8
3
 10
43.806183821263168
 20
101.6216089354736
 30
0.0
 11
44.114755249834722
 21
101.9301803640448
 31
0.0
  0
LINE
  5
215E
  8
3
 10
44.83094572602522
 20
101.9301803640448
 30
0.0
 11
44.114755249834722
 21
101.9301803640448
 31
0.0
  0
LINE
  5
215F
  8
3
 10
44.83094572602522
 20
102.64637084023531
 30
0.0
 11
44.114755249834722
 21
102.64637084023531
 31
0.0
  0
LINE
  5
2160
  8
3
 10
44.83094572602522
 20
102.64637084023531
 30
0.0
 11
44.83094572602522
 21
101.9301803640448
 31
0.0
  0
LINE
  5
2161
  8
3
 10
44.114755249834722
 20
102.64637084023531
 30
0.0
 11
44.114755249834722
 21
101.9301803640448
 31
0.0
  0
LINE
  5
2162
  8
3
 10
44.83094572602522
 20
100.5968470307115
 30
0.0
 11
45.13951715459649
 21
100.2882756021402
 31
0.0
  0
LINE
  5
2163
  8
3
 10
44.83094572602522
 20
101.31303750690201
 30
0.0
 11
45.13951715459649
 21
101.6216089354736
 31
0.0
  0
LINE
  5
2164
  8
3
 10
44.114755249834722
 20
101.31303750690201
 30
0.0
 11
43.806183821263168
 21
101.6216089354736
 31
0.0
  0
LINE
  5
2165
  8
3
 10
43.806183821263168
 20
100.2882756021402
 30
0.0
 11
44.114755249834722
 21
100.5968470307115
 31
0.0
  0
LINE
  5
2166
  8
3
 10
44.83094572602522
 20
100.5968470307115
 30
0.0
 11
44.114755249834722
 21
100.5968470307115
 31
0.0
  0
LINE
  5
2167
  8
3
 10
44.83094572602522
 20
101.31303750690201
 30
0.0
 11
44.114755249834722
 21
101.31303750690201
 31
0.0
  0
LINE
  5
2168
  8
3
 10
44.83094572602522
 20
101.31303750690201
 30
0.0
 11
44.83094572602522
 21
100.5968470307115
 31
0.0
  0
LINE
  5
2169
  8
3
 10
44.114755249834722
 20
101.31303750690201
 30
0.0
 11
44.114755249834722
 21
100.5968470307115
 31
0.0
  0
LINE
  5
216A
  8
3
 10
44.83094572602522
 20
97.313037506902063
 30
0.0
 11
44.114755249834722
 21
97.313037506902091
 31
0.0
  0
LINE
  5
216B
  8
3
 10
44.114755249834722
 20
97.313037506902091
 30
0.0
 11
43.806183821263168
 21
97.621608935473631
 31
0.0
  0
LINE
  5
216C
  8
3
 10
44.83094572602522
 20
97.313037506902049
 30
0.0
 11
45.13951715459649
 21
97.621608935473631
 31
0.0
  0
LINE
  5
216D
  8
3
 10
44.114755249834722
 20
98.646370840235377
 30
0.0
 11
44.114755249834722
 21
97.930180364044915
 31
0.0
  0
LINE
  5
216E
  8
3
 10
44.83094572602522
 20
98.646370840235363
 30
0.0
 11
44.83094572602522
 21
97.930180364044901
 31
0.0
  0
LINE
  5
216F
  8
3
 10
44.83094572602522
 20
98.646370840235377
 30
0.0
 11
44.114755249834722
 21
98.646370840235406
 31
0.0
  0
LINE
  5
2170
  8
3
 10
44.83094572602522
 20
97.930180364044901
 30
0.0
 11
44.114755249834722
 21
97.930180364044901
 31
0.0
  0
LINE
  5
2171
  8
3
 10
43.806183821263168
 20
97.621608935473631
 30
0.0
 11
44.114755249834722
 21
97.930180364044915
 31
0.0
  0
LINE
  5
2172
  8
3
 10
44.114755249834722
 20
98.646370840235406
 30
0.0
 11
43.806183821263168
 21
98.954942268806946
 31
0.0
  0
LINE
  5
2173
  8
3
 10
44.83094572602522
 20
98.646370840235363
 30
0.0
 11
45.13951715459649
 21
98.954942268806946
 31
0.0
  0
LINE
  5
2174
  8
3
 10
44.83094572602522
 20
97.930180364044901
 30
0.0
 11
45.13951715459649
 21
97.621608935473631
 31
0.0
  0
LINE
  5
2175
  8
3
 10
44.114755249834722
 20
99.979704173568692
 30
0.0
 11
44.114755249834722
 21
99.263513697378215
 31
0.0
  0
LINE
  5
2176
  8
3
 10
44.83094572602522
 20
99.979704173568663
 30
0.0
 11
44.83094572602522
 21
99.263513697378215
 31
0.0
  0
LINE
  5
2177
  8
3
 10
44.83094572602522
 20
99.979704173568692
 30
0.0
 11
44.114755249834722
 21
99.979704173568706
 31
0.0
  0
LINE
  5
2178
  8
3
 10
44.83094572602522
 20
99.263513697378215
 30
0.0
 11
44.114755249834722
 21
99.263513697378215
 31
0.0
  0
LINE
  5
2179
  8
3
 10
43.806183821263168
 20
98.954942268806946
 30
0.0
 11
44.114755249834722
 21
99.263513697378215
 31
0.0
  0
LINE
  5
217A
  8
3
 10
44.114755249834722
 20
99.979704173568706
 30
0.0
 11
43.806183821263168
 21
100.2882756021402
 31
0.0
  0
LINE
  5
217B
  8
3
 10
44.83094572602522
 20
99.979704173568663
 30
0.0
 11
45.13951715459649
 21
100.2882756021402
 31
0.0
  0
LINE
  5
217C
  8
3
 10
44.83094572602522
 20
99.263513697378215
 30
0.0
 11
45.13951715459649
 21
98.954942268806946
 31
0.0
  0
LINE
  5
217D
  8
3
 10
42.781421916501408
 20
97.313037506902063
 30
0.0
 11
42.781421916501408
 21
96.596847030711601
 31
0.0
  0
LINE
  5
217E
  8
3
 10
43.497612392691913
 20
96.596847030711587
 30
0.0
 11
42.781421916501408
 21
96.596847030711587
 31
0.0
  0
LINE
  5
217F
  8
3
 10
43.497612392691913
 20
97.313037506902049
 30
0.0
 11
43.497612392691913
 21
96.596847030711587
 31
0.0
  0
LINE
  5
2180
  8
3
 10
43.497612392691913
 20
104.5968470307115
 30
0.0
 11
43.806183821263168
 21
104.2882756021402
 31
0.0
  0
LINE
  5
2181
  8
3
 10
43.497612392691913
 20
105.31303750690191
 30
0.0
 11
43.806183821263168
 21
105.6216089354735
 31
0.0
  0
LINE
  5
2182
  8
3
 10
42.781421916501408
 20
105.31303750690191
 30
0.0
 11
42.472850487929861
 21
105.6216089354735
 31
0.0
  0
LINE
  5
2183
  8
3
 10
42.472850487929861
 20
104.2882756021402
 30
0.0
 11
42.781421916501408
 21
104.5968470307115
 31
0.0
  0
LINE
  5
2184
  8
3
 10
43.497612392691913
 20
104.5968470307115
 30
0.0
 11
42.781421916501408
 21
104.5968470307115
 31
0.0
  0
LINE
  5
2185
  8
3
 10
43.497612392691913
 20
105.31303750690191
 30
0.0
 11
42.781421916501408
 21
105.31303750690191
 31
0.0
  0
LINE
  5
2186
  8
3
 10
43.497612392691913
 20
105.31303750690191
 30
0.0
 11
43.497612392691913
 21
104.5968470307115
 31
0.0
  0
LINE
  5
2187
  8
3
 10
42.781421916501408
 20
105.31303750690191
 30
0.0
 11
42.781421916501408
 21
104.5968470307115
 31
0.0
  0
LINE
  5
2188
  8
3
 10
43.497612392691913
 20
103.2635136973781
 30
0.0
 11
43.806183821263168
 21
102.9549422688069
 31
0.0
  0
LINE
  5
2189
  8
3
 10
43.497612392691913
 20
103.97970417356861
 30
0.0
 11
43.806183821263168
 21
104.2882756021402
 31
0.0
  0
LINE
  5
218A
  8
3
 10
42.781421916501408
 20
103.97970417356861
 30
0.0
 11
42.472850487929861
 21
104.2882756021402
 31
0.0
  0
LINE
  5
218B
  8
3
 10
42.472850487929861
 20
102.9549422688069
 30
0.0
 11
42.781421916501408
 21
103.2635136973782
 31
0.0
  0
LINE
  5
218C
  8
3
 10
43.497612392691913
 20
103.2635136973781
 30
0.0
 11
42.781421916501408
 21
103.2635136973781
 31
0.0
  0
LINE
  5
218D
  8
3
 10
43.497612392691913
 20
103.97970417356861
 30
0.0
 11
42.781421916501408
 21
103.97970417356861
 31
0.0
  0
LINE
  5
218E
  8
3
 10
43.497612392691913
 20
103.97970417356861
 30
0.0
 11
43.497612392691913
 21
103.2635136973781
 31
0.0
  0
LINE
  5
218F
  8
3
 10
42.781421916501408
 20
103.97970417356861
 30
0.0
 11
42.781421916501408
 21
103.2635136973782
 31
0.0
  0
LINE
  5
2190
  8
3
 10
43.497612392691913
 20
101.9301803640448
 30
0.0
 11
43.806183821263168
 21
101.6216089354736
 31
0.0
  0
LINE
  5
2191
  8
3
 10
43.497612392691913
 20
102.64637084023531
 30
0.0
 11
43.806183821263168
 21
102.9549422688069
 31
0.0
  0
LINE
  5
2192
  8
3
 10
42.781421916501408
 20
102.64637084023531
 30
0.0
 11
42.472850487929861
 21
102.9549422688069
 31
0.0
  0
LINE
  5
2193
  8
3
 10
42.472850487929861
 20
101.6216089354736
 30
0.0
 11
42.781421916501408
 21
101.9301803640448
 31
0.0
  0
LINE
  5
2194
  8
3
 10
43.497612392691913
 20
101.9301803640448
 30
0.0
 11
42.781421916501408
 21
101.9301803640448
 31
0.0
  0
LINE
  5
2195
  8
3
 10
43.497612392691913
 20
102.64637084023531
 30
0.0
 11
42.781421916501408
 21
102.64637084023531
 31
0.0
  0
LINE
  5
2196
  8
3
 10
43.497612392691913
 20
102.64637084023531
 30
0.0
 11
43.497612392691913
 21
101.9301803640448
 31
0.0
  0
LINE
  5
2197
  8
3
 10
42.781421916501408
 20
102.64637084023531
 30
0.0
 11
42.781421916501408
 21
101.9301803640448
 31
0.0
  0
LINE
  5
2198
  8
3
 10
43.497612392691913
 20
100.5968470307115
 30
0.0
 11
43.806183821263168
 21
100.2882756021402
 31
0.0
  0
LINE
  5
2199
  8
3
 10
43.497612392691913
 20
101.31303750690201
 30
0.0
 11
43.806183821263168
 21
101.6216089354736
 31
0.0
  0
LINE
  5
219A
  8
3
 10
42.781421916501408
 20
101.31303750690201
 30
0.0
 11
42.472850487929861
 21
101.6216089354736
 31
0.0
  0
LINE
  5
219B
  8
3
 10
42.472850487929861
 20
100.2882756021402
 30
0.0
 11
42.781421916501408
 21
100.5968470307115
 31
0.0
  0
LINE
  5
219C
  8
3
 10
43.497612392691913
 20
100.5968470307115
 30
0.0
 11
42.781421916501408
 21
100.5968470307115
 31
0.0
  0
LINE
  5
219D
  8
3
 10
43.497612392691913
 20
101.31303750690201
 30
0.0
 11
42.781421916501408
 21
101.31303750690201
 31
0.0
  0
LINE
  5
219E
  8
3
 10
43.497612392691913
 20
101.31303750690201
 30
0.0
 11
43.497612392691913
 21
100.5968470307115
 31
0.0
  0
LINE
  5
219F
  8
3
 10
42.781421916501408
 20
101.31303750690201
 30
0.0
 11
42.781421916501408
 21
100.5968470307115
 31
0.0
  0
LINE
  5
21A0
  8
3
 10
43.497612392691913
 20
97.313037506902063
 30
0.0
 11
42.781421916501408
 21
97.313037506902091
 31
0.0
  0
LINE
  5
21A1
  8
3
 10
42.781421916501408
 20
97.313037506902091
 30
0.0
 11
42.472850487929861
 21
97.621608935473631
 31
0.0
  0
LINE
  5
21A2
  8
3
 10
43.497612392691913
 20
97.313037506902049
 30
0.0
 11
43.806183821263168
 21
97.621608935473631
 31
0.0
  0
LINE
  5
21A3
  8
3
 10
42.781421916501408
 20
98.646370840235377
 30
0.0
 11
42.781421916501408
 21
97.930180364044915
 31
0.0
  0
LINE
  5
21A4
  8
3
 10
43.497612392691913
 20
98.646370840235363
 30
0.0
 11
43.497612392691913
 21
97.930180364044901
 31
0.0
  0
LINE
  5
21A5
  8
3
 10
43.497612392691913
 20
98.646370840235377
 30
0.0
 11
42.781421916501408
 21
98.646370840235406
 31
0.0
  0
LINE
  5
21A6
  8
3
 10
43.497612392691913
 20
97.930180364044901
 30
0.0
 11
42.781421916501408
 21
97.930180364044901
 31
0.0
  0
LINE
  5
21A7
  8
3
 10
42.472850487929861
 20
97.621608935473631
 30
0.0
 11
42.781421916501408
 21
97.930180364044915
 31
0.0
  0
LINE
  5
21A8
  8
3
 10
42.781421916501408
 20
98.646370840235406
 30
0.0
 11
42.472850487929861
 21
98.954942268806946
 31
0.0
  0
LINE
  5
21A9
  8
3
 10
43.497612392691913
 20
98.646370840235363
 30
0.0
 11
43.806183821263168
 21
98.954942268806946
 31
0.0
  0
LINE
  5
21AA
  8
3
 10
43.497612392691913
 20
97.930180364044901
 30
0.0
 11
43.806183821263168
 21
97.621608935473631
 31
0.0
  0
LINE
  5
21AB
  8
3
 10
42.781421916501408
 20
99.979704173568692
 30
0.0
 11
42.781421916501408
 21
99.263513697378215
 31
0.0
  0
LINE
  5
21AC
  8
3
 10
43.497612392691913
 20
99.979704173568663
 30
0.0
 11
43.497612392691913
 21
99.263513697378215
 31
0.0
  0
LINE
  5
21AD
  8
3
 10
43.497612392691913
 20
99.979704173568692
 30
0.0
 11
42.781421916501408
 21
99.979704173568706
 31
0.0
  0
LINE
  5
21AE
  8
3
 10
43.497612392691913
 20
99.263513697378215
 30
0.0
 11
42.781421916501408
 21
99.263513697378215
 31
0.0
  0
LINE
  5
21AF
  8
3
 10
42.472850487929861
 20
98.954942268806946
 30
0.0
 11
42.781421916501408
 21
99.263513697378215
 31
0.0
  0
LINE
  5
21B0
  8
3
 10
42.781421916501408
 20
99.979704173568706
 30
0.0
 11
42.472850487929861
 21
100.2882756021402
 31
0.0
  0
LINE
  5
21B1
  8
3
 10
43.497612392691913
 20
99.979704173568663
 30
0.0
 11
43.806183821263168
 21
100.2882756021402
 31
0.0
  0
LINE
  5
21B2
  8
3
 10
43.497612392691913
 20
99.263513697378215
 30
0.0
 11
43.806183821263168
 21
98.954942268806946
 31
0.0
  0
LINE
  5
21B3
  8
3
 10
42.164279059358591
 20
99.263513697378215
 30
0.0
 11
42.472850487929861
 21
98.954942268806946
 31
0.0
  0
LINE
  5
21B4
  8
3
 10
42.164279059358591
 20
99.979704173568663
 30
0.0
 11
42.472850487929861
 21
100.2882756021402
 31
0.0
  0
LINE
  5
21B5
  8
3
 10
41.448088583168087
 20
99.979704173568706
 30
0.0
 11
41.139517154596547
 21
100.2882756021402
 31
0.0
  0
LINE
  5
21B6
  8
3
 10
41.139517154596547
 20
98.954942268806946
 30
0.0
 11
41.448088583168087
 21
99.263513697378215
 31
0.0
  0
LINE
  5
21B7
  8
3
 10
42.164279059358591
 20
99.263513697378215
 30
0.0
 11
41.448088583168087
 21
99.263513697378215
 31
0.0
  0
LINE
  5
21B8
  8
3
 10
42.164279059358591
 20
99.979704173568692
 30
0.0
 11
41.448088583168087
 21
99.979704173568706
 31
0.0
  0
LINE
  5
21B9
  8
3
 10
42.164279059358591
 20
99.979704173568663
 30
0.0
 11
42.164279059358591
 21
99.263513697378215
 31
0.0
  0
LINE
  5
21BA
  8
3
 10
41.448088583168087
 20
99.979704173568692
 30
0.0
 11
41.448088583168087
 21
99.263513697378215
 31
0.0
  0
LINE
  5
21BB
  8
3
 10
42.164279059358591
 20
97.930180364044901
 30
0.0
 11
42.472850487929861
 21
97.621608935473631
 31
0.0
  0
LINE
  5
21BC
  8
3
 10
42.164279059358591
 20
98.646370840235363
 30
0.0
 11
42.472850487929861
 21
98.954942268806946
 31
0.0
  0
LINE
  5
21BD
  8
3
 10
41.448088583168087
 20
98.646370840235406
 30
0.0
 11
41.139517154596547
 21
98.954942268806946
 31
0.0
  0
LINE
  5
21BE
  8
3
 10
41.139517154596547
 20
97.621608935473631
 30
0.0
 11
41.448088583168087
 21
97.930180364044915
 31
0.0
  0
LINE
  5
21BF
  8
3
 10
42.164279059358591
 20
97.930180364044901
 30
0.0
 11
41.448088583168087
 21
97.930180364044901
 31
0.0
  0
LINE
  5
21C0
  8
3
 10
42.164279059358591
 20
98.646370840235377
 30
0.0
 11
41.448088583168087
 21
98.646370840235406
 31
0.0
  0
LINE
  5
21C1
  8
3
 10
42.164279059358591
 20
98.646370840235363
 30
0.0
 11
42.164279059358591
 21
97.930180364044901
 31
0.0
  0
LINE
  5
21C2
  8
3
 10
41.448088583168087
 20
98.646370840235377
 30
0.0
 11
41.448088583168087
 21
97.930180364044915
 31
0.0
  0
LINE
  5
21C3
  8
3
 10
42.164279059358591
 20
96.596847030711587
 30
0.0
 11
42.451976304766497
 21
96.309149785303703
 31
0.0
  0
LINE
  5
21C4
  8
3
 10
42.164279059358591
 20
97.313037506902049
 30
0.0
 11
42.472850487929861
 21
97.621608935473631
 31
0.0
  0
LINE
  5
21C5
  8
3
 10
41.448088583168087
 20
97.313037506902091
 30
0.0
 11
41.139517154596547
 21
97.621608935473631
 31
0.0
  0
LINE
  5
21C6
  8
3
 10
41.160391337759933
 20
96.309149785303703
 30
0.0
 11
41.448088583168087
 21
96.596847030711601
 31
0.0
  0
LINE
  5
21C7
  8
3
 10
42.164279059358591
 20
96.596847030711587
 30
0.0
 11
41.448088583168087
 21
96.596847030711587
 31
0.0
  0
LINE
  5
21C8
  8
3
 10
42.164279059358591
 20
97.313037506902063
 30
0.0
 11
41.448088583168087
 21
97.313037506902091
 31
0.0
  0
LINE
  5
21C9
  8
3
 10
42.164279059358591
 20
97.313037506902049
 30
0.0
 11
42.164279059358591
 21
96.596847030711587
 31
0.0
  0
LINE
  5
21CA
  8
3
 10
41.448088583168087
 20
97.313037506902063
 30
0.0
 11
41.448088583168087
 21
96.596847030711601
 31
0.0
  0
LINE
  5
21CB
  8
3
 10
41.448088583168087
 20
101.31303750690201
 30
0.0
 11
41.448088583168087
 21
100.5968470307115
 31
0.0
  0
LINE
  5
21CC
  8
3
 10
42.164279059358591
 20
101.31303750690201
 30
0.0
 11
42.164279059358591
 21
100.5968470307115
 31
0.0
  0
LINE
  5
21CD
  8
3
 10
42.164279059358591
 20
101.31303750690201
 30
0.0
 11
41.448088583168087
 21
101.31303750690201
 31
0.0
  0
LINE
  5
21CE
  8
3
 10
42.164279059358591
 20
100.5968470307115
 30
0.0
 11
41.448088583168087
 21
100.5968470307115
 31
0.0
  0
LINE
  5
21CF
  8
3
 10
41.139517154596547
 20
100.2882756021402
 30
0.0
 11
41.448088583168087
 21
100.5968470307115
 31
0.0
  0
LINE
  5
21D0
  8
3
 10
41.448088583168087
 20
101.31303750690201
 30
0.0
 11
41.139517154596547
 21
101.6216089354736
 31
0.0
  0
LINE
  5
21D1
  8
3
 10
42.164279059358591
 20
101.31303750690201
 30
0.0
 11
42.472850487929861
 21
101.6216089354736
 31
0.0
  0
LINE
  5
21D2
  8
3
 10
42.164279059358591
 20
100.5968470307115
 30
0.0
 11
42.472850487929861
 21
100.2882756021402
 31
0.0
  0
LINE
  5
21D3
  8
3
 10
41.448088583168087
 20
102.64637084023531
 30
0.0
 11
41.448088583168087
 21
101.9301803640448
 31
0.0
  0
LINE
  5
21D4
  8
3
 10
42.164279059358591
 20
102.64637084023531
 30
0.0
 11
42.164279059358591
 21
101.9301803640448
 31
0.0
  0
LINE
  5
21D5
  8
3
 10
42.164279059358591
 20
102.64637084023531
 30
0.0
 11
41.448088583168087
 21
102.64637084023531
 31
0.0
  0
LINE
  5
21D6
  8
3
 10
42.164279059358591
 20
101.9301803640448
 30
0.0
 11
41.448088583168087
 21
101.9301803640448
 31
0.0
  0
LINE
  5
21D7
  8
3
 10
41.139517154596547
 20
101.6216089354736
 30
0.0
 11
41.448088583168087
 21
101.9301803640448
 31
0.0
  0
LINE
  5
21D8
  8
3
 10
41.448088583168087
 20
102.64637084023531
 30
0.0
 11
41.139517154596547
 21
102.9549422688069
 31
0.0
  0
LINE
  5
21D9
  8
3
 10
42.164279059358591
 20
102.64637084023531
 30
0.0
 11
42.472850487929861
 21
102.9549422688069
 31
0.0
  0
LINE
  5
21DA
  8
3
 10
42.164279059358591
 20
101.9301803640448
 30
0.0
 11
42.472850487929861
 21
101.6216089354736
 31
0.0
  0
LINE
  5
21DB
  8
3
 10
41.448088583168087
 20
103.97970417356861
 30
0.0
 11
41.448088583168087
 21
103.2635136973782
 31
0.0
  0
LINE
  5
21DC
  8
3
 10
42.164279059358591
 20
103.97970417356861
 30
0.0
 11
42.164279059358591
 21
103.2635136973781
 31
0.0
  0
LINE
  5
21DD
  8
3
 10
42.164279059358591
 20
103.97970417356861
 30
0.0
 11
41.448088583168087
 21
103.97970417356861
 31
0.0
  0
LINE
  5
21DE
  8
3
 10
42.164279059358591
 20
103.2635136973781
 30
0.0
 11
41.448088583168087
 21
103.2635136973781
 31
0.0
  0
LINE
  5
21DF
  8
3
 10
41.139517154596547
 20
102.9549422688069
 30
0.0
 11
41.448088583168087
 21
103.2635136973782
 31
0.0
  0
LINE
  5
21E0
  8
3
 10
41.448088583168087
 20
103.97970417356861
 30
0.0
 11
41.139517154596547
 21
104.2882756021402
 31
0.0
  0
LINE
  5
21E1
  8
3
 10
42.164279059358591
 20
103.97970417356861
 30
0.0
 11
42.472850487929861
 21
104.2882756021402
 31
0.0
  0
LINE
  5
21E2
  8
3
 10
42.164279059358591
 20
103.2635136973781
 30
0.0
 11
42.472850487929861
 21
102.9549422688069
 31
0.0
  0
LINE
  5
21E3
  8
3
 10
41.448088583168087
 20
105.31303750690191
 30
0.0
 11
41.448088583168087
 21
104.5968470307115
 31
0.0
  0
LINE
  5
21E4
  8
3
 10
42.164279059358591
 20
105.31303750690191
 30
0.0
 11
42.164279059358591
 21
104.5968470307115
 31
0.0
  0
LINE
  5
21E5
  8
3
 10
42.164279059358591
 20
105.31303750690191
 30
0.0
 11
41.448088583168087
 21
105.31303750690191
 31
0.0
  0
LINE
  5
21E6
  8
3
 10
42.164279059358591
 20
104.5968470307115
 30
0.0
 11
41.448088583168087
 21
104.5968470307115
 31
0.0
  0
LINE
  5
21E7
  8
3
 10
41.139517154596547
 20
104.2882756021402
 30
0.0
 11
41.448088583168087
 21
104.5968470307115
 31
0.0
  0
LINE
  5
21E8
  8
3
 10
41.448088583168087
 20
105.31303750690191
 30
0.0
 11
41.139517154596547
 21
105.6216089354735
 31
0.0
  0
LINE
  5
21E9
  8
3
 10
42.164279059358591
 20
105.31303750690191
 30
0.0
 11
42.472850487929861
 21
105.6216089354735
 31
0.0
  0
LINE
  5
21EA
  8
3
 10
42.164279059358591
 20
104.5968470307115
 30
0.0
 11
42.472850487929861
 21
104.2882756021402
 31
0.0
  0
LINE
  5
21EB
  8
3
 10
50.650516595544453
 20
101.6216089354736
 30
0.0
 11
32.96185104698214
 21
101.6216089354736
 31
0.0
  0
TEXT
  5
22A6
  8
0
 62
     3
 10
0.0
 20
0.0
 30
0.0
 40
5.0
  1
BJ730-16127
  7
STANDARD1
  0
ENDSEC
  0
EOF
