  0
SECTION
  2
HEADER
  9
$ACADVER
  1
AC1009
  9
$INSBASE
 10
0.0
 20
0.0
 30
0.0
  9
$EXTMIN
 10
0.0
 20
-2.960436562073669
 30
0.0
  9
$EXTMAX
 10
83.110504774897677
 20
124.4999999999993
 30
0.0
  9
$LIMMIN
 10
0.0
 20
0.0
  9
$LIMMAX
 10
187.5
 20
135.0
  9
$ORTHOMODE
 70
     1
  9
$REGENMODE
 70
     1
  9
$FILLMODE
 70
     1
  9
$QTEXTMODE
 70
     0
  9
$MIRRTEXT
 70
     0
  9
$DRAGMODE
 70
     2
  9
$LTSCALE
 40
5.0
  9
$OSMODE
 70
    37
  9
$ATTMODE
 70
     1
  9
$TEXTSIZE
 40
0.2
  9
$TRACEWID
 40
0.05
  9
$TEXTSTYLE
  7
STANDARD
  9
$CLAYER
  8
0
  9
$CELTYPE
  6
BYLAYER
  9
$CECOLOR
 62
   256
  9
$DIMSCALE
 40
1.0
  9
$DIMASZ
 40
3.0
  9
$DIMEXO
 40
2.0
  9
$DIMDLI
 40
0.38
  9
$DIMRND
 40
0.0
  9
$DIMDLE
 40
0.0
  9
$DIMEXE
 40
2.0
  9
$DIMTP
 40
0.0
  9
$DIMTM
 40
0.0
  9
$DIMTXT
 40
3.2000000000000002
  9
$DIMCEN
 40
0.0
  9
$DIMTSZ
 40
0.0
  9
$DIMTOL
 70
     0
  9
$DIMLIM
 70
     0
  9
$DIMTIH
 70
     0
  9
$DIMTOH
 70
     0
  9
$DIMSE1
 70
     0
  9
$DIMSE2
 70
     0
  9
$DIMTAD
 70
     1
  9
$DIMZIN
 70
     8
  9
$DIMBLK
  1

  9
$DIMASO
 70
     0
  9
$DIMSHO
 70
     0
  9
$DIMPOST
  1

  9
$DIMAPOST
  1

  9
$DIMALT
 70
     0
  9
$DIMALTD
 70
     2
  9
$DIMALTF
 40
25.399999999999999
  9
$DIMLFAC
 40
1.0
  9
$DIMTOFL
 70
     1
  9
$DIMTVP
 40
1.6000000000000001
  9
$DIMTIX
 70
     1
  9
$DIMSOXD
 70
     0
  9
$DIMSAH
 70
     0
  9
$DIMBLK1
  1

  9
$DIMBLK2
  1

  9
$DIMSTYLE
  2
STANDARD
  9
$DIMCLRD
 70
     0
  9
$DIMCLRE
 70
     0
  9
$DIMCLRT
 70
     0
  9
$DIMTFAC
 40
1.0
  9
$DIMGAP
 40
1.0
  9
$LUNITS
 70
     2
  9
$LUPREC
 70
     1
  9
$SKETCHINC
 40
0.1
  9
$FILLETRAD
 40
0.8
  9
$AUNITS
 70
     0
  9
$AUPREC
 70
     1
  9
$MENU
  1
E:\r13\win\SUPPORT\ACAD
  9
$ELEVATION
 40
0.0
  9
$PELEVATION
 40
0.0
  9
$THICKNESS
 40
0.0
  9
$LIMCHECK
 70
     0
  9
$BLIPMODE
 70
     0
  9
$CHAMFERA
 40
0.0
  9
$CHAMFERB
 40
0.0
  9
$SKPOLY
 70
     0
  9
$TDCREATE
 40
2449839.7695601862
  9
$TDUPDATE
 40
2458893.573180336
  9
$TDINDWG
 40
0.0316961227
  9
$TDUSRTIMER
 40
0.0316961227
  9
$USRTIMER
 70
     1
  9
$ANGBASE
 50
0.0
  9
$ANGDIR
 70
     0
  9
$PDMODE
 70
     0
  9
$PDSIZE
 40
0.0
  9
$PLINEWID
 40
0.0
  9
$COORDS
 70
     1
  9
$SPLFRAME
 70
     0
  9
$SPLINETYPE
 70
     6
  9
$SPLINESEGS
 70
     8
  9
$ATTDIA
 70
     0
  9
$ATTREQ
 70
     1
  9
$HANDLING
 70
     1
  9
$HANDSEED
  5
6D0
  9
$SURFTAB1
 70
     6
  9
$SURFTAB2
 70
     6
  9
$SURFTYPE
 70
     6
  9
$SURFU
 70
     6
  9
$SURFV
 70
     6
  9
$UCSNAME
  2

  9
$UCSORG
 10
0.0
 20
0.0
 30
0.0
  9
$UCSXDIR
 10
1.0
 20
0.0
 30
0.0
  9
$UCSYDIR
 10
0.0
 20
1.0
 30
0.0
  9
$PUCSNAME
  2

  9
$PUCSORG
 10
0.0
 20
0.0
 30
0.0
  9
$PUCSXDIR
 10
1.0
 20
0.0
 30
0.0
  9
$PUCSYDIR
 10
0.0
 20
1.0
 30
0.0
  9
$USERI1
 70
     0
  9
$USERI2
 70
     1
  9
$USERI3
 70
     0
  9
$USERI4
 70
     0
  9
$USERI5
 70
     0
  9
$USERR1
 40
0.0
  9
$USERR2
 40
0.0
  9
$USERR3
 40
0.0
  9
$USERR4
 40
0.0
  9
$USERR5
 40
0.0
  9
$WORLDVIEW
 70
     1
  9
$SHADEDGE
 70
     3
  9
$SHADEDIF
 70
    70
  9
$TILEMODE
 70
     1
  9
$MAXACTVP
 70
    16
  9
$PLIMCHECK
 70
     0
  9
$PEXTMIN
 10
1.0000000000000000E+020
 20
1.0000000000000000E+020
 30
1.0000000000000000E+020
  9
$PEXTMAX
 10
-1.0000000000000000E+020
 20
-1.0000000000000000E+020
 30
-1.0000000000000000E+020
  9
$PLIMMIN
 10
0.0
 20
0.0
  9
$PLIMMAX
 10
12.0
 20
9.0
  9
$UNITMODE
 70
     0
  9
$VISRETAIN
 70
     0
  9
$PLINEGEN
 70
     0
  9
$PSLTSCALE
 70
     0
  0
ENDSEC
  0
SECTION
  2
TABLES
  0
TABLE
  2
VPORT
 70
     1
  0
VPORT
  2
*ACTIVE
 70
     0
 10
0.0
 20
0.0
 11
1.0
 21
1.0
 12
241.56441717791409
 22
100.0
 13
0.0
 23
0.0
 14
5.0
 24
5.0
 15
5.0
 25
5.0
 16
0.0
 26
0.0
 36
1.0
 17
0.0
 27
0.0
 37
0.0
 40
200.0
 41
2.415644171779141
 42
50.0
 43
0.0
 44
0.0
 50
0.0
 51
0.0
 71
     0
 72
   500
 73
     1
 74
     0
 75
     0
 76
     0
 77
     0
 78
     2
  0
ENDTAB
  0
TABLE
  2
LTYPE
 70
     3
  0
LTYPE
  2
CONTINUOUS
 70
     0
  3
Solid Line
 72
    65
 73
     0
 40
0.0
  0
LTYPE
  2
CENTER
 70
     0
  3
____ _ ____ _ ____ _ ____ _ ____ _ ____ _ ____
 72
    65
 73
     4
 40
2.0
 49
1.25
 49
-0.25
 49
0.25
 49
-0.25
  0
LTYPE
  2
PHANTOM2
 70
     0
  3
___ _ _ ___ _ _ ___ _ _ ___ _ _
 72
    65
 73
     6
 40
1.25
 49
0.625
 49
-0.125
 49
0.125
 49
-0.125
 49
0.125
 49
-0.125
  0
ENDTAB
  0
TABLE
  2
LAYER
 70
     4
  0
LAYER
  2
0
 70
     0
 62
     7
  6
CONTINUOUS
  0
LAYER
  2
1
 70
     0
 62
     1
  6
CENTER
  0
LAYER
  2
3
 70
     0
 62
     3
  6
CONTINUOUS
  0
LAYER
  2
DEFPOINTS
 70
     0
 62
     7
  6
CONTINUOUS
  0
ENDTAB
  0
TABLE
  2
STYLE
 70
     2
  0
STYLE
  2
STANDARD
 70
     0
 40
0.0
 41
1.0
 50
0.0
 71
     0
 42
0.2
  3
TXT
  4
BIGFONT
  0
STYLE
  2
STANDARD1
 70
     0
 40
0.0
 41
1.0
 50
0.0
 71
     0
 42
3.0
  3
txt
  4

  0
ENDTAB
  0
TABLE
  2
VIEW
 70
     1
  0
VIEW
  2
ALL
 70
     0
 40
179.5384664489153
 10
135.0
 20
89.769233224457665
 41
0.0
 11
0.0
 21
0.0
 31
1.0
 12
0.0
 22
0.0
 32
0.0
 42
0.0
 43
0.0
 44
0.0
 50
0.0
 71
     0
  0
ENDTAB
  0
TABLE
  2
UCS
 70
     0
  0
ENDTAB
  0
TABLE
  2
APPID
 70
    54
  0
APPID
  2
ACAD
 70
     0
  0
APPID
  2
DCO15
 70
     0
  0
APPID
  2
GENIUS_GENOREF_13
 70
     0
  0
APPID
  2
GENIUS_GENOENT_13
 70
     0
  0
APPID
  2
GENIUS_GENBH_13
 70
     0
  0
APPID
  2
GENIUS_GENOBJ_13
 70
     0
  0
APPID
  2
GENIUS_GENODEF_13
 70
     0
  0
APPID
  2
GENIUS_GENOLIS_13
 70
     0
  0
APPID
  2
GENIUS_GENOBJ-NBEHI-BHF_13
 70
     0
  0
APPID
  2
GENIUS_GENOBJ-NBEHI-BHB_13
 70
     0
  0
APPID
  2
GENIUS_GENOBJ-F-PART_13
 70
     0
  0
APPID
  2
GENIUS_GEFSTDP_13
 70
     0
  0
APPID
  2
GENIUS_GENOBJ-N-RSSYM_13
 70
     0
  0
APPID
  2
GENIUS_GENSYMENT_13
 70
     0
  0
APPID
  2
GENIUS_GENOBJ-N-TIT_13
 70
     0
  0
APPID
  2
GENIUS_GENTITLE_13
 70
     0
  0
APPID
  2
GENIUS_GENZVEED_13
 70
     0
  0
APPID
  2
GENIUS_GENOBJ-N-LEADER_13
 70
     0
  0
APPID
  2
GENIUS_GENOBJ-N-FIL_13
 70
     0
  0
APPID
  2
GENIUS_GENOBJ-N-SEC_13
 70
     0
  0
APPID
  2
GENIUS_GENOBJ-N-CRS_13
 70
     0
  0
APPID
  2
GENIUS_GENOBJ-N-ZOO_13
 70
     0
  0
APPID
  2
GENIUS_GENZOO_13
 70
     0
  0
APPID
  2
GENIUS_GENOBJ-F-TOL_13
 70
     0
  0
APPID
  2
GENIUS_GENFIL_13
 70
     0
  0
APPID
  2
GENIUS_GENOBJ-N-CHA_13
 70
     0
  0
APPID
  2
_CALL_MAC$
 70
     0
  0
APPID
  2
ASM_BASE
 70
     0
  0
APPID
  2
ASM_EXPLO_VER_2_00
 70
     0
  0
APPID
  2
ASM_CADM_VER_12_00
 70
     0
  0
APPID
  2
ASM_BASEFORO
 70
     0
  0
APPID
  2
ASM_BASETRAVI
 70
     0
  0
APPID
  2
ASM_BASETRAVI1
 70
     0
  0
APPID
  2
ASM_GRUPPI
 70
     0
  0
APPID
  2
ASM_CADM_ALBERO
 70
     0
  0
APPID
  2
ASM_GOLE
 70
     0
  0
APPID
  2
ACAD_MLEADERVER
 70
     0
  0
APPID
  2
MCAD_NO_VIS
 70
     0
  0
APPID
  2
ACAD_TEMP_GRAPHIC
 70
     0
  0
APPID
  2
AD_DRAW
 70
     0
  0
APPID
  2
ACATTRIBSERVICES
 70
     0
  0
APPID
  2
DESIGNERASSEMBLIES
 70
     0
  0
APPID
  2
ACADM_DIM_EDIT
 70
     0
  0
APPID
  2
AMDT_DM_ADJ
 70
     0
  0
APPID
  2
ACAD_EXEMPT_FROM_CAD_STANDARDS
 70
     0
  0
APPID
  2
ACAD_DSTYLE_DIMJAG
 70
     0
  0
APPID
  2
ACAD_DSTYLE_DIMBREAK
 70
     0
  0
APPID
  2
ACAD_DSTYLE_DIMTALN
 70
     0
  0
APPID
  2
ACAD_PSEXT
 70
     0
  0
APPID
  2
ACAD_DSTYLE_DIMARC_LENGTH_
 70
     0
  0
APPID
  2
ACAD_DSTYLE_DIM_LINETYPE
 70
     0
  0
APPID
  2
ACAD_DSTYLE_DIM_EXT1_LINETYPE
 70
     0
  0
APPID
  2
ACAD_DSTYLE_DIM_EXT2_LINETYPE
 70
     0
  0
APPID
  2
ACAD_NAV_VCDISPLAY
 70
     0
  0
ENDTAB
  0
TABLE
  2
DIMSTYLE
 70
     1
  0
DIMSTYLE
  2
STANDARD
 70
     0
  3

  4

  5

  6

  7

 40
1.0
 41
0.18
 42
0.0625
 43
0.38
 44
0.18
 45
0.0
 46
0.0
 47
0.0
 48
0.0
140
0.18
141
0.09
142
0.0
143
25.399999999999999
144
1.0
145
0.0
146
1.0
147
0.09
 71
     0
 72
     0
 73
     1
 74
     1
 75
     0
 76
     0
 77
     0
 78
     0
170
     0
171
     2
172
     0
173
     0
174
     0
175
     0
176
     0
177
     0
178
     0
  0
ENDTAB
  0
ENDSEC
  0
SECTION
  2
BLOCKS
  0
BLOCK
  8
0
  2
$MODEL_SPACE
 70
     0
 10
0.0
 20
0.0
 30
0.0
  3
$MODEL_SPACE
  1

  0
ENDBLK
  5
14B
  8
0
  0
BLOCK
 67
     1
  8
0
  2
$PAPER_SPACE
 70
     0
 10
0.0
 20
0.0
 30
0.0
  3
$PAPER_SPACE
  1

  0
ENDBLK
  5
149
 67
     1
  8
0
  0
ENDSEC
  0
SECTION
  2
ENTITIES
  0
LINE
  5
3EB
  8
1
 10
50.0
 20
97.500000000000782
 30
0.0
 11
50.000000000000028
 21
124.4999999999993
 31
0.0
  0
LINE
  5
3EC
  8
1
 10
36.500000000000739
 20
111.0
 30
0.0
 11
63.499999999999261
 21
111.0
 31
0.0
  0
CIRCLE
  5
3ED
  8
0
 10
50.000000000000028
 20
111.0
 30
0.0
 40
8.0
  0
CIRCLE
  5
3EF
  8
0
 10
50.000000000000028
 20
111.0
 30
0.0
 40
4.0
  0
LINE
  5
435
  8
1
 10
50.0
 20
45.000000000000099
 30
0.0
 11
50.0
 21
86.000000000000028
 31
0.0
  0
LINE
  5
436
  8
0
 10
49.99999999999892
 20
68.0
 30
0.0
 11
53.999999999998892
 21
67.999999999999972
 31
0.0
  0
LINE
  5
437
  8
3
 10
53.249999999998892
 20
67.999999999999972
 30
0.0
 11
53.999999999998913
 21
69.29903810567663
 31
0.0
  0
LINE
  5
438
  8
3
 10
46.749999999998998
 20
67.999999999999972
 30
0.0
 11
45.99999999999897
 21
69.29903810567663
 31
0.0
  0
LINE
  5
439
  8
0
 10
49.99999999999897
 20
68.0
 30
0.0
 11
45.999999999999012
 21
67.999999999999972
 31
0.0
  0
LINE
  5
43A
  8
0
 10
53.999999999998977
 20
80.500000000000014
 30
0.0
 11
53.999999999998977
 21
77.400000000000034
 31
0.0
  0
LINE
  5
43B
  8
0
 10
45.99999999999897
 20
80.500000000000014
 30
0.0
 11
45.99999999999897
 21
77.400000000000034
 31
0.0
  0
LINE
  5
43C
  8
0
 10
53.999999999998913
 20
69.200000000000045
 30
0.0
 11
53.999999999998913
 21
66.999999999999972
 31
0.0
  0
LINE
  5
43E
  8
0
 10
53.999999999998913
 20
51.200000000000038
 30
0.0
 11
52.799999999998931
 21
50.0
 31
0.0
  0
LINE
  5
440
  8
3
 10
53.24999999999892
 20
68.0
 30
0.0
 11
53.24999999999892
 21
66.999999999999972
 31
0.0
  0
LINE
  5
441
  8
0
 10
45.999999999999027
 20
51.200000000000038
 30
0.0
 11
53.999999999998913
 21
51.200000000000038
 31
0.0
  0
LINE
  5
442
  8
0
 10
45.99999999999897
 20
51.200000000000038
 30
0.0
 11
47.199999999998958
 21
50.0
 31
0.0
  0
LINE
  5
443
  8
0
 10
47.199999999998958
 20
50.0
 30
0.0
 11
52.799999999998931
 21
50.0
 31
0.0
  0
LINE
  5
444
  8
0
 10
46.499999999998977
 20
81.000000000000028
 30
0.0
 11
53.499999999998977
 21
81.000000000000028
 31
0.0
  0
LINE
  5
445
  8
0
 10
46.499999999998977
 20
81.000000000000028
 30
0.0
 11
45.99999999999897
 21
80.500000000000014
 31
0.0
  0
LINE
  5
446
  8
0
 10
53.499999999998977
 20
81.000000000000028
 30
0.0
 11
53.999999999998977
 21
80.500000000000014
 31
0.0
  0
LINE
  5
447
  8
0
 10
53.999999999998977
 20
80.500000000000014
 30
0.0
 11
45.99999999999897
 21
80.500000000000057
 31
0.0
  0
LINE
  5
448
  8
0
 10
46.979184719828993
 20
70.58254179490234
 30
0.0
 11
46.125631329235709
 21
70.58254179490234
 31
0.0
  0
LINE
  5
449
  8
0
 10
46.979184719828993
 20
76.417458205097773
 30
0.0
 11
46.125631329235709
 21
76.417458205097745
 31
0.0
  0
LINE
  5
44A
  8
0
 10
41.853553390594037
 20
76.417458205097773
 30
0.0
 11
41.500000000000789
 21
76.417458205097773
 31
0.0
  0
LINE
  5
44B
  8
0
 10
41.853553390594037
 20
70.582541794902284
 30
0.0
 11
41.500000000000789
 21
70.582541794902284
 31
0.0
  0
LINE
  5
44C
  8
0
 10
41.853553390594008
 20
70.582541794902284
 30
0.0
 11
41.853553390594008
 21
76.417458205097716
 31
0.0
  0
ARC
  5
44D
  8
0
 10
43.989592359914859
 20
78.198759401445329
 30
0.0
 40
7.9100842668503324
 50
254.3333543025235
 51
285.66664569747638
  0
ARC
  5
44E
  8
0
 10
43.989592359914859
 20
68.801240598554671
 30
0.0
 40
7.9100842668503324
 50
74.333354302523531
 51
105.6666456974765
  0
LINE
  5
44F
  8
0
 10
46.125631329235709
 20
70.582541794902312
 30
0.0
 11
46.125631329235709
 21
76.417458205097716
 31
0.0
  0
ARC
  5
450
  8
0
 10
56.010407640085099
 20
78.198759401445329
 30
0.0
 40
7.9100842668503324
 50
254.3333543025235
 51
285.66664569747638
  0
ARC
  5
451
  8
0
 10
50.0
 20
85.961910338142914
 30
0.0
 40
15.673235203547909
 50
258.88743336352047
 51
281.11256663647941
  0
LINE
  5
452
  8
0
 10
53.874368670764277
 20
70.582541794902312
 30
0.0
 11
53.020815280171007
 21
70.582541794902284
 31
0.0
  0
LINE
  5
453
  8
0
 10
58.146446609405977
 20
70.582541794902284
 30
0.0
 11
58.499999999999261
 21
70.582541794902284
 31
0.0
  0
LINE
  5
454
  8
0
 10
58.146446609405977
 20
76.417458205097773
 30
0.0
 11
58.499999999999261
 21
76.417458205097773
 31
0.0
  0
LINE
  5
455
  8
0
 10
53.874368670764277
 20
76.417458205097745
 30
0.0
 11
53.020815280171007
 21
76.417458205097773
 31
0.0
  0
ARC
  5
456
  8
0
 10
50.0
 20
61.038089661857079
 30
0.0
 40
15.673235203547909
 50
78.887433363520529
 51
101.1125666364794
  0
ARC
  5
457
  8
0
 10
56.010407640085099
 20
68.801240598554671
 30
0.0
 40
7.9100842668503324
 50
74.333354302523531
 51
105.6666456974765
  0
LINE
  5
458
  8
0
 10
46.979184719828993
 20
70.58254179490234
 30
0.0
 11
46.979184719828993
 21
76.417458205097716
 31
0.0
  0
LINE
  5
459
  8
0
 10
53.020815280171007
 20
70.582541794902284
 30
0.0
 11
53.020815280171007
 21
76.417458205097716
 31
0.0
  0
LINE
  5
45A
  8
0
 10
53.874368670764277
 20
70.582541794902312
 30
0.0
 11
53.874368670764277
 21
76.417458205097716
 31
0.0
  0
LINE
  5
45B
  8
0
 10
58.146446609405977
 20
70.582541794902284
 30
0.0
 11
58.146446609405977
 21
76.417458205097716
 31
0.0
  0
ARC
  5
45C
  8
0
 10
54.399999999998919
 20
77.400000000000006
 30
0.0
 40
0.4
 50
180.0
 51
270.0
  0
ARC
  5
45D
  8
0
 10
45.599999999998971
 20
77.400000000000006
 30
0.0
 40
0.4
 50
270.0
 51
0.0
  0
LINE
  5
45E
  8
0
 10
41.499999999998693
 20
70.288675134595053
 30
0.0
 11
41.999999999999027
 21
70.000000000000028
 31
0.0
  0
LINE
  5
45F
  8
0
 10
41.499999999998693
 20
76.711324865405004
 30
0.0
 11
41.999999999999027
 21
77.000000000000014
 31
0.0
  0
LINE
  5
460
  8
0
 10
41.499999999998693
 20
70.288675134595053
 30
0.0
 11
41.499999999998693
 21
76.711324865405004
 31
0.0
  0
LINE
  5
462
  8
0
 10
41.999999999998913
 20
70.000000000000114
 30
0.0
 11
57.99999999999887
 21
70.000000000000028
 31
0.0
  0
LINE
  5
463
  8
0
 10
57.99999999999887
 20
77.0
 30
0.0
 11
41.999999999999083
 21
77.000000000000043
 31
0.0
  0
LINE
  5
464
  8
0
 10
58.499999999999261
 20
70.288675134595053
 30
0.0
 11
58.499999999999261
 21
76.711324865405004
 31
0.0
  0
LINE
  5
465
  8
0
 10
58.499999999999261
 20
76.711324865405004
 30
0.0
 11
57.99999999999887
 21
77.0
 31
0.0
  0
LINE
  5
466
  8
0
 10
58.499999999999261
 20
70.288675134595053
 30
0.0
 11
57.99999999999887
 21
70.000000000000028
 31
0.0
  0
ARC
  5
467
  8
0
 10
54.799999999998903
 20
69.200000000000017
 30
0.0
 40
0.8
 50
90.0
 51
180.0
  0
ARC
  5
468
  8
0
 10
45.199999999998958
 20
69.200000000000017
 30
0.0
 40
0.8
 50
0.0
 51
90.0
  0
ARC
  5
469
  8
0
 10
55.629165124599488
 20
64.081344410876198
 30
0.0
 40
2.8867668040867791
 50
89.999999999999204
 51
130.54133944884489
  0
LINE
  5
46A
  8
0
 10
57.505553499466032
 20
66.275105849101323
 30
0.0
 11
56.249999999999829
 21
67.000000000000085
 31
0.0
  0
LINE
  5
46B
  8
0
 10
56.24999999999801
 20
62.000000000000099
 30
0.0
 11
57.505553499466032
 21
62.724894150899893
 31
0.0
  0
LINE
  5
46C
  8
0
 10
57.505553499466032
 20
62.724894150899893
 30
0.0
 11
57.505553499466032
 21
66.275105849101294
 31
0.0
  0
ARC
  5
46E
  8
0
 10
55.629165124599488
 20
64.918655589124924
 30
0.0
 40
2.8867668040867791
 50
229.45866055115511
 51
270.0000000000008
  0
ARC
  5
46F
  8
0
 10
44.370834875400533
 20
64.918655589124924
 30
0.0
 40
2.8867668040867791
 50
269.9999999999992
 51
310.54133944884489
  0
LINE
  5
470
  8
0
 10
42.494446500534018
 20
62.724894150899857
 30
0.0
 11
43.750000000000227
 21
62.000000000001101
 31
0.0
  0
LINE
  5
471
  8
0
 10
42.494446500534018
 20
62.724894150899893
 30
0.0
 11
42.494446500534018
 21
66.275105849101294
 31
0.0
  0
LINE
  5
473
  8
0
 10
42.494446500534018
 20
66.275105849101323
 30
0.0
 11
43.750000000000227
 21
67.000000000000085
 31
0.0
  0
ARC
  5
474
  8
0
 10
44.370834875400533
 20
64.081344410876198
 30
0.0
 40
2.8867668040867791
 50
49.458660551155063
 51
90.00000000000081
  0
LINE
  5
475
  8
0
 10
56.250000000000057
 20
66.999999999999972
 30
0.0
 11
43.750000000000163
 21
67.000000000000057
 31
0.0
  0
LINE
  5
476
  8
0
 10
43.750000000001982
 20
62.00000000000005
 30
0.0
 11
56.250000000000057
 21
62.000000000000078
 31
0.0
  0
LINE
  5
477
  8
0
 10
53.752776749732107
 20
66.275105849101323
 30
0.0
 11
53.752776749733073
 21
62.724894150899381
 31
0.0
  0
LINE
  5
478
  8
0
 10
46.247223250267041
 20
66.275105849101806
 30
0.0
 11
46.247223250267041
 21
62.724894150899381
 31
0.0
  0
ARC
  5
479
  8
0
 10
49.999999999999893
 20
56.923491005392698
 30
0.0
 40
10.076508994607311
 50
68.134547241599918
 51
111.8654527583999
  0
ARC
  5
47A
  8
0
 10
49.999999999999893
 20
72.076508994608474
 30
0.0
 40
10.076508994607311
 50
248.1345472415999
 51
291.8654527583999
  0
LINE
  5
497
  8
0
 10
53.999999999998913
 20
51.200000000000038
 30
0.0
 11
53.999999999998913
 21
62.000000000000078
 31
0.0
  0
LINE
  5
498
  8
3
 10
53.24999999999892
 20
62.000000000000078
 30
0.0
 11
53.24999999999892
 21
50.450000000000038
 31
0.0
  0
LINE
  5
499
  8
0
 10
46.00000000000108
 20
69.200000000000045
 30
0.0
 11
46.000000000001101
 21
66.999999999999972
 31
0.0
  0
LINE
  5
49A
  8
3
 10
46.75000000000108
 20
68.0
 30
0.0
 11
46.75000000000108
 21
66.999999999999972
 31
0.0
  0
LINE
  5
49B
  8
0
 10
46.00000000000108
 20
51.200000000000038
 30
0.0
 11
46.00000000000108
 21
62.000000000000078
 31
0.0
  0
LINE
  5
49C
  8
3
 10
46.75000000000108
 20
62.000000000000078
 30
0.0
 11
46.75000000000108
 21
50.450000000000038
 31
0.0
  0
LINE
  5
4A2
  8
0
 10
58.102057706421832
 20
114.91875757374839
 30
0.0
 11
53.918757573748479
 21
119.1020577064218
 31
0.0
  0
LINE
  5
4A4
  8
0
 10
52.958039891551948
 20
119.4999999999993
 30
0.0
 11
47.04196010844808
 21
119.4999999999993
 31
0.0
  0
LINE
  5
4A6
  8
0
 10
46.081242426251691
 20
119.1020577064219
 30
0.0
 11
41.897942293578147
 21
114.91875757374839
 31
0.0
  0
LINE
  5
4A8
  8
0
 10
41.500000000000789
 20
113.958039891552
 30
0.0
 11
41.50000000000076
 21
108.041960108448
 31
0.0
  0
LINE
  5
4AA
  8
0
 10
41.897942293578168
 20
107.08124242625161
 30
0.0
 11
46.081242426251613
 21
102.8979422935782
 31
0.0
  0
LINE
  5
4AB
  8
0
 10
47.04196010844808
 20
102.5000000000007
 30
0.0
 11
52.95803989155192
 21
102.5000000000007
 31
0.0
  0
LINE
  5
4AD
  8
0
 10
53.918757573748437
 20
102.8979422935782
 30
0.0
 11
58.102057706421832
 21
107.08124242625161
 31
0.0
  0
LINE
  5
4AF
  8
0
 10
58.499999999999261
 20
108.041960108448
 30
0.0
 11
58.499999999999289
 21
113.95803989155191
 31
0.0
  0
TEXT
  5
54A
  8
0
 62
     3
 10
0.0
 20
0.0
 30
0.0
 40
10.0
  1
BJ734-08011
  7
STANDARD1
  0
ARC
  5
5A7
  8
0
 10
50.000000000000007
 20
111.0
 30
0.0
 40
9.0
 50
289.18813645373558
 51
295.81186354626419
  0
ARC
  5
5A8
  8
0
 10
50.000000000000007
 20
111.0
 30
0.0
 40
9.0
 50
244.1881364537353
 51
250.8118635462649
  0
ARC
  5
5A9
  8
0
 10
50.000000000000007
 20
111.0
 30
0.0
 40
9.0
 50
199.18813645373419
 51
205.81186354626519
  0
ARC
  5
5AA
  8
0
 10
50.000000000000007
 20
111.0
 30
0.0
 40
9.0
 50
154.18813645373481
 51
160.81186354626479
  0
ARC
  5
5AB
  8
0
 10
50.000000000000007
 20
111.0
 30
0.0
 40
9.0
 50
109.1881364537347
 51
115.8118635462647
  0
ARC
  5
5AC
  8
0
 10
50.000000000000007
 20
111.0
 30
0.0
 40
9.0
 50
64.188136453735297
 51
70.811863546265457
  0
ARC
  5
5AD
  8
0
 10
50.000000000000007
 20
111.0
 30
0.0
 40
9.0
 50
19.188136453736028
 51
25.811863546264249
  0
ARC
  5
5AE
  8
0
 10
50.000000000000007
 20
111.0
 30
0.0
 40
9.0
 50
334.18813645373569
 51
340.81186354626323
  0
ENDSEC
  0
EOF
