  0
SECTION
  2
HEADER
  9
$ACADVER
  1
AC1009
  9
$INSBASE
 10
0.0
 20
0.0
 30
0.0
  9
$EXTMIN
 10
0.0
 20
-2.960436562073669
 30
0.0
  9
$EXTMAX
 10
83.110504774897677
 20
164.0
 30
0.0
  9
$LIMMIN
 10
0.0
 20
0.0
  9
$LIMMAX
 10
187.5
 20
135.0
  9
$ORTHOMODE
 70
     1
  9
$REGENMODE
 70
     1
  9
$FILLMODE
 70
     1
  9
$QTEXTMODE
 70
     0
  9
$MIRRTEXT
 70
     0
  9
$DRAGMODE
 70
     2
  9
$LTSCALE
 40
5.0
  9
$OSMODE
 70
    37
  9
$ATTMODE
 70
     1
  9
$TEXTSIZE
 40
0.2
  9
$TRACEWID
 40
0.05
  9
$TEXTSTYLE
  7
STANDARD
  9
$CLAYER
  8
0
  9
$CELTYPE
  6
BYLAYER
  9
$CECOLOR
 62
   256
  9
$DIMSCALE
 40
1.0
  9
$DIMASZ
 40
3.0
  9
$DIMEXO
 40
2.0
  9
$DIMDLI
 40
0.38
  9
$DIMRND
 40
0.0
  9
$DIMDLE
 40
0.0
  9
$DIMEXE
 40
2.0
  9
$DIMTP
 40
0.0
  9
$DIMTM
 40
0.0
  9
$DIMTXT
 40
3.2000000000000002
  9
$DIMCEN
 40
0.0
  9
$DIMTSZ
 40
0.0
  9
$DIMTOL
 70
     0
  9
$DIMLIM
 70
     0
  9
$DIMTIH
 70
     0
  9
$DIMTOH
 70
     0
  9
$DIMSE1
 70
     0
  9
$DIMSE2
 70
     0
  9
$DIMTAD
 70
     1
  9
$DIMZIN
 70
     8
  9
$DIMBLK
  1

  9
$DIMASO
 70
     0
  9
$DIMSHO
 70
     0
  9
$DIMPOST
  1

  9
$DIMAPOST
  1

  9
$DIMALT
 70
     0
  9
$DIMALTD
 70
     2
  9
$DIMALTF
 40
25.399999999999999
  9
$DIMLFAC
 40
1.0
  9
$DIMTOFL
 70
     1
  9
$DIMTVP
 40
1.6000000000000001
  9
$DIMTIX
 70
     1
  9
$DIMSOXD
 70
     0
  9
$DIMSAH
 70
     0
  9
$DIMBLK1
  1

  9
$DIMBLK2
  1

  9
$DIMSTYLE
  2
STANDARD
  9
$DIMCLRD
 70
     0
  9
$DIMCLRE
 70
     0
  9
$DIMCLRT
 70
     0
  9
$DIMTFAC
 40
1.0
  9
$DIMGAP
 40
1.0
  9
$LUNITS
 70
     2
  9
$LUPREC
 70
     1
  9
$SKETCHINC
 40
0.1
  9
$FILLETRAD
 40
0.5
  9
$AUNITS
 70
     0
  9
$AUPREC
 70
     1
  9
$MENU
  1
E:\r13\win\SUPPORT\ACAD
  9
$ELEVATION
 40
0.0
  9
$PELEVATION
 40
0.0
  9
$THICKNESS
 40
0.0
  9
$LIMCHECK
 70
     0
  9
$BLIPMODE
 70
     0
  9
$CHAMFERA
 40
0.0
  9
$CHAMFERB
 40
0.0
  9
$SKPOLY
 70
     0
  9
$TDCREATE
 40
2449839.7694791672
  9
$TDUPDATE
 40
2458893.5731979511
  9
$TDINDWG
 40
0.1743647106
  9
$TDUSRTIMER
 40
0.1743647106
  9
$USRTIMER
 70
     1
  9
$ANGBASE
 50
0.0
  9
$ANGDIR
 70
     0
  9
$PDMODE
 70
     0
  9
$PDSIZE
 40
0.0
  9
$PLINEWID
 40
0.0
  9
$COORDS
 70
     1
  9
$SPLFRAME
 70
     0
  9
$SPLINETYPE
 70
     6
  9
$SPLINESEGS
 70
     8
  9
$ATTDIA
 70
     0
  9
$ATTREQ
 70
     1
  9
$HANDLING
 70
     1
  9
$HANDSEED
  5
495
  9
$SURFTAB1
 70
     6
  9
$SURFTAB2
 70
     6
  9
$SURFTYPE
 70
     6
  9
$SURFU
 70
     6
  9
$SURFV
 70
     6
  9
$UCSNAME
  2

  9
$UCSORG
 10
0.0
 20
0.0
 30
0.0
  9
$UCSXDIR
 10
1.0
 20
0.0
 30
0.0
  9
$UCSYDIR
 10
0.0
 20
1.0
 30
0.0
  9
$PUCSNAME
  2

  9
$PUCSORG
 10
0.0
 20
0.0
 30
0.0
  9
$PUCSXDIR
 10
1.0
 20
0.0
 30
0.0
  9
$PUCSYDIR
 10
0.0
 20
1.0
 30
0.0
  9
$USERI1
 70
     0
  9
$USERI2
 70
     1
  9
$USERI3
 70
     0
  9
$USERI4
 70
     0
  9
$USERI5
 70
     0
  9
$USERR1
 40
0.0
  9
$USERR2
 40
0.0
  9
$USERR3
 40
0.0
  9
$USERR4
 40
0.0
  9
$USERR5
 40
0.0
  9
$WORLDVIEW
 70
     1
  9
$SHADEDGE
 70
     3
  9
$SHADEDIF
 70
    70
  9
$TILEMODE
 70
     1
  9
$MAXACTVP
 70
    16
  9
$PLIMCHECK
 70
     0
  9
$PEXTMIN
 10
1.0000000000000000E+020
 20
1.0000000000000000E+020
 30
1.0000000000000000E+020
  9
$PEXTMAX
 10
-1.0000000000000000E+020
 20
-1.0000000000000000E+020
 30
-1.0000000000000000E+020
  9
$PLIMMIN
 10
0.0
 20
0.0
  9
$PLIMMAX
 10
12.0
 20
9.0
  9
$UNITMODE
 70
     0
  9
$VISRETAIN
 70
     0
  9
$PLINEGEN
 70
     0
  9
$PSLTSCALE
 70
     0
  0
ENDSEC
  0
SECTION
  2
TABLES
  0
TABLE
  2
VPORT
 70
     1
  0
VPORT
  2
*ACTIVE
 70
     0
 10
0.0
 20
0.0
 11
1.0
 21
1.0
 12
241.56441717791409
 22
100.0
 13
0.0
 23
0.0
 14
5.0
 24
5.0
 15
5.0
 25
5.0
 16
0.0
 26
0.0
 36
1.0
 17
0.0
 27
0.0
 37
0.0
 40
200.0
 41
2.415644171779141
 42
50.0
 43
0.0
 44
0.0
 50
0.0
 51
0.0
 71
     0
 72
   500
 73
     1
 74
     0
 75
     0
 76
     0
 77
     0
 78
     2
  0
ENDTAB
  0
TABLE
  2
LTYPE
 70
     3
  0
LTYPE
  2
CONTINUOUS
 70
     0
  3
Solid Line
 72
    65
 73
     0
 40
0.0
  0
LTYPE
  2
CENTER
 70
     0
  3
____ _ ____ _ ____ _ ____ _ ____ _ ____ _ ____
 72
    65
 73
     4
 40
2.0
 49
1.25
 49
-0.25
 49
0.25
 49
-0.25
  0
LTYPE
  2
PHANTOM2
 70
     0
  3
___ _ _ ___ _ _ ___ _ _ ___ _ _
 72
    65
 73
     6
 40
1.25
 49
0.625
 49
-0.125
 49
0.125
 49
-0.125
 49
0.125
 49
-0.125
  0
ENDTAB
  0
TABLE
  2
LAYER
 70
     3
  0
LAYER
  2
0
 70
     0
 62
     7
  6
CONTINUOUS
  0
LAYER
  2
1
 70
     0
 62
     1
  6
CENTER
  0
LAYER
  2
3
 70
     0
 62
     3
  6
CONTINUOUS
  0
ENDTAB
  0
TABLE
  2
STYLE
 70
     2
  0
STYLE
  2
STANDARD
 70
     0
 40
0.0
 41
1.0
 50
0.0
 71
     0
 42
0.2
  3
TXT
  4
BIGFONT
  0
STYLE
  2
STANDARD1
 70
     0
 40
0.0
 41
1.0
 50
0.0
 71
     0
 42
3.0
  3
txt
  4

  0
ENDTAB
  0
TABLE
  2
VIEW
 70
     1
  0
VIEW
  2
ALL
 70
     0
 40
179.5384664489153
 10
135.0
 20
89.769233224457665
 41
0.0
 11
0.0
 21
0.0
 31
1.0
 12
0.0
 22
0.0
 32
0.0
 42
0.0
 43
0.0
 44
0.0
 50
0.0
 71
     0
  0
ENDTAB
  0
TABLE
  2
UCS
 70
     0
  0
ENDTAB
  0
TABLE
  2
APPID
 70
     6
  0
APPID
  2
ACAD
 70
     0
  0
APPID
  2
ACAD_MLEADERVER
 70
     0
  0
APPID
  2
ACAD_EXEMPT_FROM_CAD_STANDARDS
 70
     0
  0
APPID
  2
ACAD_NAV_VCDISPLAY
 70
     0
  0
APPID
  2
ACAD_DSTYLE_DIMJAG
 70
     0
  0
APPID
  2
ACAD_DSTYLE_DIMTALN
 70
     0
  0
ENDTAB
  0
TABLE
  2
DIMSTYLE
 70
     1
  0
DIMSTYLE
  2
STANDARD
 70
     0
  3

  4

  5

  6

  7

 40
1.0
 41
0.18
 42
0.0625
 43
0.38
 44
0.18
 45
0.0
 46
0.0
 47
0.0
 48
0.0
140
0.18
141
0.09
142
0.0
143
25.399999999999999
144
1.0
145
0.0
146
1.0
147
0.09
 71
     0
 72
     0
 73
     1
 74
     1
 75
     0
 76
     0
 77
     0
 78
     0
170
     0
171
     2
172
     0
173
     0
174
     0
175
     0
176
     0
177
     0
178
     0
  0
ENDTAB
  0
ENDSEC
  0
SECTION
  2
BLOCKS
  0
BLOCK
  8
0
  2
$MODEL_SPACE
 70
     0
 10
0.0
 20
0.0
 30
0.0
  3
$MODEL_SPACE
  1

  0
ENDBLK
  5
158
  8
0
  0
BLOCK
 67
     1
  8
0
  2
$PAPER_SPACE
 70
     0
 10
0.0
 20
0.0
 30
0.0
  3
$PAPER_SPACE
  1

  0
ENDBLK
  5
156
 67
     1
  8
0
  0
ENDSEC
  0
SECTION
  2
ENTITIES
  0
ARC
  5
49
  8
0
 10
50.000001907348647
 20
147.0
 30
0.0
 40
12.5
 50
241.2602047083121
 51
253.7397952916875
  0
ARC
  5
4A
  8
0
 10
50.000001907348647
 20
147.0
 30
0.0
 40
12.5
 50
331.26020470831389
 51
343.73979529168668
  0
ARC
  5
4B
  8
0
 10
50.000001907348647
 20
147.0
 30
0.0
 40
12.5
 50
286.26020470831247
 51
298.73979529168702
  0
ARC
  5
4C
  8
0
 10
50.000001907348647
 20
147.0
 30
0.0
 40
12.5
 50
196.26020470831199
 51
208.73979529168551
  0
ARC
  5
4D
  8
0
 10
50.000001907348647
 20
147.0
 30
0.0
 40
12.5
 50
151.26020470831119
 51
163.73979529168801
  0
ARC
  5
4E
  8
0
 10
50.000001907348647
 20
147.0
 30
0.0
 40
12.5
 50
106.26020470831359
 51
118.7397952916884
  0
ARC
  5
4F
  8
0
 10
50.000001907348647
 20
147.0
 30
0.0
 40
12.5
 50
16.260204708312902
 51
28.739795291688811
  0
LINE
  5
50
  8
0
 10
56.010409547433952
 20
136.0398448916082
 30
0.0
 11
60.96015701574062
 21
140.9895923599147
 31
0.0
  0
LINE
  5
51
  8
0
 10
39.039846798957143
 20
153.0104076400855
 30
0.0
 11
43.989594267262902
 21
157.96015510839149
 31
0.0
  0
LINE
  5
52
  8
0
 10
46.50000190734864
 20
135.0
 30
0.0
 11
53.50000190734864
 21
135.0
 31
0.0
  0
LINE
  5
53
  8
0
 10
46.500001907348192
 20
159.0
 30
0.0
 11
53.50000190734864
 21
159.0
 31
0.0
  0
LINE
  5
54
  8
0
 10
39.039846798956688
 20
140.9895923599147
 30
0.0
 11
43.989594267262902
 21
136.0398448916084
 31
0.0
  0
LINE
  5
55
  8
0
 10
56.010409547433952
 20
157.96015510839169
 30
0.0
 11
60.960157015740172
 21
153.0104076400857
 31
0.0
  0
LINE
  5
56
  8
0
 10
38.000001907348661
 20
150.5
 30
0.0
 11
38.000001907348661
 21
143.5
 31
0.0
  0
LINE
  5
57
  8
0
 10
62.000001907348647
 20
150.5000000000002
 30
0.0
 11
62.000001907348647
 21
143.5
 31
0.0
  0
ARC
  5
58
  8
0
 10
50.000001907348647
 20
147.0
 30
0.0
 40
12.5
 50
61.260204708311207
 51
73.739795291686306
  0
CIRCLE
  5
59
  8
0
 10
50.000001907348647
 20
147.0
 30
0.0
 40
11.0
  0
CIRCLE
  5
5A
  8
0
 10
50.000001907348647
 20
147.0
 30
0.0
 40
6.0
  0
LINE
  5
65
  8
0
 10
39.000006877043241
 20
93.0
 30
0.0
 11
61.000006877043234
 21
93.0
 31
0.0
  0
LINE
  5
66
  8
0
 10
62.000006877043234
 20
93.577350269189537
 30
0.0
 11
62.000006877043234
 21
102.42264973081041
 31
0.0
  0
LINE
  5
67
  8
0
 10
53.500006877043234
 20
93.866025403784519
 30
0.0
 11
53.500006877043234
 21
102.1339745962154
 31
0.0
  0
LINE
  5
68
  8
0
 10
56.010414517128538
 20
93.866025403784519
 30
0.0
 11
56.010414517128538
 21
102.1339745962154
 31
0.0
  0
LINE
  5
69
  8
0
 10
61.000006877043234
 20
93.0
 30
0.0
 11
62.000006877043234
 21
93.577350269189537
 31
0.0
  0
LINE
  5
6A
  8
0
 10
60.960161985434752
 20
93.866025403784519
 30
0.0
 11
60.960161985434752
 21
102.1339745962154
 31
0.0
  0
LINE
  5
6B
  8
0
 10
62.000006877043234
 20
93.866025403784519
 30
0.0
 11
60.960161985434752
 21
93.866025403784519
 31
0.0
  0
ARC
  5
6C
  8
0
 10
58.485288251281411
 20
104.3304990328338
 30
0.0
 40
10.753148763644679
 50
256.69389686800571
 51
283.30610313199418
  0
LINE
  5
6D
  8
0
 10
46.500006877042772
 20
93.866025403784519
 30
0.0
 11
46.500006877042772
 21
102.1339745962154
 31
0.0
  0
ARC
  5
6E
  8
0
 10
50.000006877043234
 20
114.9393102292028
 30
0.0
 40
21.361959960013269
 50
260.56999209210221
 51
279.43000790789819
  0
LINE
  5
6F
  8
0
 10
56.010414517128538
 20
93.866025403784519
 30
0.0
 11
53.500006877043234
 21
93.866025403784519
 31
0.0
  0
LINE
  5
70
  8
0
 10
46.500006877042772
 20
93.866025403784519
 30
0.0
 11
43.989599236957929
 21
93.866025403784519
 31
0.0
  0
ARC
  5
72
  8
0
 10
41.514725502804588
 20
104.3304990328338
 30
0.0
 40
10.753148763644679
 50
256.69389686800571
 51
283.30610313199418
  0
LINE
  5
73
  8
0
 10
38.000006877043241
 20
93.866025403784519
 30
0.0
 11
39.03985176865126
 21
93.866025403784519
 31
0.0
  0
LINE
  5
74
  8
0
 10
39.000006877043241
 20
93.0
 30
0.0
 11
38.000006877043241
 21
93.577350269189537
 31
0.0
  0
LINE
  5
75
  8
0
 10
39.03985176865126
 20
93.866025403784519
 30
0.0
 11
39.03985176865126
 21
102.1339745962154
 31
0.0
  0
LINE
  5
76
  8
0
 10
38.000006877043241
 20
93.577350269189537
 30
0.0
 11
38.000006877043241
 21
102.42264973081041
 31
0.0
  0
LINE
  5
77
  8
0
 10
43.989599236957929
 20
93.866025403784519
 30
0.0
 11
43.989599236957929
 21
102.1339745962154
 31
0.0
  0
LINE
  5
79
  8
0
 10
39.03985176865126
 20
102.1339745962154
 30
0.0
 11
38.000006877043241
 21
102.1339745962154
 31
0.0
  0
LINE
  5
7A
  8
0
 10
39.000006877043241
 20
103.0
 30
0.0
 11
38.000006877043241
 21
102.42264973081041
 31
0.0
  0
ARC
  5
7C
  8
0
 10
41.514725502804588
 20
91.669500967165746
 30
0.0
 40
10.753148763644679
 50
76.693896868005751
 51
103.30610313199421
  0
LINE
  5
7D
  8
0
 10
43.989599236957929
 20
102.1339745962154
 30
0.0
 11
46.500006877043234
 21
102.1339745962154
 31
0.0
  0
LINE
  5
7F
  8
0
 10
56.010414517128538
 20
102.1339745962154
 30
0.0
 11
53.500006877043234
 21
102.1339745962154
 31
0.0
  0
ARC
  5
80
  8
0
 10
50.000006877043234
 20
81.060689770797126
 30
0.0
 40
21.361959960013269
 50
80.569992092101785
 51
99.430007907897803
  0
ARC
  5
81
  8
0
 10
58.485288251281411
 20
91.669500967165746
 30
0.0
 40
10.753148763644679
 50
76.693896868005751
 51
103.30610313199421
  0
LINE
  5
82
  8
0
 10
62.000006877043234
 20
102.1339745962154
 30
0.0
 11
60.960161985434752
 21
102.1339745962154
 31
0.0
  0
LINE
  5
83
  8
0
 10
61.000006877043234
 20
103.0
 30
0.0
 11
62.000006877043234
 21
102.42264973081041
 31
0.0
  0
LINE
  5
84
  8
0
 10
39.000006877043241
 20
103.0
 30
0.0
 11
61.000006877043198
 21
103.0
 31
0.0
  0
LINE
  5
85
  8
0
 10
44.0
 20
52.0
 30
0.0
 11
44.0
 21
70.0
 31
0.0
  0
LINE
  5
86
  8
3
 10
44.947000000000109
 20
51.052999999999422
 30
0.0
 11
44.947000000000131
 21
70.0
 31
0.0
  0
LINE
  5
87
  8
0
 10
44.0
 20
52.0
 30
0.0
 11
46.0
 21
50.0
 31
0.0
  0
LINE
  5
8C
  8
0
 10
56.0
 20
52.0
 30
0.0
 11
54.0
 21
50.0
 31
0.0
  0
LINE
  5
8D
  8
3
 10
55.052999999999429
 20
51.052999999999422
 30
0.0
 11
55.052999999999429
 21
70.0
 31
0.0
  0
LINE
  5
8E
  8
0
 10
56.0
 20
52.0
 30
0.0
 11
56.0
 21
70.0
 31
0.0
  0
LINE
  5
8F
  8
0
 10
55.500001907348633
 20
107.0
 30
0.0
 11
56.000001907348633
 21
106.5
 31
0.0
  0
LINE
  5
90
  8
0
 10
44.500001907348633
 20
107.0
 30
0.0
 11
44.000001907348633
 21
106.5
 31
0.0
  0
LINE
  5
91
  8
0
 10
55.500001907348633
 20
107.0
 30
0.0
 11
44.500001907348633
 21
107.0
 31
0.0
  0
LINE
  5
92
  8
0
 10
56.000001907348633
 20
103.5
 30
0.0
 11
56.000001907348633
 21
106.5
 31
0.0
  0
LINE
  5
93
  8
0
 10
44.0
 20
90.0
 30
0.0
 11
56.0
 21
90.0
 31
0.0
  0
LINE
  5
94
  8
0
 10
44.0
 20
52.0
 30
0.0
 11
56.0
 21
52.0
 31
0.0
  0
LINE
  5
95
  8
0
 10
54.0
 20
50.0
 30
0.0
 11
46.0
 21
50.0
 31
0.0
  0
LINE
  5
96
  8
0
 10
44.000001907348633
 20
103.5
 30
0.0
 11
44.000001907348633
 21
106.5
 31
0.0
  0
LINE
  5
97
  8
1
 10
67.000001907348647
 20
147.0
 30
0.0
 11
33.000001907348661
 21
147.0
 31
0.0
  0
LINE
  5
98
  8
1
 10
50.000001907348647
 20
164.0
 30
0.0
 11
50.000001907348647
 21
130.0
 31
0.0
  0
LINE
  5
99
  8
1
 10
50.000001907348633
 20
112.0
 30
0.0
 11
50.000001907348633
 21
45.0
 31
0.0
  0
ARC
  5
18C
  8
0
 10
57.500000000000007
 20
91.5
 30
0.0
 40
1.5
 50
90.0
 51
180.0
  0
ARC
  5
18D
  8
0
 10
42.5
 20
91.5
 30
0.0
 40
1.5
 50
0.0
 51
90.0
  0
ARC
  5
196
  8
0
 10
56.500001907348633
 20
103.5
 30
0.0
 40
0.5
 50
180.0
 51
270.0
  0
ARC
  5
197
  8
0
 10
43.500001907348633
 20
103.5
 30
0.0
 40
0.5
 50
270.0
 51
0.0
  0
TEXT
  5
24C
  8
0
 62
     3
 10
0.0
 20
0.0
 30
0.0
 40
10.0
  1
BJ734-12001
  7
STANDARD1
  0
ARC
  5
2B2
  8
0
 10
49.999999999998863
 20
83.700643385876106
 30
0.0
 40
13.708534666400389
 50
246.4153745316755
 51
293.58462546833772
  0
ARC
  5
2B3
  8
0
 10
49.999999999998863
 20
63.299356614123717
 30
0.0
 40
13.708534666400389
 50
66.415374531662238
 51
113.5846254683244
  0
LINE
  5
2B4
  8
0
 10
44.515172442788291
 20
75.862819089394975
 30
0.0
 11
44.515172442730083
 21
71.137180910605139
 31
0.0
  0
LINE
  5
2B5
  8
0
 10
55.48482755721102
 20
75.862819089394975
 30
0.0
 11
55.48482755721102
 21
71.137180910604854
 31
0.0
  0
LINE
  5
2B6
  8
0
 10
58.999999999999773
 20
70.0
 30
0.0
 11
40.999999999999773
 21
70.0
 31
0.0
  0
LINE
  5
2B7
  8
0
 10
40.999999999999773
 20
76.999999999999886
 30
0.0
 11
58.999999999999773
 21
76.999999999999886
 31
0.0
  0
LINE
  5
2B8
  8
0
 10
40.999999999999538
 20
70.0
 30
0.0
 11
39.030344885461091
 21
71.137180910605139
 31
0.0
  0
LINE
  5
2B9
  8
0
 10
39.030344885461091
 20
71.137180910605139
 30
0.0
 11
39.030344885461091
 21
75.862819089394975
 31
0.0
  0
LINE
  5
2BA
  8
0
 10
39.030344885461091
 20
75.862819089394975
 30
0.0
 11
40.999999999999538
 21
76.999999999999886
 31
0.0
  0
ARC
  5
2BB
  8
0
 10
41.772758664124687
 20
73.124621124636747
 30
0.0
 40
3.8753788753631482
 50
44.955926763719027
 51
89.999971800691284
  0
ARC
  5
2BC
  8
0
 10
41.772758664124687
 20
73.87537887536331
 30
0.0
 40
3.8753788753631482
 50
270.0000281993087
 51
315.04407323628101
  0
ARC
  5
2BD
  8
0
 10
58.227241335874623
 20
73.87537887536331
 30
0.0
 40
3.8753788753631482
 50
224.95592676371911
 51
269.9999718006913
  0
ARC
  5
2BE
  8
0
 10
58.227241335874623
 20
73.124621124636747
 30
0.0
 40
3.8753788753631482
 50
90.00002819930873
 51
135.04407323628089
  0
LINE
  5
2BF
  8
0
 10
60.969655114538448
 20
75.862819089394975
 30
0.0
 11
58.999999999999773
 21
76.999999999999886
 31
0.0
  0
LINE
  5
2C0
  8
0
 10
60.969655114538448
 20
71.137180910605139
 30
0.0
 11
60.969655114538448
 21
75.862819089394975
 31
0.0
  0
LINE
  5
2C1
  8
0
 10
58.999999999999773
 20
70.0
 30
0.0
 11
60.969655114538448
 21
71.137180910605139
 31
0.0
  0
LINE
  5
2CA
  8
0
 10
56.0
 20
76.999999999999886
 30
0.0
 11
56.000000000000007
 21
91.5
 31
0.0
  0
LINE
  5
2CB
  8
3
 10
55.052999999999429
 20
76.999999999999886
 30
0.0
 11
55.052999999999429
 21
90.0
 31
0.0
  0
LINE
  5
2CC
  8
3
 10
44.947000000000131
 20
76.999999999999886
 30
0.0
 11
44.947000000000109
 21
90.0
 31
0.0
  0
LINE
  5
2CD
  8
0
 10
44.0
 20
76.999999999999886
 30
0.0
 11
44.0
 21
91.5
 31
0.0
  0
LINE
  5
3B1
  8
0
 10
56.000001907348633
 20
106.5
 30
0.0
 11
44.000001907348633
 21
106.5
 31
0.0
  0
LINE
  5
406
  8
3
 10
55.052999999999678
 20
89.999999999999986
 30
0.0
 11
56.000000000000028
 21
91.640252114768288
 31
0.0
  0
LINE
  5
407
  8
3
 10
44.947000000000308
 20
90.000000000000028
 30
0.0
 11
43.999999999999972
 21
91.640252114768344
 31
0.0
  0
ENDSEC
  0
EOF
