  0
SECTION
  2
HEADER
  9
$ACADVER
  1
AC1009
  9
$INSBASE
 10
0.0
 20
0.0
 30
0.0
  9
$EXTMIN
 10
0.0
 20
-2.960436562073669
 30
0.0
  9
$EXTMAX
 10
83.110504774897677
 20
179.0
 30
0.0
  9
$LIMMIN
 10
0.0
 20
0.0
  9
$LIMMAX
 10
187.5
 20
135.0
  9
$ORTHOMODE
 70
     1
  9
$REGENMODE
 70
     1
  9
$FILLMODE
 70
     1
  9
$QTEXTMODE
 70
     0
  9
$MIRRTEXT
 70
     0
  9
$DRAGMODE
 70
     2
  9
$LTSCALE
 40
5.0
  9
$OSMODE
 70
    37
  9
$ATTMODE
 70
     1
  9
$TEXTSIZE
 40
0.2
  9
$TRACEWID
 40
0.05
  9
$TEXTSTYLE
  7
STANDARD
  9
$CLAYER
  8
0
  9
$CELTYPE
  6
BYLAYER
  9
$CECOLOR
 62
   256
  9
$DIMSCALE
 40
1.0
  9
$DIMASZ
 40
3.0
  9
$DIMEXO
 40
2.0
  9
$DIMDLI
 40
0.38
  9
$DIMRND
 40
0.0
  9
$DIMDLE
 40
0.0
  9
$DIMEXE
 40
2.0
  9
$DIMTP
 40
0.0
  9
$DIMTM
 40
0.0
  9
$DIMTXT
 40
3.2000000000000002
  9
$DIMCEN
 40
0.0
  9
$DIMTSZ
 40
0.0
  9
$DIMTOL
 70
     0
  9
$DIMLIM
 70
     0
  9
$DIMTIH
 70
     0
  9
$DIMTOH
 70
     0
  9
$DIMSE1
 70
     0
  9
$DIMSE2
 70
     0
  9
$DIMTAD
 70
     1
  9
$DIMZIN
 70
     8
  9
$DIMBLK
  1

  9
$DIMASO
 70
     0
  9
$DIMSHO
 70
     0
  9
$DIMPOST
  1

  9
$DIMAPOST
  1

  9
$DIMALT
 70
     0
  9
$DIMALTD
 70
     2
  9
$DIMALTF
 40
25.399999999999999
  9
$DIMLFAC
 40
1.0
  9
$DIMTOFL
 70
     1
  9
$DIMTVP
 40
1.6000000000000001
  9
$DIMTIX
 70
     1
  9
$DIMSOXD
 70
     0
  9
$DIMSAH
 70
     0
  9
$DIMBLK1
  1

  9
$DIMBLK2
  1

  9
$DIMSTYLE
  2
STANDARD
  9
$DIMCLRD
 70
     0
  9
$DIMCLRE
 70
     0
  9
$DIMCLRT
 70
     0
  9
$DIMTFAC
 40
1.0
  9
$DIMGAP
 40
1.0
  9
$LUNITS
 70
     2
  9
$LUPREC
 70
     1
  9
$SKETCHINC
 40
0.1
  9
$FILLETRAD
 40
1.5
  9
$AUNITS
 70
     0
  9
$AUPREC
 70
     1
  9
$MENU
  1
E:\r13\win\SUPPORT\ACAD
  9
$ELEVATION
 40
0.0
  9
$PELEVATION
 40
0.0
  9
$THICKNESS
 40
0.0
  9
$LIMCHECK
 70
     0
  9
$BLIPMODE
 70
     0
  9
$CHAMFERA
 40
0.0
  9
$CHAMFERB
 40
0.0
  9
$SKPOLY
 70
     0
  9
$TDCREATE
 40
2449839.7694907412
  9
$TDUPDATE
 40
2458893.5732023031
  9
$TDINDWG
 40
0.0406993981
  9
$TDUSRTIMER
 40
0.0406993981
  9
$USRTIMER
 70
     1
  9
$ANGBASE
 50
0.0
  9
$ANGDIR
 70
     0
  9
$PDMODE
 70
     0
  9
$PDSIZE
 40
0.0
  9
$PLINEWID
 40
0.0
  9
$COORDS
 70
     1
  9
$SPLFRAME
 70
     0
  9
$SPLINETYPE
 70
     6
  9
$SPLINESEGS
 70
     8
  9
$ATTDIA
 70
     0
  9
$ATTREQ
 70
     1
  9
$HANDLING
 70
     1
  9
$HANDSEED
  5
4A7
  9
$SURFTAB1
 70
     6
  9
$SURFTAB2
 70
     6
  9
$SURFTYPE
 70
     6
  9
$SURFU
 70
     6
  9
$SURFV
 70
     6
  9
$UCSNAME
  2

  9
$UCSORG
 10
0.0
 20
0.0
 30
0.0
  9
$UCSXDIR
 10
1.0
 20
0.0
 30
0.0
  9
$UCSYDIR
 10
0.0
 20
1.0
 30
0.0
  9
$PUCSNAME
  2

  9
$PUCSORG
 10
0.0
 20
0.0
 30
0.0
  9
$PUCSXDIR
 10
1.0
 20
0.0
 30
0.0
  9
$PUCSYDIR
 10
0.0
 20
1.0
 30
0.0
  9
$USERI1
 70
     0
  9
$USERI2
 70
     1
  9
$USERI3
 70
     0
  9
$USERI4
 70
     0
  9
$USERI5
 70
     0
  9
$USERR1
 40
0.0
  9
$USERR2
 40
0.0
  9
$USERR3
 40
0.0
  9
$USERR4
 40
0.0
  9
$USERR5
 40
0.0
  9
$WORLDVIEW
 70
     1
  9
$SHADEDGE
 70
     3
  9
$SHADEDIF
 70
    70
  9
$TILEMODE
 70
     1
  9
$MAXACTVP
 70
    16
  9
$PLIMCHECK
 70
     0
  9
$PEXTMIN
 10
1.0000000000000000E+020
 20
1.0000000000000000E+020
 30
1.0000000000000000E+020
  9
$PEXTMAX
 10
-1.0000000000000000E+020
 20
-1.0000000000000000E+020
 30
-1.0000000000000000E+020
  9
$PLIMMIN
 10
0.0
 20
0.0
  9
$PLIMMAX
 10
12.0
 20
9.0
  9
$UNITMODE
 70
     0
  9
$VISRETAIN
 70
     0
  9
$PLINEGEN
 70
     0
  9
$PSLTSCALE
 70
     0
  0
ENDSEC
  0
SECTION
  2
TABLES
  0
TABLE
  2
VPORT
 70
     1
  0
VPORT
  2
*ACTIVE
 70
     0
 10
0.0
 20
0.0
 11
1.0
 21
1.0
 12
241.56441717791409
 22
100.0
 13
0.0
 23
0.0
 14
5.0
 24
5.0
 15
5.0
 25
5.0
 16
0.0
 26
0.0
 36
1.0
 17
0.0
 27
0.0
 37
0.0
 40
200.0
 41
2.415644171779141
 42
50.0
 43
0.0
 44
0.0
 50
0.0
 51
0.0
 71
     0
 72
   500
 73
     1
 74
     0
 75
     0
 76
     0
 77
     0
 78
     2
  0
ENDTAB
  0
TABLE
  2
LTYPE
 70
     3
  0
LTYPE
  2
CONTINUOUS
 70
     0
  3
Solid Line
 72
    65
 73
     0
 40
0.0
  0
LTYPE
  2
CENTER
 70
     0
  3
____ _ ____ _ ____ _ ____ _ ____ _ ____ _ ____
 72
    65
 73
     4
 40
2.0
 49
1.25
 49
-0.25
 49
0.25
 49
-0.25
  0
LTYPE
  2
PHANTOM2
 70
     0
  3
___ _ _ ___ _ _ ___ _ _ ___ _ _
 72
    65
 73
     6
 40
1.25
 49
0.625
 49
-0.125
 49
0.125
 49
-0.125
 49
0.125
 49
-0.125
  0
ENDTAB
  0
TABLE
  2
LAYER
 70
     3
  0
LAYER
  2
0
 70
     0
 62
     7
  6
CONTINUOUS
  0
LAYER
  2
1
 70
     0
 62
     1
  6
CENTER
  0
LAYER
  2
3
 70
     0
 62
     3
  6
CONTINUOUS
  0
ENDTAB
  0
TABLE
  2
STYLE
 70
     2
  0
STYLE
  2
STANDARD
 70
     0
 40
0.0
 41
1.0
 50
0.0
 71
     0
 42
0.2
  3
TXT
  4
BIGFONT
  0
STYLE
  2
STANDARD1
 70
     0
 40
0.0
 41
1.0
 50
0.0
 71
     0
 42
3.0
  3
txt
  4

  0
ENDTAB
  0
TABLE
  2
VIEW
 70
     1
  0
VIEW
  2
ALL
 70
     0
 40
179.5384664489153
 10
135.0
 20
89.769233224457665
 41
0.0
 11
0.0
 21
0.0
 31
1.0
 12
0.0
 22
0.0
 32
0.0
 42
0.0
 43
0.0
 44
0.0
 50
0.0
 71
     0
  0
ENDTAB
  0
TABLE
  2
UCS
 70
     0
  0
ENDTAB
  0
TABLE
  2
APPID
 70
     6
  0
APPID
  2
ACAD
 70
     0
  0
APPID
  2
ACAD_MLEADERVER
 70
     0
  0
APPID
  2
ACAD_EXEMPT_FROM_CAD_STANDARDS
 70
     0
  0
APPID
  2
ACAD_NAV_VCDISPLAY
 70
     0
  0
APPID
  2
ACAD_DSTYLE_DIMJAG
 70
     0
  0
APPID
  2
ACAD_DSTYLE_DIMTALN
 70
     0
  0
ENDTAB
  0
TABLE
  2
DIMSTYLE
 70
     1
  0
DIMSTYLE
  2
STANDARD
 70
     0
  3

  4

  5

  6

  7

 40
1.0
 41
0.18
 42
0.0625
 43
0.38
 44
0.18
 45
0.0
 46
0.0
 47
0.0
 48
0.0
140
0.18
141
0.09
142
0.0
143
25.399999999999999
144
1.0
145
0.0
146
1.0
147
0.09
 71
     0
 72
     0
 73
     1
 74
     1
 75
     0
 76
     0
 77
     0
 78
     0
170
     0
171
     2
172
     0
173
     0
174
     0
175
     0
176
     0
177
     0
178
     0
  0
ENDTAB
  0
ENDSEC
  0
SECTION
  2
BLOCKS
  0
BLOCK
  8
0
  2
$MODEL_SPACE
 70
     0
 10
0.0
 20
0.0
 30
0.0
  3
$MODEL_SPACE
  1

  0
ENDBLK
  5
158
  8
0
  0
BLOCK
 67
     1
  8
0
  2
$PAPER_SPACE
 70
     0
 10
0.0
 20
0.0
 30
0.0
  3
$PAPER_SPACE
  1

  0
ENDBLK
  5
156
 67
     1
  8
0
  0
ENDSEC
  0
SECTION
  2
ENTITIES
  0
ARC
  5
49
  8
0
 10
50.000001907348661
 20
162.0
 30
0.0
 40
12.5
 50
241.2602047083121
 51
253.7397952916875
  0
ARC
  5
4A
  8
0
 10
50.000001907348661
 20
162.0
 30
0.0
 40
12.5
 50
331.26020470831389
 51
343.73979529168668
  0
ARC
  5
4B
  8
0
 10
50.000001907348661
 20
162.0
 30
0.0
 40
12.5
 50
286.26020470831247
 51
298.73979529168702
  0
ARC
  5
4C
  8
0
 10
50.000001907348661
 20
162.0
 30
0.0
 40
12.5
 50
196.26020470831199
 51
208.73979529168551
  0
ARC
  5
4D
  8
0
 10
50.000001907348661
 20
162.0
 30
0.0
 40
12.5
 50
151.26020470831119
 51
163.73979529168801
  0
ARC
  5
4E
  8
0
 10
50.000001907348661
 20
162.0
 30
0.0
 40
12.5
 50
106.26020470831359
 51
118.7397952916884
  0
ARC
  5
4F
  8
0
 10
50.000001907348661
 20
162.0
 30
0.0
 40
12.5
 50
16.260204708312902
 51
28.739795291688811
  0
LINE
  5
50
  8
0
 10
56.010409547433959
 20
151.0398448916082
 30
0.0
 11
60.960157015740627
 21
155.9895923599147
 31
0.0
  0
LINE
  5
51
  8
0
 10
39.03984679895715
 20
168.0104076400855
 30
0.0
 11
43.989594267262909
 21
172.96015510839149
 31
0.0
  0
LINE
  5
52
  8
0
 10
46.500001907348647
 20
150.0
 30
0.0
 11
53.500001907348647
 21
150.0
 31
0.0
  0
LINE
  5
53
  8
0
 10
46.500001907348206
 20
174.0
 30
0.0
 11
53.500001907348668
 21
174.0
 31
0.0
  0
LINE
  5
54
  8
0
 10
39.039846798956702
 20
155.9895923599147
 30
0.0
 11
43.989594267262909
 21
151.03984489160851
 31
0.0
  0
LINE
  5
55
  8
0
 10
56.010409547433973
 20
172.96015510839169
 30
0.0
 11
60.960157015740172
 21
168.0104076400857
 31
0.0
  0
LINE
  5
56
  8
0
 10
38.000001907348668
 20
165.5
 30
0.0
 11
38.000001907348668
 21
158.5
 31
0.0
  0
LINE
  5
57
  8
0
 10
62.000001907348647
 20
165.5000000000002
 30
0.0
 11
62.000001907348647
 21
158.5
 31
0.0
  0
ARC
  5
58
  8
0
 10
50.000001907348661
 20
162.0
 30
0.0
 40
12.5
 50
61.260204708311207
 51
73.739795291686306
  0
CIRCLE
  5
59
  8
0
 10
50.000001907348661
 20
162.0
 30
0.0
 40
11.0
  0
CIRCLE
  5
5A
  8
0
 10
50.000001907348661
 20
162.0
 30
0.0
 40
6.0
  0
LINE
  5
66
  8
0
 10
62.00000190734864
 20
108.57735026918949
 30
0.0
 11
62.00000190734864
 21
117.42264973081041
 31
0.0
  0
LINE
  5
67
  8
0
 10
53.500001907348633
 20
108.8660254037845
 30
0.0
 11
53.500001907348633
 21
117.1339745962154
 31
0.0
  0
LINE
  5
68
  8
0
 10
56.010409547433937
 20
108.8660254037845
 30
0.0
 11
56.010409547433937
 21
117.1339745962154
 31
0.0
  0
LINE
  5
69
  8
0
 10
61.000001907348633
 20
108.0
 30
0.0
 11
62.00000190734864
 21
108.57735026918949
 31
0.0
  0
LINE
  5
6A
  8
0
 10
60.960157015740613
 20
108.8660254037845
 30
0.0
 11
60.960157015740613
 21
117.1339745962154
 31
0.0
  0
LINE
  5
6B
  8
0
 10
62.00000190734864
 20
108.8660254037845
 30
0.0
 11
60.960157015740613
 21
108.8660254037845
 31
0.0
  0
ARC
  5
6C
  8
0
 10
58.485283281587279
 20
119.3304990328338
 30
0.0
 40
10.753148763644679
 50
256.69389686800571
 51
283.30610313199418
  0
LINE
  5
6D
  8
0
 10
46.500001907348633
 20
108.8660254037845
 30
0.0
 11
46.500001907348633
 21
117.1339745962154
 31
0.0
  0
ARC
  5
6E
  8
0
 10
50.00000190734864
 20
129.9393102292029
 30
0.0
 40
21.361959960013269
 50
260.56999209210221
 51
279.43000790789819
  0
LINE
  5
6F
  8
0
 10
56.010409547433937
 20
108.8660254037845
 30
0.0
 11
53.500001907348633
 21
108.8660254037845
 31
0.0
  0
LINE
  5
70
  8
0
 10
46.500001907348633
 20
108.8660254037845
 30
0.0
 11
43.989594267263328
 21
108.8660254037845
 31
0.0
  0
ARC
  5
72
  8
0
 10
41.514720533110449
 20
119.3304990328338
 30
0.0
 40
10.753148763644679
 50
256.69389686800571
 51
283.30610313199418
  0
LINE
  5
73
  8
0
 10
38.00000190734864
 20
108.8660254037845
 30
0.0
 11
39.039846798957122
 21
108.8660254037845
 31
0.0
  0
LINE
  5
74
  8
0
 10
39.00000190734864
 20
108.0
 30
0.0
 11
38.00000190734864
 21
108.57735026918949
 31
0.0
  0
LINE
  5
75
  8
0
 10
39.039846798957122
 20
108.8660254037845
 30
0.0
 11
39.039846798957122
 21
117.1339745962154
 31
0.0
  0
LINE
  5
76
  8
0
 10
38.00000190734864
 20
108.57735026918949
 30
0.0
 11
38.00000190734864
 21
117.42264973081041
 31
0.0
  0
LINE
  5
77
  8
0
 10
43.989594267263328
 20
108.8660254037845
 30
0.0
 11
43.989594267263328
 21
117.1339745962154
 31
0.0
  0
LINE
  5
79
  8
0
 10
39.039846798957122
 20
117.1339745962154
 30
0.0
 11
38.00000190734864
 21
117.1339745962154
 31
0.0
  0
LINE
  5
7A
  8
0
 10
39.00000190734864
 20
118.0
 30
0.0
 11
38.00000190734864
 21
117.42264973081041
 31
0.0
  0
ARC
  5
7C
  8
0
 10
41.514720533110449
 20
106.6695009671657
 30
0.0
 40
10.753148763644679
 50
76.693896868005751
 51
103.30610313199421
  0
LINE
  5
7D
  8
0
 10
43.989594267263328
 20
117.1339745962154
 30
0.0
 11
46.500001907348633
 21
117.1339745962154
 31
0.0
  0
LINE
  5
7F
  8
0
 10
56.010409547433937
 20
117.1339745962154
 30
0.0
 11
53.500001907348633
 21
117.1339745962154
 31
0.0
  0
ARC
  5
80
  8
0
 10
50.00000190734864
 20
96.060689770797126
 30
0.0
 40
21.361959960013269
 50
80.569992092101785
 51
99.430007907897803
  0
ARC
  5
81
  8
0
 10
58.485283281587279
 20
106.6695009671657
 30
0.0
 40
10.753148763644679
 50
76.693896868005751
 51
103.30610313199421
  0
LINE
  5
82
  8
0
 10
62.00000190734864
 20
117.1339745962154
 30
0.0
 11
60.960157015740613
 21
117.1339745962154
 31
0.0
  0
LINE
  5
83
  8
0
 10
61.000001907348633
 20
118.0
 30
0.0
 11
62.00000190734864
 21
117.42264973081041
 31
0.0
  0
LINE
  5
84
  8
0
 10
39.00000190734864
 20
118.0
 30
0.0
 11
61.000001907348611
 21
118.0
 31
0.0
  0
LINE
  5
85
  8
0
 10
43.999999999999993
 20
52.0
 30
0.0
 11
44.000000000000007
 21
70.000000000000014
 31
0.0
  0
LINE
  5
86
  8
3
 10
44.947000000000557
 20
51.052999999999422
 30
0.0
 11
44.947000669890173
 21
70.000000000000014
 31
0.0
  0
LINE
  5
87
  8
0
 10
43.999999999999993
 20
52.0
 30
0.0
 11
45.999999999999993
 21
50.0
 31
0.0
  0
LINE
  5
8C
  8
0
 10
55.999999999999993
 20
52.0
 30
0.0
 11
53.999999999999993
 21
50.0
 31
0.0
  0
LINE
  5
8D
  8
3
 10
55.052999999999869
 20
51.052999999999422
 30
0.0
 11
55.053000669889471
 21
70.000000000000014
 31
0.0
  0
LINE
  5
8E
  8
0
 10
55.999999999999993
 20
52.0
 30
0.0
 11
56.000000000000007
 21
70.000000000000014
 31
0.0
  0
LINE
  5
8F
  8
0
 10
55.50000190734864
 20
122.0
 30
0.0
 11
56.000001907348633
 21
121.5
 31
0.0
  0
LINE
  5
90
  8
0
 10
44.50000190734864
 20
122.0
 30
0.0
 11
44.000001907348633
 21
121.5
 31
0.0
  0
LINE
  5
91
  8
0
 10
55.50000190734864
 20
122.0
 30
0.0
 11
44.50000190734864
 21
122.0
 31
0.0
  0
LINE
  5
92
  8
0
 10
56.000001907348633
 20
118.5
 30
0.0
 11
56.000001907348633
 21
121.5
 31
0.0
  0
LINE
  5
93
  8
0
 10
44.000001907348633
 20
105.0
 30
0.0
 11
56.000001907348633
 21
105.0
 31
0.0
  0
LINE
  5
94
  8
0
 10
43.999999999999993
 20
52.0
 30
0.0
 11
55.999999999999993
 21
52.0
 31
0.0
  0
LINE
  5
95
  8
0
 10
53.999999999999993
 20
50.0
 30
0.0
 11
45.999999999999993
 21
50.0
 31
0.0
  0
LINE
  5
96
  8
0
 10
44.000001907348633
 20
118.5
 30
0.0
 11
44.000001907348633
 21
121.5
 31
0.0
  0
LINE
  5
97
  8
1
 10
50.00000190734864
 20
145.0
 30
0.0
 11
50.000001907348683
 21
179.0
 31
0.0
  0
LINE
  5
98
  8
1
 10
67.000001907348647
 20
162.0
 30
0.0
 11
33.000001907348668
 21
162.0
 31
0.0
  0
LINE
  5
99
  8
1
 10
50.00000190734864
 20
127.0
 30
0.0
 11
50.000001907348619
 21
45.0
 31
0.0
  0
ARC
  5
178
  8
0
 10
56.50000190734864
 20
118.5
 30
0.0
 40
0.5
 50
180.0
 51
270.0
  0
ARC
  5
179
  8
0
 10
43.500001907348633
 20
118.5
 30
0.0
 40
0.5
 50
270.0
 51
0.0
  0
LINE
  5
189
  8
0
 10
39.00000190734864
 20
108.0
 30
0.0
 11
61.000001907348633
 21
108.0
 31
0.0
  0
ARC
  5
18A
  8
0
 10
57.5
 20
106.5
 30
0.0
 40
1.5
 50
90.0
 51
180.0
  0
ARC
  5
18B
  8
0
 10
42.5
 20
106.5
 30
0.0
 40
1.5
 50
0.0
 51
90.0
  0
TEXT
  5
246
  8
0
 62
     3
 10
0.0
 20
0.0
 30
0.0
 40
10.0
  1
BJ734-12002
  7
STANDARD1
  0
ARC
  5
2A4
  8
0
 10
49.999999999999012
 20
83.70064338587612
 30
0.0
 40
13.708534666400389
 50
246.4153745316755
 51
293.58462546833772
  0
ARC
  5
2A5
  8
0
 10
49.999999999999012
 20
63.299356614123738
 30
0.0
 40
13.708534666400389
 50
66.415374531662238
 51
113.5846254683244
  0
LINE
  5
2A6
  8
0
 10
44.515172442788447
 20
75.862819089394989
 30
0.0
 11
44.515172442730233
 21
71.137180910605153
 31
0.0
  0
LINE
  5
2A7
  8
0
 10
55.484827557211169
 20
75.862819089394989
 30
0.0
 11
55.484827557211169
 21
71.137180910604869
 31
0.0
  0
LINE
  5
2A8
  8
0
 10
58.999999999999922
 20
70.000000000000014
 30
0.0
 11
40.999999999999922
 21
70.000000000000014
 31
0.0
  0
LINE
  5
2A9
  8
0
 10
40.999999999999922
 20
76.999999999999901
 30
0.0
 11
58.999999999999922
 21
76.999999999999901
 31
0.0
  0
LINE
  5
2AA
  8
0
 10
40.999999999999687
 20
70.000000000000014
 30
0.0
 11
39.03034488546124
 21
71.137180910605153
 31
0.0
  0
LINE
  5
2AB
  8
0
 10
39.03034488546124
 20
71.137180910605153
 30
0.0
 11
39.03034488546124
 21
75.862819089394989
 31
0.0
  0
LINE
  5
2AC
  8
0
 10
39.03034488546124
 20
75.862819089394989
 30
0.0
 11
40.999999999999687
 21
76.999999999999901
 31
0.0
  0
ARC
  5
2AD
  8
0
 10
41.772758664124837
 20
73.124621124636761
 30
0.0
 40
3.8753788753631482
 50
44.955926763719027
 51
89.999971800691284
  0
ARC
  5
2AE
  8
0
 10
41.772758664124837
 20
73.875378875363324
 30
0.0
 40
3.8753788753631482
 50
270.0000281993087
 51
315.04407323628101
  0
ARC
  5
2AF
  8
0
 10
58.227241335874773
 20
73.875378875363324
 30
0.0
 40
3.8753788753631482
 50
224.95592676371911
 51
269.9999718006913
  0
ARC
  5
2B0
  8
0
 10
58.227241335874773
 20
73.124621124636761
 30
0.0
 40
3.8753788753631482
 50
90.00002819930873
 51
135.04407323628089
  0
LINE
  5
2B1
  8
0
 10
60.969655114538597
 20
75.862819089394989
 30
0.0
 11
58.999999999999922
 21
76.999999999999901
 31
0.0
  0
LINE
  5
2B2
  8
0
 10
60.969655114538597
 20
71.137180910605153
 30
0.0
 11
60.969655114538597
 21
75.862819089394989
 31
0.0
  0
LINE
  5
2B3
  8
0
 10
58.999999999999922
 20
70.000000000000014
 30
0.0
 11
60.969655114538597
 21
71.137180910605153
 31
0.0
  0
LINE
  5
2B4
  8
0
 10
56.000000000000007
 20
76.999999999999901
 30
0.0
 11
56.000000000000007
 21
106.5
 31
0.0
  0
LINE
  5
2B5
  8
3
 10
55.05300091738129
 20
76.999999999999901
 30
0.0
 11
55.053001907348524
 21
105.0
 31
0.0
  0
LINE
  5
2B6
  8
3
 10
44.947000917381992
 20
76.999999999999901
 30
0.0
 11
44.947001907349211
 21
105.0
 31
0.0
  0
LINE
  5
2B7
  8
0
 10
44.000000000000007
 20
76.999999999999901
 30
0.0
 11
44.000000000000007
 21
106.5
 31
0.0
  0
LINE
  5
3BD
  8
0
 10
44.000001907348633
 20
121.5
 30
0.0
 11
56.000001907348633
 21
121.5
 31
0.0
  0
LINE
  5
418
  8
3
 10
55.053001907348317
 20
105.0
 30
0.0
 11
56.000001907348668
 21
106.6402521147683
 31
0.0
  0
LINE
  5
419
  8
3
 10
44.947001907348948
 20
105.0
 30
0.0
 11
44.000001907348611
 21
106.6402521147683
 31
0.0
  0
ENDSEC
  0
EOF
