  0
SECTION
  2
HEADER
  9
$ACADVER
  1
AC1009
  9
$INSBASE
 10
0.0
 20
0.0
 30
0.0
  9
$EXTMIN
 10
0.0
 20
-2.960436562073669
 30
0.0
  9
$EXTMAX
 10
83.110504774897677
 20
166.9999999999998
 30
0.0
  9
$LIMMIN
 10
0.0
 20
0.0
  9
$LIMMAX
 10
187.5
 20
135.0
  9
$ORTHOMODE
 70
     1
  9
$REGENMODE
 70
     1
  9
$FILLMODE
 70
     1
  9
$QTEXTMODE
 70
     0
  9
$MIRRTEXT
 70
     0
  9
$DRAGMODE
 70
     2
  9
$LTSCALE
 40
5.0
  9
$OSMODE
 70
    37
  9
$ATTMODE
 70
     1
  9
$TEXTSIZE
 40
0.2
  9
$TRACEWID
 40
0.05
  9
$TEXTSTYLE
  7
STANDARD
  9
$CLAYER
  8
0
  9
$CELTYPE
  6
BYLAYER
  9
$CECOLOR
 62
   256
  9
$DIMSCALE
 40
1.0
  9
$DIMASZ
 40
3.0
  9
$DIMEXO
 40
2.0
  9
$DIMDLI
 40
0.38
  9
$DIMRND
 40
0.0
  9
$DIMDLE
 40
0.0
  9
$DIMEXE
 40
2.0
  9
$DIMTP
 40
0.0
  9
$DIMTM
 40
0.0
  9
$DIMTXT
 40
3.2000000000000002
  9
$DIMCEN
 40
0.0
  9
$DIMTSZ
 40
0.0
  9
$DIMTOL
 70
     0
  9
$DIMLIM
 70
     0
  9
$DIMTIH
 70
     0
  9
$DIMTOH
 70
     0
  9
$DIMSE1
 70
     0
  9
$DIMSE2
 70
     0
  9
$DIMTAD
 70
     1
  9
$DIMZIN
 70
     8
  9
$DIMBLK
  1

  9
$DIMASO
 70
     0
  9
$DIMSHO
 70
     0
  9
$DIMPOST
  1

  9
$DIMAPOST
  1

  9
$DIMALT
 70
     0
  9
$DIMALTD
 70
     2
  9
$DIMALTF
 40
25.399999999999999
  9
$DIMLFAC
 40
1.0
  9
$DIMTOFL
 70
     1
  9
$DIMTVP
 40
1.6000000000000001
  9
$DIMTIX
 70
     1
  9
$DIMSOXD
 70
     0
  9
$DIMSAH
 70
     0
  9
$DIMBLK1
  1

  9
$DIMBLK2
  1

  9
$DIMSTYLE
  2
STANDARD
  9
$DIMCLRD
 70
     0
  9
$DIMCLRE
 70
     0
  9
$DIMCLRT
 70
     0
  9
$DIMTFAC
 40
1.0
  9
$DIMGAP
 40
1.0
  9
$LUNITS
 70
     2
  9
$LUPREC
 70
     1
  9
$SKETCHINC
 40
0.1
  9
$FILLETRAD
 40
0.5
  9
$AUNITS
 70
     0
  9
$AUPREC
 70
     1
  9
$MENU
  1
E:\r13\win\SUPPORT\ACAD
  9
$ELEVATION
 40
0.0
  9
$PELEVATION
 40
0.0
  9
$THICKNESS
 40
0.0
  9
$LIMCHECK
 70
     0
  9
$BLIPMODE
 70
     0
  9
$CHAMFERA
 40
0.0
  9
$CHAMFERB
 40
0.0
  9
$SKPOLY
 70
     0
  9
$TDCREATE
 40
2449839.7695254632
  9
$TDUPDATE
 40
2458893.5732202199
  9
$TDINDWG
 40
0.0468591898
  9
$TDUSRTIMER
 40
0.0468591898
  9
$USRTIMER
 70
     1
  9
$ANGBASE
 50
0.0
  9
$ANGDIR
 70
     0
  9
$PDMODE
 70
     0
  9
$PDSIZE
 40
0.0
  9
$PLINEWID
 40
0.0
  9
$COORDS
 70
     1
  9
$SPLFRAME
 70
     0
  9
$SPLINETYPE
 70
     6
  9
$SPLINESEGS
 70
     8
  9
$ATTDIA
 70
     0
  9
$ATTREQ
 70
     1
  9
$HANDLING
 70
     1
  9
$HANDSEED
  5
67A
  9
$SURFTAB1
 70
     6
  9
$SURFTAB2
 70
     6
  9
$SURFTYPE
 70
     6
  9
$SURFU
 70
     6
  9
$SURFV
 70
     6
  9
$UCSNAME
  2

  9
$UCSORG
 10
0.0
 20
0.0
 30
0.0
  9
$UCSXDIR
 10
1.0
 20
0.0
 30
0.0
  9
$UCSYDIR
 10
0.0
 20
1.0
 30
0.0
  9
$PUCSNAME
  2

  9
$PUCSORG
 10
0.0
 20
0.0
 30
0.0
  9
$PUCSXDIR
 10
1.0
 20
0.0
 30
0.0
  9
$PUCSYDIR
 10
0.0
 20
1.0
 30
0.0
  9
$USERI1
 70
     0
  9
$USERI2
 70
     1
  9
$USERI3
 70
     0
  9
$USERI4
 70
     0
  9
$USERI5
 70
     0
  9
$USERR1
 40
0.0
  9
$USERR2
 40
0.0
  9
$USERR3
 40
0.0
  9
$USERR4
 40
0.0
  9
$USERR5
 40
0.0
  9
$WORLDVIEW
 70
     1
  9
$SHADEDGE
 70
     3
  9
$SHADEDIF
 70
    70
  9
$TILEMODE
 70
     1
  9
$MAXACTVP
 70
    16
  9
$PLIMCHECK
 70
     0
  9
$PEXTMIN
 10
1.0000000000000000E+020
 20
1.0000000000000000E+020
 30
1.0000000000000000E+020
  9
$PEXTMAX
 10
-1.0000000000000000E+020
 20
-1.0000000000000000E+020
 30
-1.0000000000000000E+020
  9
$PLIMMIN
 10
0.0
 20
0.0
  9
$PLIMMAX
 10
12.0
 20
9.0
  9
$UNITMODE
 70
     0
  9
$VISRETAIN
 70
     0
  9
$PLINEGEN
 70
     0
  9
$PSLTSCALE
 70
     0
  0
ENDSEC
  0
SECTION
  2
TABLES
  0
TABLE
  2
VPORT
 70
     1
  0
VPORT
  2
*ACTIVE
 70
     0
 10
0.0
 20
0.0
 11
1.0
 21
1.0
 12
301.9555214723926
 22
125.0
 13
0.0
 23
0.0
 14
5.0
 24
5.0
 15
5.0
 25
5.0
 16
0.0
 26
0.0
 36
1.0
 17
0.0
 27
0.0
 37
0.0
 40
250.0
 41
2.415644171779141
 42
50.0
 43
0.0
 44
0.0
 50
0.0
 51
0.0
 71
     0
 72
   500
 73
     1
 74
     0
 75
     0
 76
     0
 77
     0
 78
     2
  0
ENDTAB
  0
TABLE
  2
LTYPE
 70
     3
  0
LTYPE
  2
CONTINUOUS
 70
     0
  3
Solid Line
 72
    65
 73
     0
 40
0.0
  0
LTYPE
  2
CENTER
 70
     0
  3
____ _ ____ _ ____ _ ____ _ ____ _ ____ _ ____
 72
    65
 73
     4
 40
2.0
 49
1.25
 49
-0.25
 49
0.25
 49
-0.25
  0
LTYPE
  2
PHANTOM2
 70
     0
  3
___ _ _ ___ _ _ ___ _ _ ___ _ _
 72
    65
 73
     6
 40
1.25
 49
0.625
 49
-0.125
 49
0.125
 49
-0.125
 49
0.125
 49
-0.125
  0
ENDTAB
  0
TABLE
  2
LAYER
 70
     3
  0
LAYER
  2
0
 70
     0
 62
     7
  6
CONTINUOUS
  0
LAYER
  2
1
 70
     0
 62
     1
  6
CENTER
  0
LAYER
  2
3
 70
     0
 62
     3
  6
CONTINUOUS
  0
ENDTAB
  0
TABLE
  2
STYLE
 70
     2
  0
STYLE
  2
STANDARD
 70
     0
 40
0.0
 41
1.0
 50
0.0
 71
     0
 42
0.2
  3
TXT
  4
BIGFONT
  0
STYLE
  2
STANDARD1
 70
     0
 40
0.0
 41
1.0
 50
0.0
 71
     0
 42
3.0
  3
txt
  4

  0
ENDTAB
  0
TABLE
  2
VIEW
 70
     1
  0
VIEW
  2
ALL
 70
     0
 40
179.5384664489153
 10
135.0
 20
89.769233224457665
 41
0.0
 11
0.0
 21
0.0
 31
1.0
 12
0.0
 22
0.0
 32
0.0
 42
0.0
 43
0.0
 44
0.0
 50
0.0
 71
     0
  0
ENDTAB
  0
TABLE
  2
UCS
 70
     0
  0
ENDTAB
  0
TABLE
  2
APPID
 70
    18
  0
APPID
  2
ACAD
 70
     0
  0
APPID
  2
ACAD_MLEADERVER
 70
     0
  0
APPID
  2
MCAD_NO_VIS
 70
     0
  0
APPID
  2
ACAD_TEMP_GRAPHIC
 70
     0
  0
APPID
  2
AD_DRAW
 70
     0
  0
APPID
  2
ACATTRIBSERVICES
 70
     0
  0
APPID
  2
DESIGNERASSEMBLIES
 70
     0
  0
APPID
  2
ACADM_DIM_EDIT
 70
     0
  0
APPID
  2
AMDT_DM_ADJ
 70
     0
  0
APPID
  2
ACAD_EXEMPT_FROM_CAD_STANDARDS
 70
     0
  0
APPID
  2
ACAD_DSTYLE_DIMARC_LENGTH_
 70
     0
  0
APPID
  2
ACAD_DSTYLE_DIM_LINETYPE
 70
     0
  0
APPID
  2
ACAD_DSTYLE_DIM_EXT1_LINETYPE
 70
     0
  0
APPID
  2
ACAD_DSTYLE_DIM_EXT2_LINETYPE
 70
     0
  0
APPID
  2
ACAD_DSTYLE_DIMJAG
 70
     0
  0
APPID
  2
ACAD_DSTYLE_DIMBREAK
 70
     0
  0
APPID
  2
ACAD_DSTYLE_DIMTALN
 70
     0
  0
APPID
  2
ACAD_NAV_VCDISPLAY
 70
     0
  0
ENDTAB
  0
TABLE
  2
DIMSTYLE
 70
     1
  0
DIMSTYLE
  2
STANDARD
 70
     0
  3

  4

  5

  6

  7

 40
1.0
 41
0.18
 42
0.0625
 43
0.38
 44
0.18
 45
0.0
 46
0.0
 47
0.0
 48
0.0
140
0.18
141
0.09
142
0.0
143
25.399999999999999
144
1.0
145
0.0
146
1.0
147
0.09
 71
     0
 72
     0
 73
     1
 74
     1
 75
     0
 76
     0
 77
     0
 78
     0
170
     0
171
     2
172
     0
173
     0
174
     0
175
     0
176
     0
177
     0
178
     0
  0
ENDTAB
  0
ENDSEC
  0
SECTION
  2
BLOCKS
  0
BLOCK
  8
0
  2
$MODEL_SPACE
 70
     0
 10
0.0
 20
0.0
 30
0.0
  3
$MODEL_SPACE
  1

  0
ENDBLK
  5
155
  8
0
  0
BLOCK
 67
     1
  8
0
  2
$PAPER_SPACE
 70
     0
 10
0.0
 20
0.0
 30
0.0
  3
$PAPER_SPACE
  1

  0
ENDBLK
  5
153
 67
     1
  8
0
  0
ENDSEC
  0
SECTION
  2
ENTITIES
  0
ARC
  5
37B
  8
0
 10
50.000000000000028
 20
146.99999999999989
 30
0.0
 40
16.0
 50
200.3641348063195
 51
204.6358651936799
  0
ARC
  5
37C
  8
0
 10
50.000000000000028
 20
146.99999999999989
 30
0.0
 40
16.0
 50
155.3641348063199
 51
159.63586519368019
  0
LINE
  5
37D
  8
0
 10
35.000000000000149
 20
152.5677643628303
 30
0.0
 11
35.000000000000149
 21
141.4322356371695
 31
0.0
  0
LINE
  5
37E
  8
0
 10
44.432235637169562
 20
132.00000000000011
 30
0.0
 11
55.567764362830331
 21
132.00000000000011
 31
0.0
  0
ARC
  5
37F
  8
0
 10
50.000000000000028
 20
146.99999999999989
 30
0.0
 40
16.0
 50
245.3641348063195
 51
249.6358651936809
  0
ARC
  5
380
  8
0
 10
50.000000000000028
 20
146.99999999999989
 30
0.0
 40
16.0
 50
290.3641348063191
 51
294.6358651936805
  0
LINE
  5
381
  8
0
 10
64.999999999999801
 20
141.4322356371695
 30
0.0
 11
64.999999999999844
 21
152.5677643628303
 31
0.0
  0
ARC
  5
382
  8
0
 10
50.000000000000028
 20
146.99999999999989
 30
0.0
 40
16.0
 50
335.3641348063199
 51
339.63586519368027
  0
ARC
  5
383
  8
0
 10
50.000000000000028
 20
146.99999999999989
 30
0.0
 40
16.0
 50
20.364134806319719
 51
24.635865193679869
  0
LINE
  5
384
  8
0
 10
55.567764362830452
 20
161.99999999999969
 30
0.0
 11
44.432235637169612
 21
161.99999999999969
 31
0.0
  0
ARC
  5
385
  8
0
 10
50.000000000000028
 20
146.99999999999989
 30
0.0
 40
16.0
 50
65.364134806319271
 51
69.635865193680914
  0
ARC
  5
386
  8
0
 10
50.000000000000028
 20
146.99999999999989
 30
0.0
 40
16.0
 50
110.364134806319
 51
114.6358651936805
  0
LINE
  5
387
  8
0
 10
43.330402219208139
 20
132.4563943451956
 30
0.0
 11
35.456394345195669
 21
140.33040221920811
 31
0.0
  0
LINE
  5
388
  8
0
 10
64.543605654804281
 20
140.33040221920811
 30
0.0
 11
56.669597780791811
 21
132.4563943451956
 31
0.0
  0
LINE
  5
389
  8
0
 10
56.669597780791868
 20
161.5436056548042
 30
0.0
 11
64.543605654804338
 21
153.6695977807918
 31
0.0
  0
LINE
  5
38A
  8
0
 10
35.456394345195669
 20
153.6695977807918
 30
0.0
 11
43.330402219208203
 21
161.5436056548042
 31
0.0
  0
CIRCLE
  5
38B
  8
0
 10
50.000000000000028
 20
146.99999999999989
 30
0.0
 40
14.0
  0
CIRCLE
  5
38C
  8
0
 10
50.000000000000028
 20
146.99999999999989
 30
0.0
 40
8.0
  0
LINE
  5
38D
  8
1
 10
50.000000000000028
 20
166.9999999999998
 30
0.0
 11
49.999999999999979
 21
127.0000000000001
 31
0.0
  0
LINE
  5
38E
  8
1
 10
30.000000000000149
 20
146.99999999999989
 30
0.0
 11
69.999999999999801
 21
146.99999999999989
 31
0.0
  0
ARC
  5
3AD
  8
0
 10
49.999976330837221
 20
83.321183649355007
 30
0.0
 40
18.321183649125121
 50
247.78080708366321
 51
292.2193039812081
  0
ARC
  5
3AE
  8
0
 10
49.999976330837221
 20
56.678816350574706
 30
0.0
 40
18.321183649125121
 50
67.780696018791929
 51
112.21919291633679
  0
LINE
  5
3AF
  8
0
 10
43.071804000153918
 20
73.639528095626574
 30
0.0
 11
43.071804000153918
 21
66.360471904303026
 31
0.0
  0
LINE
  5
3B0
  8
0
 10
56.928181538986053
 20
73.639528095626574
 30
0.0
 11
56.928181538985598
 21
66.360471904303026
 31
0.0
  0
LINE
  5
3B1
  8
0
 10
61.50000000000005
 20
65.0
 30
0.0
 11
38.500000000000171
 21
65.0
 31
0.0
  0
LINE
  5
3B2
  8
0
 10
61.50000000000005
 20
74.999999999929855
 30
0.0
 11
38.500000000000171
 21
74.999999999929855
 31
0.0
  0
LINE
  5
3B3
  8
0
 10
38.500000000000057
 20
65.0
 30
0.0
 11
36.143608000308923
 21
66.360471904303026
 31
0.0
  0
LINE
  5
3B4
  8
0
 10
36.143608000308923
 20
66.360471904303026
 30
0.0
 11
36.143608000308923
 21
73.639528095626574
 31
0.0
  0
LINE
  5
3B5
  8
0
 10
36.143608000308923
 20
73.639528095626574
 30
0.0
 11
38.500000000000057
 21
74.999999999929855
 31
0.0
  0
ARC
  5
3B7
  8
0
 10
39.607713230661432
 20
69.909520437087266
 30
0.0
 40
5.0904795628426038
 50
47.116752286378812
 51
89.999984819746615
  0
ARC
  5
3B8
  8
0
 10
39.607713230661432
 20
70.090479562842333
 30
0.0
 40
5.0904795628426038
 50
270.00001518025329
 51
312.88324771362119
  0
ARC
  5
3B9
  8
0
 10
60.392286769338803
 20
70.090479562842319
 30
0.0
 40
5.0904795628426038
 50
227.11675228637881
 51
269.9999848197466
  0
ARC
  5
3BA
  8
0
 10
60.392286769338803
 20
69.909520437087252
 30
0.0
 40
5.0904795628426038
 50
90.000015180253371
 51
132.8832477136209
  0
LINE
  5
3BC
  8
0
 10
63.856391999691311
 20
73.639528095626574
 30
0.0
 11
61.50000000000005
 21
74.999999999929855
 31
0.0
  0
LINE
  5
3BD
  8
0
 10
63.856391999691311
 20
66.360471904303026
 30
0.0
 11
63.856391999691311
 21
73.639528095626574
 31
0.0
  0
LINE
  5
3BE
  8
0
 10
61.50000000000005
 20
65.0
 30
0.0
 11
63.856391999691311
 21
66.360471904303026
 31
0.0
  0
LINE
  5
3D0
  8
0
 10
42.000000000000149
 20
93.499999999999986
 30
0.0
 11
42.000000000000149
 21
96.5
 31
0.0
  0
LINE
  5
3D1
  8
0
 10
64.0
 20
92.999999999999943
 30
0.0
 11
65.0
 21
92.422649730810335
 31
0.0
  0
LINE
  5
3D2
  8
0
 10
36.0
 20
92.999999999999943
 30
0.0
 11
35.0
 21
92.422649730810335
 31
0.0
  0
LINE
  5
3D3
  8
0
 10
64.999999999999943
 20
92.422649730810292
 30
0.0
 11
65.0
 21
83.577350269189537
 31
0.0
  0
LINE
  5
3D4
  8
0
 10
64.000000000000284
 20
92.999999999999773
 30
0.0
 11
36.000000000000277
 21
93.000000000000114
 31
0.0
  0
LINE
  5
3D5
  8
0
 10
36.0
 20
83.0
 30
0.0
 11
35.0
 21
83.577350269189594
 31
0.0
  0
LINE
  5
3D6
  8
0
 10
35.0
 20
83.577350269189637
 30
0.0
 11
35.0
 21
92.422649730810292
 31
0.0
  0
LINE
  5
3D7
  8
0
 10
64.0
 20
83.0
 30
0.0
 11
65.0
 21
83.577350269189594
 31
0.0
  0
LINE
  5
3D8
  8
0
 10
64.0
 20
83.0
 30
0.0
 11
36.0
 21
83.0
 31
0.0
  0
LINE
  5
3D9
  8
1
 10
50.0
 20
102.0
 30
0.0
 11
50.0
 21
45.0
 31
0.0
  0
LINE
  5
3DA
  8
0
 10
56.0
 20
50.0
 30
0.0
 11
44.0
 21
50.0
 31
0.0
  0
LINE
  5
3DB
  8
0
 10
42.0
 20
52.0
 30
0.0
 11
42.00000000000005
 21
64.999999999999943
 31
0.0
  0
LINE
  5
3DC
  8
0
 10
58.0
 20
52.0
 30
0.0
 11
56.0
 21
50.0
 31
0.0
  0
LINE
  5
3DD
  8
0
 10
44.0
 20
50.0
 30
0.0
 11
42.0
 21
52.0
 31
0.0
  0
LINE
  5
3DE
  8
0
 10
42.0
 20
52.0
 30
0.0
 11
58.0
 21
52.0
 31
0.0
  0
LINE
  5
3DF
  8
0
 10
42.0
 20
79.999999999999943
 30
0.0
 11
58.000000000000057
 21
79.999999999999943
 31
0.0
  0
LINE
  5
3E0
  8
3
 10
43.082499999999982
 20
80.0
 30
0.0
 11
43.082499999999982
 21
74.999999999929855
 31
0.0
  0
LINE
  5
3E1
  8
3
 10
43.082500000000032
 20
79.999999999999943
 30
0.0
 11
42.00000000000005
 21
81.87494499919319
 31
0.0
  0
ARC
  5
3E2
  8
0
 10
50.0
 20
70.499999999999929
 30
0.0
 40
22.5
 50
75.672966250672843
 51
104.3270337493271
  0
ARC
  5
3E3
  8
0
 10
50.0
 20
105.4999999999999
 30
0.0
 40
22.5
 50
255.67296625067291
 51
284.32703374932709
  0
LINE
  5
3E4
  8
0
 10
55.56776436283041
 20
92.300229356591501
 30
0.0
 11
55.56776436283041
 21
83.699770643408385
 31
0.0
  0
LINE
  5
3E5
  8
0
 10
55.56776436283041
 20
83.699770643408385
 30
0.0
 11
56.669597780791833
 21
83.699770643408385
 31
0.0
  0
LINE
  5
3E6
  8
0
 10
55.56776436283041
 20
92.300229356591501
 30
0.0
 11
56.669597780791833
 21
92.300229356591501
 31
0.0
  0
LINE
  5
3E7
  8
0
 10
56.669597780791833
 20
92.300229356591501
 30
0.0
 11
56.669597780791833
 21
83.699770643408385
 31
0.0
  0
ARC
  5
3E8
  8
0
 10
60.606601717798071
 20
81.575057339147264
 30
0.0
 40
11.424942660852651
 50
69.842787032444903
 51
110.1572129675581
  0
ARC
  5
3E9
  8
0
 10
60.606601717798071
 20
94.424942660852565
 30
0.0
 40
11.424942660852651
 50
249.84278703244189
 51
290.1572129675551
  0
LINE
  5
3EA
  8
0
 10
64.999999999999943
 20
92.300229356591501
 30
0.0
 11
64.543605654803741
 21
92.300229356591501
 31
0.0
  0
LINE
  5
3EB
  8
0
 10
64.543605654803741
 20
92.300229356591501
 30
0.0
 11
64.543605654803798
 21
83.699770643408215
 31
0.0
  0
LINE
  5
3EC
  8
0
 10
64.543605654803798
 20
83.699770643408215
 30
0.0
 11
65.0
 21
83.699770643408215
 31
0.0
  0
LINE
  5
3ED
  8
0
 10
44.43223563716964
 20
92.300229356591501
 30
0.0
 11
44.43223563716964
 21
83.699770643408385
 31
0.0
  0
LINE
  5
3EE
  8
0
 10
43.330402219208217
 20
92.300229356591501
 30
0.0
 11
43.330402219208217
 21
83.699770643408385
 31
0.0
  0
ARC
  5
3EF
  8
0
 10
39.393398282201979
 20
94.424942660852565
 30
0.0
 40
11.424942660852651
 50
249.84278703244499
 51
290.15721296755811
  0
ARC
  5
3F0
  8
0
 10
39.393398282201979
 20
81.575057339147278
 30
0.0
 40
11.424942660852651
 50
69.84278703244189
 51
110.157212967555
  0
LINE
  5
3F1
  8
0
 10
35.000000000000057
 20
92.300229356591501
 30
0.0
 11
35.456394345196323
 21
92.300229356591501
 31
0.0
  0
LINE
  5
3F2
  8
0
 10
35.456394345196323
 20
92.300229356591501
 30
0.0
 11
35.456394345196259
 21
83.699770643408215
 31
0.0
  0
LINE
  5
3F3
  8
0
 10
35.456394345196259
 20
83.699770643408215
 30
0.0
 11
35.000000000000057
 21
83.699770643408215
 31
0.0
  0
LINE
  5
3F4
  8
0
 10
44.43223563716964
 20
83.699770643408385
 30
0.0
 11
43.330402219208217
 21
83.699770643408385
 31
0.0
  0
LINE
  5
3F5
  8
3
 10
56.917499999999961
 20
79.999999999999943
 30
0.0
 11
57.999999999999943
 21
81.87494499919319
 31
0.0
  0
LINE
  5
3F6
  8
0
 10
58.0
 20
52.0
 30
0.0
 11
58.0
 21
64.999999999999943
 31
0.0
  0
LINE
  5
3F7
  8
3
 10
56.917499999999961
 20
80.0
 30
0.0
 11
56.917499999999961
 21
74.999999999929855
 31
0.0
  0
LINE
  5
3F8
  8
0
 10
58.000000000000043
 20
93.499999999999986
 30
0.0
 11
58.000000000000043
 21
96.499999999999886
 31
0.0
  0
LINE
  5
3F9
  8
0
 10
57.500000000000028
 20
96.999999999999886
 30
0.0
 11
42.500000000000149
 21
97.0
 31
0.0
  0
LINE
  5
3FA
  8
0
 10
42.500000000000149
 20
97.0
 30
0.0
 11
42.000000000000149
 21
96.5
 31
0.0
  0
LINE
  5
3FB
  8
0
 10
57.500000000000028
 20
96.999999999999886
 30
0.0
 11
58.000000000000043
 21
96.499999999999886
 31
0.0
  0
LINE
  5
3FC
  8
0
 10
42.000000000000028
 20
96.499999999999886
 30
0.0
 11
58.000000000000043
 21
96.499999999999886
 31
0.0
  0
ARC
  5
3FD
  8
0
 10
59.999999999999943
 20
80.999999999999972
 30
0.0
 40
2.0
 50
90.0
 51
180.0
  0
ARC
  5
3FE
  8
0
 10
40.0
 20
80.999999999999986
 30
0.0
 40
2.0
 50
0.0
 51
90.0
  0
ARC
  5
3FF
  8
0
 10
58.500000000000043
 20
93.499999999999972
 30
0.0
 40
0.5
 50
180.0
 51
270.0
  0
ARC
  5
400
  8
0
 10
41.500000000000149
 20
93.499999999999972
 30
0.0
 40
0.5
 50
269.9999999999996
 51
0.0
  0
LINE
  5
407
  8
0
 10
58.0
 20
74.999999999929855
 30
0.0
 11
57.999999999999943
 21
81.0
 31
0.0
  0
LINE
  5
408
  8
3
 10
56.917499999999961
 20
65.000000000000057
 30
0.0
 11
56.917499999999961
 21
50.917500000000011
 31
0.0
  0
LINE
  5
409
  8
3
 10
43.082499999999982
 20
65.000000000000057
 30
0.0
 11
43.082499999999982
 21
50.917500000000011
 31
0.0
  0
LINE
  5
40A
  8
0
 10
42.00000000000005
 20
74.999999999929855
 30
0.0
 11
42.0
 21
81.0
 31
0.0
  0
LINE
  5
432
  8
0
 10
43.330402219208253
 20
92.300229356591487
 30
0.0
 11
44.432235637169583
 21
92.300229356591487
 31
0.0
  0
TEXT
  5
4FF
  8
0
 62
     3
 10
0.0
 20
0.0
 30
0.0
 40
10.0
  1
BJ734-16011
  7
STANDARD1
  0
ENDSEC
  0
EOF
