  0
SECTION
  2
HEADER
  9
$ACADVER
  1
AC1009
  9
$INSBASE
 10
0.0
 20
0.0
 30
0.0
  9
$EXTMIN
 10
0.0
 20
-1.4802182810368341
 30
0.0
  9
$EXTMAX
 10
73.000000000000014
 20
78.000000000000028
 30
0.0
  9
$LIMMIN
 10
0.0
 20
0.0
  9
$LIMMAX
 10
192.5
 20
135.0
  9
$ORTHOMODE
 70
     1
  9
$REGENMODE
 70
     1
  9
$FILLMODE
 70
     1
  9
$QTEXTMODE
 70
     0
  9
$MIRRTEXT
 70
     0
  9
$DRAGMODE
 70
     2
  9
$LTSCALE
 40
5.0
  9
$OSMODE
 70
    37
  9
$ATTMODE
 70
     1
  9
$TEXTSIZE
 40
1.6000000000000489
  9
$TRACEWID
 40
0.05
  9
$TEXTSTYLE
  7
STANDARD
  9
$CLAYER
  8
0
  9
$CELTYPE
  6
BYLAYER
  9
$CECOLOR
 62
   256
  9
$DIMSCALE
 40
0.5
  9
$DIMASZ
 40
3.0
  9
$DIMEXO
 40
2.0
  9
$DIMDLI
 40
0.38
  9
$DIMRND
 40
0.0
  9
$DIMDLE
 40
0.0
  9
$DIMEXE
 40
2.0
  9
$DIMTP
 40
0.0
  9
$DIMTM
 40
0.0
  9
$DIMTXT
 40
3.0
  9
$DIMCEN
 40
0.0
  9
$DIMTSZ
 40
0.0
  9
$DIMTOL
 70
     0
  9
$DIMLIM
 70
     0
  9
$DIMTIH
 70
     0
  9
$DIMTOH
 70
     0
  9
$DIMSE1
 70
     0
  9
$DIMSE2
 70
     0
  9
$DIMTAD
 70
     1
  9
$DIMZIN
 70
     8
  9
$DIMBLK
  1

  9
$DIMASO
 70
     0
  9
$DIMSHO
 70
     0
  9
$DIMPOST
  1

  9
$DIMAPOST
  1

  9
$DIMALT
 70
     0
  9
$DIMALTD
 70
     2
  9
$DIMALTF
 40
25.399999999999999
  9
$DIMLFAC
 40
1.0
  9
$DIMTOFL
 70
     1
  9
$DIMTVP
 40
1.6000000000000001
  9
$DIMTIX
 70
     1
  9
$DIMSOXD
 70
     0
  9
$DIMSAH
 70
     0
  9
$DIMBLK1
  1

  9
$DIMBLK2
  1

  9
$DIMSTYLE
  2
STANDARD
  9
$DIMCLRD
 70
     0
  9
$DIMCLRE
 70
     0
  9
$DIMCLRT
 70
     0
  9
$DIMTFAC
 40
1.0
  9
$DIMGAP
 40
1.0
  9
$LUNITS
 70
     2
  9
$LUPREC
 70
     1
  9
$SKETCHINC
 40
0.1
  9
$FILLETRAD
 40
0.4
  9
$AUNITS
 70
     0
  9
$AUPREC
 70
     1
  9
$MENU
  1
E:\r13\win\SUPPORT\ACAD
  9
$ELEVATION
 40
0.0
  9
$PELEVATION
 40
0.0
  9
$THICKNESS
 40
0.0
  9
$LIMCHECK
 70
     0
  9
$BLIPMODE
 70
     0
  9
$CHAMFERA
 40
0.0
  9
$CHAMFERB
 40
0.0
  9
$SKPOLY
 70
     0
  9
$TDCREATE
 40
2448328.489641204
  9
$TDUPDATE
 40
2458920.4091014471
  9
$TDINDWG
 40
0.5434671181
  9
$TDUSRTIMER
 40
0.5434671181
  9
$USRTIMER
 70
     1
  9
$ANGBASE
 50
0.0
  9
$ANGDIR
 70
     0
  9
$PDMODE
 70
    35
  9
$PDSIZE
 40
0.0
  9
$PLINEWID
 40
0.0
  9
$COORDS
 70
     1
  9
$SPLFRAME
 70
     0
  9
$SPLINETYPE
 70
     6
  9
$SPLINESEGS
 70
     8
  9
$ATTDIA
 70
     0
  9
$ATTREQ
 70
     1
  9
$HANDLING
 70
     1
  9
$HANDSEED
  5
C3D
  9
$SURFTAB1
 70
     6
  9
$SURFTAB2
 70
     6
  9
$SURFTYPE
 70
     6
  9
$SURFU
 70
     6
  9
$SURFV
 70
     6
  9
$UCSNAME
  2

  9
$UCSORG
 10
0.0
 20
0.0
 30
0.0
  9
$UCSXDIR
 10
1.0
 20
0.0
 30
0.0
  9
$UCSYDIR
 10
0.0
 20
1.0
 30
0.0
  9
$PUCSNAME
  2

  9
$PUCSORG
 10
0.0
 20
0.0
 30
0.0
  9
$PUCSXDIR
 10
1.0
 20
0.0
 30
0.0
  9
$PUCSYDIR
 10
0.0
 20
1.0
 30
0.0
  9
$USERI1
 70
     3
  9
$USERI2
 70
     1
  9
$USERI3
 70
     1
  9
$USERI4
 70
     0
  9
$USERI5
 70
     0
  9
$USERR1
 40
0.5
  9
$USERR2
 40
3.0
  9
$USERR3
 40
3.0
  9
$USERR4
 40
3.0
  9
$USERR5
 40
10.0
  9
$WORLDVIEW
 70
     1
  9
$SHADEDGE
 70
     3
  9
$SHADEDIF
 70
    70
  9
$TILEMODE
 70
     1
  9
$MAXACTVP
 70
    16
  9
$PLIMCHECK
 70
     0
  9
$PEXTMIN
 10
1.0000000000000000E+020
 20
1.0000000000000000E+020
 30
1.0000000000000000E+020
  9
$PEXTMAX
 10
-1.0000000000000000E+020
 20
-1.0000000000000000E+020
 30
-1.0000000000000000E+020
  9
$PLIMMIN
 10
0.0
 20
0.0
  9
$PLIMMAX
 10
12.0
 20
9.0
  9
$UNITMODE
 70
     0
  9
$VISRETAIN
 70
     0
  9
$PLINEGEN
 70
     1
  9
$PSLTSCALE
 70
     0
  0
ENDSEC
  0
SECTION
  2
TABLES
  0
TABLE
  2
VPORT
 70
     1
  0
VPORT
  2
*ACTIVE
 70
     0
 10
0.0
 20
0.0
 11
1.0
 21
1.0
 12
144.9386503067484
 22
60.0
 13
0.0
 23
0.0
 14
2.5
 24
2.5
 15
5.0
 25
5.0
 16
0.0
 26
0.0
 36
1.0
 17
0.0
 27
0.0
 37
0.0
 40
120.0
 41
2.415644171779141
 42
50.0
 43
0.0
 44
0.0
 50
0.0
 51
0.0
 71
     0
 72
   500
 73
     1
 74
     0
 75
     0
 76
     0
 77
     0
 78
     2
  0
ENDTAB
  0
TABLE
  2
LTYPE
 70
     4
  0
LTYPE
  2
CONTINUOUS
 70
     0
  3
Solid Line
 72
    65
 73
     0
 40
0.0
  0
LTYPE
  2
CENTER
 70
     0
  3
____ _ ____ _ ____ _ ____ _ ____ _ ____ _ ____
 72
    65
 73
     4
 40
2.0
 49
1.25
 49
-0.25
 49
0.25
 49
-0.25
  0
LTYPE
  2
HIDDEN
 70
     0
  3
_ _ _ _ _ _ _ _ _ _ _ _ _ _ _ _ _ _ _ _ _ _ _
 72
    65
 73
     2
 40
0.375
 49
0.25
 49
-0.125
  0
LTYPE
  2
PHANTOM2
 70
     0
  3
___ _ _ ___ _ _ ___ _ _ ___ _ _
 72
    65
 73
     6
 40
1.25
 49
0.625
 49
-0.125
 49
0.125
 49
-0.125
 49
0.125
 49
-0.125
  0
ENDTAB
  0
TABLE
  2
LAYER
 70
     7
  0
LAYER
  2
0
 70
     0
 62
     7
  6
CONTINUOUS
  0
LAYER
  2
1
 70
     0
 62
     1
  6
CENTER
  0
LAYER
  2
3
 70
     0
 62
     3
  6
CONTINUOUS
  0
LAYER
  2
11
 70
     0
 62
     3
  6
CONTINUOUS
  0
LAYER
  2
2
 70
     0
 62
     2
  6
HIDDEN
  0
LAYER
  2
4
 70
     0
 62
     4
  6
CONTINUOUS
  0
LAYER
  2
10
 70
     0
 62
     7
  6
CONTINUOUS
  0
ENDTAB
  0
TABLE
  2
STYLE
 70
     2
  0
STYLE
  2
STANDARD
 70
     0
 40
0.0
 41
1.0
 50
0.0
 71
     0
 42
1.6000000000000489
  3
SIMPLEX
  4
BIGFONT
  0
STYLE
  2
STANDARD1
 70
     0
 40
0.0
 41
1.0
 50
0.0
 71
     0
 42
3.0
  3
txt
  4

  0
ENDTAB
  0
TABLE
  2
VIEW
 70
     1
  0
VIEW
  2
ALL
 70
     0
 40
87.5
 10
71.617647058823522
 20
43.75
 41
0.0
 11
0.0
 21
0.0
 31
1.0
 12
0.0
 22
0.0
 32
0.0
 42
0.0
 43
0.0
 44
0.0
 50
0.0
 71
     0
  0
ENDTAB
  0
TABLE
  2
UCS
 70
     0
  0
ENDTAB
  0
TABLE
  2
APPID
 70
     7
  0
APPID
  2
ACAD
 70
     0
  0
APPID
  2
ACAD_MLEADERVER
 70
     0
  0
APPID
  2
ACAD_EXEMPT_FROM_CAD_STANDARDS
 70
     0
  0
APPID
  2
ACAD_NAV_VCDISPLAY
 70
     0
  0
APPID
  2
ACAD_DSTYLE_DIMJAG
 70
     0
  0
APPID
  2
ACAD_DSTYLE_DIMTALN
 70
     0
  0
APPID
  2
ACAD_DSTYLE_DIMRADIAL_EXTENSION
 70
     0
  0
ENDTAB
  0
TABLE
  2
DIMSTYLE
 70
     1
  0
DIMSTYLE
  2
STANDARD
 70
     0
  3

  4

  5

  6

  7

 40
1.0
 41
0.18
 42
0.0625
 43
0.38
 44
0.18
 45
0.0
 46
0.0
 47
0.0
 48
0.0
140
0.18
141
0.09
142
0.0
143
25.399999999999999
144
1.0
145
0.0
146
1.0
147
0.09
 71
     0
 72
     0
 73
     1
 74
     1
 75
     0
 76
     0
 77
     0
 78
     0
170
     0
171
     2
172
     0
173
     0
174
     0
175
     0
176
     0
177
     0
178
     0
  0
ENDTAB
  0
ENDSEC
  0
SECTION
  2
BLOCKS
  0
BLOCK
  8
0
  2
$MODEL_SPACE
 70
     0
 10
0.0
 20
0.0
 30
0.0
  3
$MODEL_SPACE
  1

  0
ENDBLK
  5
9CF
  8
0
  0
BLOCK
 67
     1
  8
0
  2
$PAPER_SPACE
 70
     0
 10
0.0
 20
0.0
 30
0.0
  3
$PAPER_SPACE
  1

  0
ENDBLK
  5
9CD
 67
     1
  8
0
  0
ENDSEC
  0
SECTION
  2
ENTITIES
  0
ARC
  5
7BE
  8
0
 10
23.826497308103779
 20
32.400000000000013
 30
0.0
 40
0.4
 50
270.0
 51
359.99999999999841
  0
ARC
  5
7BF
  8
0
 10
36.173502691896267
 20
32.400000000000013
 30
0.0
 40
0.4
 50
180.0
 51
270.0
  0
LINE
  5
7C0
  8
0
 10
23.499999999999979
 20
30.300000000000011
 30
0.0
 11
23.79999999999999
 21
30.0
 31
0.0
  0
LINE
  5
7C1
  8
0
 10
23.80000000000005
 20
32.0
 30
0.0
 11
23.500000000000039
 21
31.699999999999989
 31
0.0
  0
LINE
  5
7C3
  8
0
 10
36.500000000000021
 20
30.300000000000011
 30
0.0
 11
36.200000000000003
 21
30.0
 31
0.0
  0
LINE
  5
7C5
  8
0
 10
36.500000000000043
 20
31.699999999999989
 30
0.0
 11
36.200000000000031
 21
32.0
 31
0.0
  0
LINE
  5
7C7
  8
0
 10
32.886751345948213
 20
73.999999999999972
 30
0.0
 11
27.113248654051869
 21
74.000000000000142
 31
0.0
  0
LINE
  5
7C8
  8
0
 10
27.113248654051869
 20
74.000000000000142
 30
0.0
 11
24.226497308103731
 21
69.000000000000028
 31
0.0
  0
LINE
  5
7C9
  8
0
 10
24.226497308103731
 20
69.000000000000028
 30
0.0
 11
27.113248654051869
 21
64.000000000000028
 31
0.0
  0
LINE
  5
7CA
  8
0
 10
27.113248654051869
 20
64.000000000000028
 30
0.0
 11
32.886751345948099
 21
64.000000000000085
 31
0.0
  0
LINE
  5
7CB
  8
0
 10
32.886751345948099
 20
64.000000000000085
 30
0.0
 11
35.773502691896297
 21
69.000000000000028
 31
0.0
  0
LINE
  5
7CC
  8
0
 10
35.773502691896297
 20
69.000000000000028
 30
0.0
 11
32.886751345948213
 21
73.999999999999972
 31
0.0
  0
CIRCLE
  5
7CD
  8
0
 10
30.000000000000021
 20
69.000000000000028
 30
0.0
 40
4.9000000000000004
  0
CIRCLE
  5
7CE
  8
3
 10
30.000000000000021
 20
69.000000000000028
 30
0.0
 40
3.0
  0
CIRCLE
  5
7CF
  8
0
 10
30.000000000000021
 20
69.000000000000028
 30
0.0
 40
2.458499999999999
  0
LINE
  5
7D0
  8
0
 10
36.200000000000003
 20
30.0
 30
0.0
 11
23.79999999999999
 21
30.0
 31
0.0
  0
LINE
  5
7D1
  8
0
 10
34.899999999999508
 20
39.000000000000028
 30
0.0
 11
25.100000000000609
 21
39.000000000000028
 31
0.0
  0
LINE
  5
7D2
  8
0
 10
35.773502691896269
 20
38.49568298569563
 30
0.0
 11
34.899999999999508
 21
39.000000000000028
 31
0.0
  0
LINE
  5
7D3
  8
0
 10
35.773502691896212
 20
38.49568298569563
 30
0.0
 11
35.773502691896269
 21
32.400000000000013
 31
0.0
  0
LINE
  5
7D4
  8
0
 10
27.113248654051869
 20
38.49568298568721
 30
0.0
 11
27.113248654051869
 21
32.000000000000028
 31
0.0
  0
LINE
  5
7D5
  8
0
 10
24.226497308103902
 20
38.49568298569563
 30
0.0
 11
24.226497308103792
 21
32.400000000000013
 31
0.0
  0
ARC
  5
7D6
  8
0
 10
30.000000000011781
 20
29.388846960521668
 30
0.0
 40
9.5534180125581827
 50
72.41204622597229
 51
107.5879537741754
  0
ARC
  5
7D7
  8
0
 10
25.669872981077859
 20
36.386442224652399
 30
0.0
 40
2.5558227484274911
 50
55.615752532026292
 51
115.6157525306601
  0
LINE
  5
7D8
  8
0
 10
24.226497308103841
 20
38.49568298569563
 30
0.0
 11
25.100000000000609
 21
39.000000000000028
 31
0.0
  0
LINE
  5
7D9
  8
0
 10
36.200000000000031
 20
32.0
 30
0.0
 11
23.80000000000005
 21
32.0
 31
0.0
  0
CIRCLE
  5
7DA
  8
0
 10
30.000000000000021
 20
69.000000000000028
 30
0.0
 40
6.5
  0
LINE
  5
7DB
  8
0
 10
23.500000000000039
 20
31.699999999999989
 30
0.0
 11
23.499999999999979
 21
30.300000000000011
 31
0.0
  0
LINE
  5
7DC
  8
0
 10
36.500000000000043
 20
31.699999999999989
 30
0.0
 11
36.500000000000021
 21
30.300000000000011
 31
0.0
  0
LINE
  5
7DE
  8
1
 10
30.000000000000021
 20
60.000000000000028
 30
0.0
 11
30.000000000000021
 21
78.000000000000028
 31
0.0
  0
LINE
  5
7DF
  8
1
 10
39.000000000000021
 20
69.000000000000028
 30
0.0
 11
21.000000000000011
 21
69.000000000000028
 31
0.0
  0
LINE
  5
7E0
  8
1
 10
30.00000000000006
 20
41.500000000000028
 30
0.0
 11
30.00000000000006
 21
27.5
 31
0.0
  0
LINE
  5
8A8
  8
0
 10
32.886751345948241
 20
38.49568298568721
 30
0.0
 11
32.886751345948241
 21
32.000000000000028
 31
0.0
  0
ARC
  5
8A9
  8
0
 10
34.330127018922262
 20
36.386442224652399
 30
0.0
 40
2.5558227484274911
 50
64.384247469345354
 51
124.38424746797369
  0
LINE
  5
8AB
  8
0
 10
72.700000000000017
 20
31.999999999999979
 30
0.0
 11
60.300000000000239
 21
32.000000000000213
 31
0.0
  0
LINE
  5
8AF
  8
0
 10
72.699999999999974
 20
30.0
 30
0.0
 11
60.299999999999969
 21
30.0
 31
0.0
  0
LINE
  5
8B5
  8
1
 10
66.500000000000028
 20
41.500000000000028
 30
0.0
 11
66.500000000000028
 21
27.5
 31
0.0
  0
LINE
  5
8BB
  8
0
 10
60.000000000000007
 20
31.699999999999989
 30
0.0
 11
59.999999999999957
 21
30.300000000000011
 31
0.0
  0
LINE
  5
8BD
  8
0
 10
60.300000000000018
 20
32.0
 30
0.0
 11
60.000000000000007
 21
31.699999999999989
 31
0.0
  0
LINE
  5
8BE
  8
0
 10
59.999999999999957
 20
30.300000000000011
 30
0.0
 11
60.299999999999969
 21
30.0
 31
0.0
  0
LINE
  5
8C8
  8
0
 10
73.000000000000014
 20
31.699999999999989
 30
0.0
 11
72.700000000000003
 21
32.0
 31
0.0
  0
LINE
  5
8C9
  8
0
 10
72.999999999999986
 20
30.300000000000011
 30
0.0
 11
72.699999999999974
 21
30.0
 31
0.0
  0
LINE
  5
8CD
  8
0
 10
73.000000000000014
 20
31.699999999999989
 30
0.0
 11
72.999999999999986
 21
30.300000000000011
 31
0.0
  0
LINE
  5
8CF
  8
0
 10
66.500000000000028
 20
38.495682985694771
 30
0.0
 11
66.500000000000028
 21
32.0
 31
0.0
  0
ARC
  5
8D0
  8
0
 10
64.000000000000028
 20
31.721378715181171
 30
0.0
 40
7.2208862578987887
 50
69.743841999626127
 51
110.2561580003738
  0
LINE
  5
8D1
  8
0
 10
61.500000000000028
 20
38.94226497308
 30
0.0
 11
61.60000000000192
 21
39.000000000000057
 31
0.0
  0
LINE
  5
8D2
  8
0
 10
61.500000000000028
 20
38.94226497308
 30
0.0
 11
61.500000000000028
 21
32.400000000000212
 31
0.0
  0
LINE
  5
8D3
  8
0
 10
71.500000000000028
 20
38.94226497308
 30
0.0
 11
71.5
 21
32.40000000000002
 31
0.0
  0
LINE
  5
8D4
  8
0
 10
71.500000000000028
 20
38.94226497308
 30
0.0
 11
71.39999999999813
 21
39.000000000000057
 31
0.0
  0
ARC
  5
8D5
  8
0
 10
69.000000000000028
 20
31.721378715181171
 30
0.0
 40
7.2208862578987887
 50
69.743841999626127
 51
110.2561580003738
  0
LINE
  5
8D6
  8
0
 10
61.60000000000192
 20
39.000000000000057
 30
0.0
 11
71.39999999999813
 21
39.000000000000057
 31
0.0
  0
ARC
  5
8D8
  8
0
 10
71.900000000000006
 20
32.40000000000002
 30
0.0
 40
0.4
 50
180.0
 51
270.0
  0
ARC
  5
8D9
  8
0
 10
61.100000000000023
 20
32.400000000000212
 30
0.0
 40
0.4
 50
269.99999999999881
 51
0.0
  0
TEXT
  5
A86
  8
0
 62
     3
 10
0.0
 20
0.0
 30
0.0
 40
5.0
  1
BJ740-06001-SUS
  7
STANDARD1
  0
ENDSEC
  0
EOF
