  0
SECTION
  2
HEADER
  9
$ACADVER
  1
AC1009
  9
$INSBASE
 10
0.0
 20
0.0
 30
0.0
  9
$EXTMIN
 10
0.0
 20
-1.4802182810368341
 30
0.0
  9
$EXTMAX
 10
77.999999999999986
 20
83.500000104308128
 30
0.0
  9
$LIMMIN
 10
0.0
 20
0.0
  9
$LIMMAX
 10
187.5
 20
135.0
  9
$ORTHOMODE
 70
     1
  9
$REGENMODE
 70
     1
  9
$FILLMODE
 70
     1
  9
$QTEXTMODE
 70
     0
  9
$MIRRTEXT
 70
     0
  9
$DRAGMODE
 70
     2
  9
$LTSCALE
 40
5.0
  9
$OSMODE
 70
    37
  9
$ATTMODE
 70
     1
  9
$TEXTSIZE
 40
0.2
  9
$TRACEWID
 40
0.05
  9
$TEXTSTYLE
  7
STANDARD
  9
$CLAYER
  8
0
  9
$CELTYPE
  6
BYLAYER
  9
$CECOLOR
 62
   256
  9
$DIMSCALE
 40
0.5
  9
$DIMASZ
 40
3.0
  9
$DIMEXO
 40
2.0
  9
$DIMDLI
 40
0.38
  9
$DIMRND
 40
0.0
  9
$DIMDLE
 40
0.0
  9
$DIMEXE
 40
2.0
  9
$DIMTP
 40
0.0
  9
$DIMTM
 40
0.0
  9
$DIMTXT
 40
3.2000000000000002
  9
$DIMCEN
 40
0.0
  9
$DIMTSZ
 40
0.0
  9
$DIMTOL
 70
     0
  9
$DIMLIM
 70
     0
  9
$DIMTIH
 70
     0
  9
$DIMTOH
 70
     0
  9
$DIMSE1
 70
     0
  9
$DIMSE2
 70
     0
  9
$DIMTAD
 70
     1
  9
$DIMZIN
 70
     8
  9
$DIMBLK
  1

  9
$DIMASO
 70
     0
  9
$DIMSHO
 70
     0
  9
$DIMPOST
  1

  9
$DIMAPOST
  1

  9
$DIMALT
 70
     0
  9
$DIMALTD
 70
     2
  9
$DIMALTF
 40
25.399999999999999
  9
$DIMLFAC
 40
1.0
  9
$DIMTOFL
 70
     1
  9
$DIMTVP
 40
1.6000000000000001
  9
$DIMTIX
 70
     1
  9
$DIMSOXD
 70
     0
  9
$DIMSAH
 70
     0
  9
$DIMBLK1
  1

  9
$DIMBLK2
  1

  9
$DIMSTYLE
  2
STANDARD
  9
$DIMCLRD
 70
     0
  9
$DIMCLRE
 70
     0
  9
$DIMCLRT
 70
     0
  9
$DIMTFAC
 40
1.0
  9
$DIMGAP
 40
1.0
  9
$LUNITS
 70
     2
  9
$LUPREC
 70
     1
  9
$SKETCHINC
 40
0.1
  9
$FILLETRAD
 40
0.0
  9
$AUNITS
 70
     0
  9
$AUPREC
 70
     1
  9
$MENU
  1
E:\r13\win\SUPPORT\ACAD
  9
$ELEVATION
 40
0.0
  9
$PELEVATION
 40
0.0
  9
$THICKNESS
 40
0.0
  9
$LIMCHECK
 70
     0
  9
$BLIPMODE
 70
     0
  9
$CHAMFERA
 40
0.0
  9
$CHAMFERB
 40
0.0
  9
$SKPOLY
 70
     0
  9
$TDCREATE
 40
2449839.7696643518
  9
$TDUPDATE
 40
2458920.4091097219
  9
$TDINDWG
 40
0.0911516435
  9
$TDUSRTIMER
 40
0.0911516435
  9
$USRTIMER
 70
     1
  9
$ANGBASE
 50
0.0
  9
$ANGDIR
 70
     0
  9
$PDMODE
 70
     0
  9
$PDSIZE
 40
0.0
  9
$PLINEWID
 40
0.0
  9
$COORDS
 70
     1
  9
$SPLFRAME
 70
     0
  9
$SPLINETYPE
 70
     6
  9
$SPLINESEGS
 70
     8
  9
$ATTDIA
 70
     0
  9
$ATTREQ
 70
     1
  9
$HANDLING
 70
     1
  9
$HANDSEED
  5
BC9
  9
$SURFTAB1
 70
     6
  9
$SURFTAB2
 70
     6
  9
$SURFTYPE
 70
     6
  9
$SURFU
 70
     6
  9
$SURFV
 70
     6
  9
$UCSNAME
  2

  9
$UCSORG
 10
0.0
 20
0.0
 30
0.0
  9
$UCSXDIR
 10
1.0
 20
0.0
 30
0.0
  9
$UCSYDIR
 10
0.0
 20
1.0
 30
0.0
  9
$PUCSNAME
  2

  9
$PUCSORG
 10
0.0
 20
0.0
 30
0.0
  9
$PUCSXDIR
 10
1.0
 20
0.0
 30
0.0
  9
$PUCSYDIR
 10
0.0
 20
1.0
 30
0.0
  9
$USERI1
 70
     0
  9
$USERI2
 70
     1
  9
$USERI3
 70
     0
  9
$USERI4
 70
     0
  9
$USERI5
 70
     0
  9
$USERR1
 40
0.0
  9
$USERR2
 40
0.0
  9
$USERR3
 40
0.0
  9
$USERR4
 40
0.0
  9
$USERR5
 40
0.0
  9
$WORLDVIEW
 70
     1
  9
$SHADEDGE
 70
     3
  9
$SHADEDIF
 70
    70
  9
$TILEMODE
 70
     1
  9
$MAXACTVP
 70
    16
  9
$PLIMCHECK
 70
     0
  9
$PEXTMIN
 10
1.0000000000000000E+020
 20
1.0000000000000000E+020
 30
1.0000000000000000E+020
  9
$PEXTMAX
 10
-1.0000000000000000E+020
 20
-1.0000000000000000E+020
 30
-1.0000000000000000E+020
  9
$PLIMMIN
 10
0.0
 20
0.0
  9
$PLIMMAX
 10
12.0
 20
9.0
  9
$UNITMODE
 70
     0
  9
$VISRETAIN
 70
     0
  9
$PLINEGEN
 70
     0
  9
$PSLTSCALE
 70
     0
  0
ENDSEC
  0
SECTION
  2
TABLES
  0
TABLE
  2
VPORT
 70
     1
  0
VPORT
  2
*ACTIVE
 70
     0
 10
0.0
 20
0.0
 11
1.0
 21
1.0
 12
144.9386503067484
 22
60.0
 13
0.0
 23
0.0
 14
5.0
 24
5.0
 15
5.0
 25
5.0
 16
0.0
 26
0.0
 36
1.0
 17
0.0
 27
0.0
 37
0.0
 40
120.0
 41
2.415644171779141
 42
50.0
 43
0.0
 44
0.0
 50
0.0
 51
0.0
 71
     0
 72
   500
 73
     1
 74
     0
 75
     0
 76
     0
 77
     0
 78
     2
  0
ENDTAB
  0
TABLE
  2
LTYPE
 70
     4
  0
LTYPE
  2
CONTINUOUS
 70
     0
  3
Solid Line
 72
    65
 73
     0
 40
0.0
  0
LTYPE
  2
CENTER
 70
     0
  3
____ _ ____ _ ____ _ ____ _ ____ _ ____ _ ____
 72
    65
 73
     4
 40
2.0
 49
1.25
 49
-0.25
 49
0.25
 49
-0.25
  0
LTYPE
  2
PHANTOM2
 70
     0
  3
___ _ _ ___ _ _ ___ _ _ ___ _ _
 72
    65
 73
     6
 40
1.25
 49
0.625
 49
-0.125
 49
0.125
 49
-0.125
 49
0.125
 49
-0.125
  0
LTYPE
  2
HIDDEN
 70
     0
  3
Hidden __ __ __ __ __ __ __ __ __ __ __ __ __ __
 72
    65
 73
     2
 40
1.905
 49
1.27
 49
-0.635
  0
ENDTAB
  0
TABLE
  2
LAYER
 70
     8
  0
LAYER
  2
0
 70
     0
 62
     7
  6
CONTINUOUS
  0
LAYER
  2
1
 70
     0
 62
     1
  6
CENTER
  0
LAYER
  2
3
 70
     0
 62
     3
  6
CONTINUOUS
  0
LAYER
  2
2
 70
     0
 62
     2
  6
HIDDEN
  0
LAYER
  2
DEFPOINTS
 70
     0
 62
     7
  6
CONTINUOUS
  0
LAYER
  2
4
 70
     0
 62
     4
  6
CONTINUOUS
  0
LAYER
  2
10
 70
     0
 62
     7
  6
CONTINUOUS
  0
LAYER
  2
11
 70
     0
 62
     3
  6
CONTINUOUS
  0
ENDTAB
  0
TABLE
  2
STYLE
 70
     2
  0
STYLE
  2
STANDARD
 70
     0
 40
0.0
 41
1.0
 50
0.0
 71
     0
 42
0.2
  3
TXT
  4
BIGFONT
  0
STYLE
  2
STANDARD1
 70
     0
 40
0.0
 41
1.0
 50
0.0
 71
     0
 42
3.0
  3
txt
  4

  0
ENDTAB
  0
TABLE
  2
VIEW
 70
     1
  0
VIEW
  2
ALL
 70
     0
 40
135.0
 10
110.4957983193277
 20
67.5
 41
0.0
 11
0.0
 21
0.0
 31
1.0
 12
0.0
 22
0.0
 32
0.0
 42
0.0
 43
0.0
 44
0.0
 50
0.0
 71
     0
  0
ENDTAB
  0
TABLE
  2
UCS
 70
     0
  0
ENDTAB
  0
TABLE
  2
APPID
 70
     6
  0
APPID
  2
ACAD
 70
     0
  0
APPID
  2
ACAD_MLEADERVER
 70
     0
  0
APPID
  2
ACAD_NAV_VCDISPLAY
 70
     0
  0
APPID
  2
ACAD_EXEMPT_FROM_CAD_STANDARDS
 70
     0
  0
APPID
  2
ACAD_DSTYLE_DIMJAG
 70
     0
  0
APPID
  2
ACAD_DSTYLE_DIMTALN
 70
     0
  0
ENDTAB
  0
TABLE
  2
DIMSTYLE
 70
     1
  0
DIMSTYLE
  2
STANDARD
 70
     0
  3

  4

  5

  6

  7

 40
1.0
 41
0.18
 42
0.0625
 43
0.38
 44
0.18
 45
0.0
 46
0.0
 47
0.0
 48
0.0
140
0.18
141
0.09
142
0.0
143
25.399999999999999
144
1.0
145
0.0
146
1.0
147
0.09
 71
     0
 72
     0
 73
     1
 74
     1
 75
     0
 76
     0
 77
     0
 78
     0
170
     0
171
     2
172
     0
173
     0
174
     0
175
     0
176
     0
177
     0
178
     0
  0
ENDTAB
  0
ENDSEC
  0
SECTION
  2
BLOCKS
  0
BLOCK
  8
0
  2
$MODEL_SPACE
 70
     0
 10
0.0
 20
0.0
 30
0.0
  3
$MODEL_SPACE
  1

  0
ENDBLK
  5
14B
  8
0
  0
BLOCK
 67
     1
  8
0
  2
$PAPER_SPACE
 70
     0
 10
0.0
 20
0.0
 30
0.0
  3
$PAPER_SPACE
  1

  0
ENDBLK
  5
149
 67
     1
  8
0
  0
ENDSEC
  0
SECTION
  2
ENTITIES
  0
CIRCLE
  5
3A
  8
0
 10
30.0
 20
72.000000104308114
 30
0.0
 40
6.25
  0
LINE
  5
41
  8
0
 10
26.247223250267069
 20
65.50000010430746
 30
0.0
 11
33.752776749732952
 21
65.500000104307489
 31
0.0
  0
LINE
  5
42
  8
0
 10
22.494446500534139
 20
72.000000104308086
 30
0.0
 11
26.247223250267069
 21
65.50000010430746
 31
0.0
  0
LINE
  5
43
  8
0
 10
26.24722325026703
 20
78.500000104308697
 30
0.0
 11
22.494446500534139
 21
72.000000104308086
 31
0.0
  0
LINE
  5
44
  8
0
 10
33.752776749732888
 20
78.500000104308754
 30
0.0
 11
26.24722325026703
 21
78.500000104308697
 31
0.0
  0
LINE
  5
45
  8
0
 10
37.505553499465847
 20
72.000000104308114
 30
0.0
 11
33.752776749732888
 21
78.500000104308754
 31
0.0
  0
LINE
  5
46
  8
0
 10
33.752776749732952
 20
65.500000104307489
 30
0.0
 11
37.505553499465847
 21
72.000000104308114
 31
0.0
  0
CIRCLE
  5
47
  8
3
 10
30.0
 20
72.000000104308114
 30
0.0
 40
4.0
  0
CIRCLE
  5
48
  8
0
 10
30.0
 20
72.000000104308114
 30
0.0
 40
3.399999999999999
  0
CIRCLE
  5
49
  8
0
 10
30.0
 20
72.000000104308114
 30
0.0
 40
9.0
  0
LINE
  5
4A
  8
1
 10
41.5
 20
72.000000104308114
 30
0.0
 11
18.5
 21
72.000000104308114
 31
0.0
  0
LINE
  5
4B
  8
1
 10
30.0
 20
83.500000104308128
 30
0.0
 11
30.0
 21
60.500000104308128
 31
0.0
  0
LINE
  5
4F
  8
0
 10
21.5
 20
32.5
 30
0.0
 11
38.5
 21
32.5
 31
0.0
  0
LINE
  5
57
  8
0
 10
39.0
 20
32.0
 30
0.0
 11
39.0
 21
30.5
 31
0.0
  0
LINE
  5
59
  8
0
 10
21.0
 20
32.0
 30
0.0
 11
21.0
 21
30.5
 31
0.0
  0
LINE
  5
5A
  8
0
 10
38.5
 20
30.0
 30
0.0
 11
21.5
 21
30.0
 31
0.0
  0
LINE
  5
5F
  8
0
 10
39.0
 20
30.5
 30
0.0
 11
38.5
 21
30.0
 31
0.0
  0
LINE
  5
60
  8
0
 10
39.0
 20
32.0
 30
0.0
 11
38.5
 21
32.5
 31
0.0
  0
LINE
  5
61
  8
0
 10
21.5
 20
32.5
 30
0.0
 11
21.0
 21
32.0
 31
0.0
  0
LINE
  5
62
  8
0
 10
21.0
 20
30.5
 30
0.0
 11
21.5
 21
30.0
 31
0.0
  0
LINE
  5
63
  8
0
 10
59.999999999999993
 20
30.499999999999989
 30
0.0
 11
60.499999999999979
 21
29.999999999999989
 31
0.0
  0
LINE
  5
64
  8
0
 10
60.499999999999979
 20
32.499999999999993
 30
0.0
 11
59.999999999999993
 21
31.999999999999989
 31
0.0
  0
LINE
  5
65
  8
0
 10
77.999999999999986
 20
31.999999999999989
 30
0.0
 11
77.499999999999986
 21
32.499999999999993
 31
0.0
  0
LINE
  5
66
  8
0
 10
77.999999999999986
 20
30.499999999999989
 30
0.0
 11
77.499999999999986
 21
29.999999999999989
 31
0.0
  0
ARC
  5
67
  8
0
 10
75.90000316297558
 20
32.899999999999991
 30
0.0
 40
0.4
 50
179.99999999995219
 51
270.0
  0
LINE
  5
68
  8
0
 10
77.499999999999986
 20
29.999999999999989
 30
0.0
 11
60.499999999999979
 21
29.999999999999989
 31
0.0
  0
LINE
  5
69
  8
0
 10
59.999999999999993
 20
31.999999999999989
 30
0.0
 11
59.999999999999993
 21
30.499999999999989
 31
0.0
  0
LINE
  5
6A
  8
0
 10
77.999999999999986
 20
31.999999999999989
 30
0.0
 11
77.999999999999986
 21
30.499999999999989
 31
0.0
  0
LINE
  5
6B
  8
0
 10
60.499999999999979
 20
32.499999999999993
 30
0.0
 11
77.499999999999986
 21
32.499999999999993
 31
0.0
  0
ARC
  5
6D
  8
0
 10
72.250000000000753
 20
32.46851624240216
 30
0.0
 40
9.3871465579694497
 50
69.743829436768394
 51
110.256170563232
  0
ARC
  5
6E
  8
0
 10
65.749999999999261
 20
32.468516242402217
 30
0.0
 40
9.3871465579693911
 50
69.743829436767982
 51
110.25617056323161
  0
LINE
  5
6F
  8
0
 10
75.25
 20
41.999999999999979
 30
0.0
 11
75.50000316298005
 21
41.855662800371618
 31
0.0
  0
LINE
  5
70
  8
0
 10
62.75
 20
41.999999999999979
 30
0.0
 11
62.499996837019992
 21
41.855662800371618
 31
0.0
  0
LINE
  5
71
  8
0
 10
75.25
 20
41.999999999999979
 30
0.0
 11
62.75
 21
41.999999999999979
 31
0.0
  0
LINE
  5
72
  8
0
 10
75.500003162975574
 20
32.900000000000311
 30
0.0
 11
75.50000316298005
 21
41.855662800371618
 31
0.0
  0
LINE
  5
73
  8
0
 10
69.0
 20
41.275105849099688
 30
0.0
 11
69.0
 21
32.499999999999993
 31
0.0
  0
LINE
  5
74
  8
0
 10
62.499996837024369
 20
32.900000000000311
 30
0.0
 11
62.499996837019857
 21
41.855662800371618
 31
0.0
  0
ARC
  5
75
  8
0
 10
62.099996837024356
 20
32.899999999999991
 30
0.0
 40
0.4
 50
270.0
 51
0.0000000000477338
  0
LINE
  5
7F
  8
1
 10
30.0
 20
44.5
 30
0.0
 11
30.000000000000021
 21
27.5
 31
0.0
  0
LINE
  5
80
  8
1
 10
68.999999999999986
 20
44.499999999999979
 30
0.0
 11
69.0
 21
27.499999999999989
 31
0.0
  0
TEXT
  5
204
  8
0
 62
     3
 10
0.0
 20
0.0
 30
0.0
 40
5.0
  1
BJ740-08001-SUS
  7
STANDARD1
  0
LINE
  5
92C
  8
0
 10
23.74999990686776
 20
42.000000104308121
 30
0.0
 11
22.494446691125638
 21
41.275106109678738
 31
0.0
  0
POLYLINE
  5
92F
  8
0
 10
22.032566285183197
 20
32.499999999999972
 30
0.0
 66
     1
 70
     8
  0
VERTEX
  8
0
  5
AC5
 10
22.0326
 20
32.5000
 30
0.000000
  70
    32
  0
VERTEX
  8
0
  5
AC6
 10
22.0382
 20
32.5000
 30
0.000000
  70
    32
  0
VERTEX
  8
0
  5
AC7
 10
22.0439
 20
32.5001
 30
0.000000
  70
    32
  0
VERTEX
  8
0
  5
AC8
 10
22.0496
 20
32.5003
 30
0.000000
  70
    32
  0
VERTEX
  8
0
  5
AC9
 10
22.0552
 20
32.5005
 30
0.000000
  70
    32
  0
VERTEX
  8
0
  5
ACA
 10
22.0609
 20
32.5008
 30
0.000000
  70
    32
  0
VERTEX
  8
0
  5
ACB
 10
22.0665
 20
32.5011
 30
0.000000
  70
    32
  0
VERTEX
  8
0
  5
ACC
 10
22.0722
 20
32.5015
 30
0.000000
  70
    32
  0
VERTEX
  8
0
  5
ACD
 10
22.0778
 20
32.5019
 30
0.000000
  70
    32
  0
VERTEX
  8
0
  5
ACE
 10
22.0835
 20
32.5024
 30
0.000000
  70
    32
  0
VERTEX
  8
0
  5
ACF
 10
22.0891
 20
32.5030
 30
0.000000
  70
    32
  0
VERTEX
  8
0
  5
AD0
 10
22.0947
 20
32.5036
 30
0.000000
  70
    32
  0
VERTEX
  8
0
  5
AD1
 10
22.1003
 20
32.5043
 30
0.000000
  70
    32
  0
VERTEX
  8
0
  5
AD2
 10
22.1059
 20
32.5051
 30
0.000000
  70
    32
  0
VERTEX
  8
0
  5
AD3
 10
22.1115
 20
32.5059
 30
0.000000
  70
    32
  0
VERTEX
  8
0
  5
AD4
 10
22.1171
 20
32.5068
 30
0.000000
  70
    32
  0
VERTEX
  8
0
  5
AD5
 10
22.1227
 20
32.5077
 30
0.000000
  70
    32
  0
VERTEX
  8
0
  5
AD6
 10
22.1282
 20
32.5087
 30
0.000000
  70
    32
  0
VERTEX
  8
0
  5
AD7
 10
22.1338
 20
32.5097
 30
0.000000
  70
    32
  0
VERTEX
  8
0
  5
AD8
 10
22.1393
 20
32.5108
 30
0.000000
  70
    32
  0
VERTEX
  8
0
  5
AD9
 10
22.1448
 20
32.5120
 30
0.000000
  70
    32
  0
VERTEX
  8
0
  5
ADA
 10
22.1503
 20
32.5132
 30
0.000000
  70
    32
  0
VERTEX
  8
0
  5
ADB
 10
22.1558
 20
32.5145
 30
0.000000
  70
    32
  0
VERTEX
  8
0
  5
ADC
 10
22.1612
 20
32.5158
 30
0.000000
  70
    32
  0
VERTEX
  8
0
  5
ADD
 10
22.1666
 20
32.5172
 30
0.000000
  70
    32
  0
VERTEX
  8
0
  5
ADE
 10
22.1721
 20
32.5187
 30
0.000000
  70
    32
  0
VERTEX
  8
0
  5
ADF
 10
22.1774
 20
32.5202
 30
0.000000
  70
    32
  0
VERTEX
  8
0
  5
AE0
 10
22.1828
 20
32.5218
 30
0.000000
  70
    32
  0
VERTEX
  8
0
  5
AE1
 10
22.1882
 20
32.5234
 30
0.000000
  70
    32
  0
VERTEX
  8
0
  5
AE2
 10
22.1935
 20
32.5251
 30
0.000000
  70
    32
  0
VERTEX
  8
0
  5
AE3
 10
22.1988
 20
32.5268
 30
0.000000
  70
    32
  0
VERTEX
  8
0
  5
AE4
 10
22.2041
 20
32.5286
 30
0.000000
  70
    32
  0
VERTEX
  8
0
  5
AE5
 10
22.2093
 20
32.5304
 30
0.000000
  70
    32
  0
VERTEX
  8
0
  5
AE6
 10
22.2145
 20
32.5324
 30
0.000000
  70
    32
  0
VERTEX
  8
0
  5
AE7
 10
22.2197
 20
32.5343
 30
0.000000
  70
    32
  0
VERTEX
  8
0
  5
AE8
 10
22.2249
 20
32.5363
 30
0.000000
  70
    32
  0
VERTEX
  8
0
  5
AE9
 10
22.2300
 20
32.5384
 30
0.000000
  70
    32
  0
VERTEX
  8
0
  5
AEA
 10
22.2352
 20
32.5405
 30
0.000000
  70
    32
  0
VERTEX
  8
0
  5
AEB
 10
22.2402
 20
32.5427
 30
0.000000
  70
    32
  0
VERTEX
  8
0
  5
AEC
 10
22.2453
 20
32.5449
 30
0.000000
  70
    32
  0
VERTEX
  8
0
  5
AED
 10
22.2503
 20
32.5472
 30
0.000000
  70
    32
  0
VERTEX
  8
0
  5
AEE
 10
22.2553
 20
32.5496
 30
0.000000
  70
    32
  0
VERTEX
  8
0
  5
AEF
 10
22.2602
 20
32.5520
 30
0.000000
  70
    32
  0
VERTEX
  8
0
  5
AF0
 10
22.2651
 20
32.5544
 30
0.000000
  70
    32
  0
VERTEX
  8
0
  5
AF1
 10
22.2700
 20
32.5569
 30
0.000000
  70
    32
  0
VERTEX
  8
0
  5
AF2
 10
22.2749
 20
32.5595
 30
0.000000
  70
    32
  0
VERTEX
  8
0
  5
AF3
 10
22.2797
 20
32.5621
 30
0.000000
  70
    32
  0
VERTEX
  8
0
  5
AF4
 10
22.2844
 20
32.5647
 30
0.000000
  70
    32
  0
VERTEX
  8
0
  5
AF5
 10
22.2892
 20
32.5674
 30
0.000000
  70
    32
  0
VERTEX
  8
0
  5
AF6
 10
22.2939
 20
32.5702
 30
0.000000
  70
    32
  0
VERTEX
  8
0
  5
AF7
 10
22.2985
 20
32.5730
 30
0.000000
  70
    32
  0
VERTEX
  8
0
  5
AF8
 10
22.3031
 20
32.5758
 30
0.000000
  70
    32
  0
VERTEX
  8
0
  5
AF9
 10
22.3077
 20
32.5787
 30
0.000000
  70
    32
  0
VERTEX
  8
0
  5
AFA
 10
22.3122
 20
32.5817
 30
0.000000
  70
    32
  0
VERTEX
  8
0
  5
AFB
 10
22.3167
 20
32.5847
 30
0.000000
  70
    32
  0
VERTEX
  8
0
  5
AFC
 10
22.3212
 20
32.5877
 30
0.000000
  70
    32
  0
VERTEX
  8
0
  5
AFD
 10
22.3256
 20
32.5908
 30
0.000000
  70
    32
  0
VERTEX
  8
0
  5
AFE
 10
22.3299
 20
32.5939
 30
0.000000
  70
    32
  0
VERTEX
  8
0
  5
AFF
 10
22.3343
 20
32.5971
 30
0.000000
  70
    32
  0
VERTEX
  8
0
  5
B00
 10
22.3385
 20
32.6003
 30
0.000000
  70
    32
  0
VERTEX
  8
0
  5
B01
 10
22.3427
 20
32.6036
 30
0.000000
  70
    32
  0
VERTEX
  8
0
  5
B02
 10
22.3469
 20
32.6069
 30
0.000000
  70
    32
  0
VERTEX
  8
0
  5
B03
 10
22.3511
 20
32.6103
 30
0.000000
  70
    32
  0
VERTEX
  8
0
  5
B04
 10
22.3551
 20
32.6137
 30
0.000000
  70
    32
  0
VERTEX
  8
0
  5
B05
 10
22.3592
 20
32.6172
 30
0.000000
  70
    32
  0
VERTEX
  8
0
  5
B06
 10
22.3631
 20
32.6206
 30
0.000000
  70
    32
  0
VERTEX
  8
0
  5
B07
 10
22.3671
 20
32.6242
 30
0.000000
  70
    32
  0
VERTEX
  8
0
  5
B08
 10
22.3710
 20
32.6278
 30
0.000000
  70
    32
  0
VERTEX
  8
0
  5
B09
 10
22.3748
 20
32.6314
 30
0.000000
  70
    32
  0
VERTEX
  8
0
  5
B0A
 10
22.3786
 20
32.6350
 30
0.000000
  70
    32
  0
VERTEX
  8
0
  5
B0B
 10
22.3823
 20
32.6387
 30
0.000000
  70
    32
  0
VERTEX
  8
0
  5
B0C
 10
22.3860
 20
32.6425
 30
0.000000
  70
    32
  0
VERTEX
  8
0
  5
B0D
 10
22.3896
 20
32.6462
 30
0.000000
  70
    32
  0
VERTEX
  8
0
  5
B0E
 10
22.3932
 20
32.6501
 30
0.000000
  70
    32
  0
VERTEX
  8
0
  5
B0F
 10
22.3967
 20
32.6539
 30
0.000000
  70
    32
  0
VERTEX
  8
0
  5
B10
 10
22.4001
 20
32.6578
 30
0.000000
  70
    32
  0
VERTEX
  8
0
  5
B11
 10
22.4036
 20
32.6617
 30
0.000000
  70
    32
  0
VERTEX
  8
0
  5
B12
 10
22.4069
 20
32.6657
 30
0.000000
  70
    32
  0
VERTEX
  8
0
  5
B13
 10
22.4102
 20
32.6697
 30
0.000000
  70
    32
  0
VERTEX
  8
0
  5
B14
 10
22.4134
 20
32.6737
 30
0.000000
  70
    32
  0
VERTEX
  8
0
  5
B15
 10
22.4166
 20
32.6778
 30
0.000000
  70
    32
  0
VERTEX
  8
0
  5
B16
 10
22.4197
 20
32.6819
 30
0.000000
  70
    32
  0
VERTEX
  8
0
  5
B17
 10
22.4228
 20
32.6860
 30
0.000000
  70
    32
  0
VERTEX
  8
0
  5
B18
 10
22.4258
 20
32.6902
 30
0.000000
  70
    32
  0
VERTEX
  8
0
  5
B19
 10
22.4287
 20
32.6944
 30
0.000000
  70
    32
  0
VERTEX
  8
0
  5
B1A
 10
22.4316
 20
32.6986
 30
0.000000
  70
    32
  0
VERTEX
  8
0
  5
B1B
 10
22.4344
 20
32.7028
 30
0.000000
  70
    32
  0
VERTEX
  8
0
  5
B1C
 10
22.4372
 20
32.7071
 30
0.000000
  70
    32
  0
VERTEX
  8
0
  5
B1D
 10
22.4399
 20
32.7114
 30
0.000000
  70
    32
  0
VERTEX
  8
0
  5
B1E
 10
22.4425
 20
32.7158
 30
0.000000
  70
    32
  0
VERTEX
  8
0
  5
B1F
 10
22.4451
 20
32.7202
 30
0.000000
  70
    32
  0
VERTEX
  8
0
  5
B20
 10
22.4476
 20
32.7246
 30
0.000000
  70
    32
  0
VERTEX
  8
0
  5
B21
 10
22.4501
 20
32.7290
 30
0.000000
  70
    32
  0
VERTEX
  8
0
  5
B22
 10
22.4525
 20
32.7334
 30
0.000000
  70
    32
  0
VERTEX
  8
0
  5
B23
 10
22.4548
 20
32.7379
 30
0.000000
  70
    32
  0
VERTEX
  8
0
  5
B24
 10
22.4571
 20
32.7424
 30
0.000000
  70
    32
  0
VERTEX
  8
0
  5
B25
 10
22.4593
 20
32.7469
 30
0.000000
  70
    32
  0
VERTEX
  8
0
  5
B26
 10
22.4614
 20
32.7515
 30
0.000000
  70
    32
  0
VERTEX
  8
0
  5
B27
 10
22.4635
 20
32.7560
 30
0.000000
  70
    32
  0
VERTEX
  8
0
  5
B28
 10
22.4655
 20
32.7606
 30
0.000000
  70
    32
  0
VERTEX
  8
0
  5
B29
 10
22.4674
 20
32.7652
 30
0.000000
  70
    32
  0
VERTEX
  8
0
  5
B2A
 10
22.4693
 20
32.7699
 30
0.000000
  70
    32
  0
VERTEX
  8
0
  5
B2B
 10
22.4711
 20
32.7745
 30
0.000000
  70
    32
  0
VERTEX
  8
0
  5
B2C
 10
22.4729
 20
32.7792
 30
0.000000
  70
    32
  0
VERTEX
  8
0
  5
B2D
 10
22.4746
 20
32.7839
 30
0.000000
  70
    32
  0
VERTEX
  8
0
  5
B2E
 10
22.4762
 20
32.7886
 30
0.000000
  70
    32
  0
VERTEX
  8
0
  5
B2F
 10
22.4777
 20
32.7933
 30
0.000000
  70
    32
  0
VERTEX
  8
0
  5
B30
 10
22.4792
 20
32.7981
 30
0.000000
  70
    32
  0
VERTEX
  8
0
  5
B31
 10
22.4806
 20
32.8028
 30
0.000000
  70
    32
  0
VERTEX
  8
0
  5
B32
 10
22.4819
 20
32.8076
 30
0.000000
  70
    32
  0
VERTEX
  8
0
  5
B33
 10
22.4832
 20
32.8124
 30
0.000000
  70
    32
  0
VERTEX
  8
0
  5
B34
 10
22.4844
 20
32.8172
 30
0.000000
  70
    32
  0
VERTEX
  8
0
  5
B35
 10
22.4856
 20
32.8220
 30
0.000000
  70
    32
  0
VERTEX
  8
0
  5
B36
 10
22.4866
 20
32.8268
 30
0.000000
  70
    32
  0
VERTEX
  8
0
  5
B37
 10
22.4876
 20
32.8316
 30
0.000000
  70
    32
  0
VERTEX
  8
0
  5
B38
 10
22.4886
 20
32.8365
 30
0.000000
  70
    32
  0
VERTEX
  8
0
  5
B39
 10
22.4894
 20
32.8413
 30
0.000000
  70
    32
  0
VERTEX
  8
0
  5
B3A
 10
22.4902
 20
32.8462
 30
0.000000
  70
    32
  0
VERTEX
  8
0
  5
B3B
 10
22.4910
 20
32.8510
 30
0.000000
  70
    32
  0
VERTEX
  8
0
  5
B3C
 10
22.4916
 20
32.8559
 30
0.000000
  70
    32
  0
VERTEX
  8
0
  5
B3D
 10
22.4922
 20
32.8608
 30
0.000000
  70
    32
  0
VERTEX
  8
0
  5
B3E
 10
22.4927
 20
32.8657
 30
0.000000
  70
    32
  0
VERTEX
  8
0
  5
B3F
 10
22.4932
 20
32.8706
 30
0.000000
  70
    32
  0
VERTEX
  8
0
  5
B40
 10
22.4936
 20
32.8755
 30
0.000000
  70
    32
  0
VERTEX
  8
0
  5
B41
 10
22.4939
 20
32.8804
 30
0.000000
  70
    32
  0
VERTEX
  8
0
  5
B42
 10
22.4941
 20
32.8853
 30
0.000000
  70
    32
  0
VERTEX
  8
0
  5
B43
 10
22.4943
 20
32.8902
 30
0.000000
  70
    32
  0
VERTEX
  8
0
  5
B44
 10
22.4944
 20
32.8951
 30
0.000000
  70
    32
  0
VERTEX
  8
0
  5
B45
 10
22.4944
 20
32.9000
 30
0.000000
  70
    32
  0
SEQEND
  8
0
  5
B46
  0
LINE
  5
931
  8
0
 10
26.24722334556283
 20
32.5
 30
0.0
 11
26.24722334556283
 21
41.275106109678738
 31
0.0
  0
ARC
  5
932
  8
0
 10
30.165805751673918
 20
28.364437181554649
 30
0.0
 40
13.49224444801944
 50
90.704123687869796
 51
106.8838337194025
  0
ARC
  5
933
  8
0
 10
24.370835018344241
 20
38.440290935271832
 30
0.0
 40
3.3995602991518941
 50
56.499085146464267
 51
116.4990856625064
  0
LINE
  5
934
  8
0
 10
22.494446691125638
 20
32.899999963119633
 30
0.0
 11
22.494446691125638
 21
41.275106109678738
 31
0.0
  0
LINE
  5
935
  8
0
 10
36.250000093132293
 20
42.000000104308121
 30
0.0
 11
37.505553308874397
 21
41.275106109678738
 31
0.0
  0
LINE
  5
936
  8
0
 10
23.74999990686776
 20
42.000000104308121
 30
0.0
 11
36.2500000931323
 21
42.000000104308121
 31
0.0
  0
LINE
  5
938
  8
0
 10
37.505553308874397
 20
32.899999963119633
 30
0.0
 11
37.505553308874397
 21
41.275106109678738
 31
0.0
  0
POLYLINE
  5
939
  8
0
 10
37.505553499465151
 20
32.899999999999977
 30
0.0
 66
     1
 70
     8
  0
VERTEX
  8
0
  5
B47
 10
37.5056
 20
32.9000
 30
0.000000
  70
    32
  0
VERTEX
  8
0
  5
B48
 10
37.5056
 20
32.8951
 30
1.06275e-034
  70
    32
  0
VERTEX
  8
0
  5
B49
 10
37.5057
 20
32.8902
 30
2.12533e-034
  70
    32
  0
VERTEX
  8
0
  5
B4A
 10
37.5059
 20
32.8853
 30
3.18760e-034
  70
    32
  0
VERTEX
  8
0
  5
B4B
 10
37.5061
 20
32.8804
 30
4.24939e-034
  70
    32
  0
VERTEX
  8
0
  5
B4C
 10
37.5064
 20
32.8755
 30
5.31053e-034
  70
    32
  0
VERTEX
  8
0
  5
B4D
 10
37.5068
 20
32.8706
 30
6.37088e-034
  70
    32
  0
VERTEX
  8
0
  5
B4E
 10
37.5073
 20
32.8657
 30
7.43027e-034
  70
    32
  0
VERTEX
  8
0
  5
B4F
 10
37.5078
 20
32.8608
 30
8.48853e-034
  70
    32
  0
VERTEX
  8
0
  5
B50
 10
37.5084
 20
32.8559
 30
9.54552e-034
  70
    32
  0
VERTEX
  8
0
  5
B51
 10
37.5090
 20
32.8510
 30
1.06011e-033
  70
    32
  0
VERTEX
  8
0
  5
B52
 10
37.5098
 20
32.8462
 30
1.16550e-033
  70
    32
  0
VERTEX
  8
0
  5
B53
 10
37.5106
 20
32.8413
 30
1.27072e-033
  70
    32
  0
VERTEX
  8
0
  5
B54
 10
37.5114
 20
32.8365
 30
1.37575e-033
  70
    32
  0
VERTEX
  8
0
  5
B55
 10
37.5124
 20
32.8316
 30
1.48057e-033
  70
    32
  0
VERTEX
  8
0
  5
B56
 10
37.5134
 20
32.8268
 30
1.58517e-033
  70
    32
  0
VERTEX
  8
0
  5
B57
 10
37.5144
 20
32.8220
 30
1.68953e-033
  70
    32
  0
VERTEX
  8
0
  5
B58
 10
37.5156
 20
32.8172
 30
1.79364e-033
  70
    32
  0
VERTEX
  8
0
  5
B59
 10
37.5168
 20
32.8124
 30
1.89747e-033
  70
    32
  0
VERTEX
  8
0
  5
B5A
 10
37.5181
 20
32.8076
 30
2.00102e-033
  70
    32
  0
VERTEX
  8
0
  5
B5B
 10
37.5194
 20
32.8028
 30
2.10427e-033
  70
    32
  0
VERTEX
  8
0
  5
B5C
 10
37.5208
 20
32.7981
 30
2.20720e-033
  70
    32
  0
VERTEX
  8
0
  5
B5D
 10
37.5223
 20
32.7933
 30
2.30980e-033
  70
    32
  0
VERTEX
  8
0
  5
B5E
 10
37.5238
 20
32.7886
 30
2.41205e-033
  70
    32
  0
VERTEX
  8
0
  5
B5F
 10
37.5254
 20
32.7839
 30
2.51394e-033
  70
    32
  0
VERTEX
  8
0
  5
B60
 10
37.5271
 20
32.7792
 30
2.61545e-033
  70
    32
  0
VERTEX
  8
0
  5
B61
 10
37.5289
 20
32.7745
 30
2.71656e-033
  70
    32
  0
VERTEX
  8
0
  5
B62
 10
37.5307
 20
32.7699
 30
2.81727e-033
  70
    32
  0
VERTEX
  8
0
  5
B63
 10
37.5326
 20
32.7652
 30
2.91755e-033
  70
    32
  0
VERTEX
  8
0
  5
B64
 10
37.5345
 20
32.7606
 30
3.01739e-033
  70
    32
  0
VERTEX
  8
0
  5
B65
 10
37.5365
 20
32.7560
 30
3.11678e-033
  70
    32
  0
VERTEX
  8
0
  5
B66
 10
37.5386
 20
32.7515
 30
3.21570e-033
  70
    32
  0
VERTEX
  8
0
  5
B67
 10
37.5407
 20
32.7469
 30
3.31414e-033
  70
    32
  0
VERTEX
  8
0
  5
B68
 10
37.5429
 20
32.7424
 30
3.41207e-033
  70
    32
  0
VERTEX
  8
0
  5
B69
 10
37.5452
 20
32.7379
 30
3.50949e-033
  70
    32
  0
VERTEX
  8
0
  5
B6A
 10
37.5475
 20
32.7334
 30
3.60639e-033
  70
    32
  0
VERTEX
  8
0
  5
B6B
 10
37.5499
 20
32.7290
 30
3.70274e-033
  70
    32
  0
VERTEX
  8
0
  5
B6C
 10
37.5524
 20
32.7246
 30
3.79853e-033
  70
    32
  0
VERTEX
  8
0
  5
B6D
 10
37.5549
 20
32.7202
 30
3.89375e-033
  70
    32
  0
VERTEX
  8
0
  5
B6E
 10
37.5575
 20
32.7158
 30
3.98838e-033
  70
    32
  0
VERTEX
  8
0
  5
B6F
 10
37.5601
 20
32.7114
 30
4.08242e-033
  70
    32
  0
VERTEX
  8
0
  5
B70
 10
37.5628
 20
32.7071
 30
4.17583e-033
  70
    32
  0
VERTEX
  8
0
  5
B71
 10
37.5656
 20
32.7028
 30
4.26862e-033
  70
    32
  0
VERTEX
  8
0
  5
B72
 10
37.5684
 20
32.6986
 30
4.36077e-033
  70
    32
  0
VERTEX
  8
0
  5
B73
 10
37.5713
 20
32.6944
 30
4.45226e-033
  70
    32
  0
VERTEX
  8
0
  5
B74
 10
37.5742
 20
32.6902
 30
4.54308e-033
  70
    32
  0
VERTEX
  8
0
  5
B75
 10
37.5772
 20
32.6860
 30
4.63322e-033
  70
    32
  0
VERTEX
  8
0
  5
B76
 10
37.5803
 20
32.6819
 30
4.72265e-033
  70
    32
  0
VERTEX
  8
0
  5
B77
 10
37.5834
 20
32.6778
 30
4.81138e-033
  70
    32
  0
VERTEX
  8
0
  5
B78
 10
37.5866
 20
32.6737
 30
4.89938e-033
  70
    32
  0
VERTEX
  8
0
  5
B79
 10
37.5898
 20
32.6697
 30
4.98665e-033
  70
    32
  0
VERTEX
  8
0
  5
B7A
 10
37.5931
 20
32.6657
 30
5.07316e-033
  70
    32
  0
VERTEX
  8
0
  5
B7B
 10
37.5964
 20
32.6617
 30
5.15891e-033
  70
    32
  0
VERTEX
  8
0
  5
B7C
 10
37.5999
 20
32.6578
 30
5.24388e-033
  70
    32
  0
VERTEX
  8
0
  5
B7D
 10
37.6033
 20
32.6539
 30
5.32806e-033
  70
    32
  0
VERTEX
  8
0
  5
B7E
 10
37.6068
 20
32.6501
 30
5.41144e-033
  70
    32
  0
VERTEX
  8
0
  5
B7F
 10
37.6104
 20
32.6462
 30
5.49401e-033
  70
    32
  0
VERTEX
  8
0
  5
B80
 10
37.6140
 20
32.6425
 30
5.57574e-033
  70
    32
  0
VERTEX
  8
0
  5
B81
 10
37.6177
 20
32.6387
 30
5.65664e-033
  70
    32
  0
VERTEX
  8
0
  5
B82
 10
37.6214
 20
32.6350
 30
5.73669e-033
  70
    32
  0
VERTEX
  8
0
  5
B83
 10
37.6252
 20
32.6314
 30
5.81587e-033
  70
    32
  0
VERTEX
  8
0
  5
B84
 10
37.6290
 20
32.6278
 30
5.89418e-033
  70
    32
  0
VERTEX
  8
0
  5
B85
 10
37.6329
 20
32.6242
 30
5.97160e-033
  70
    32
  0
VERTEX
  8
0
  5
B86
 10
37.6369
 20
32.6206
 30
6.04812e-033
  70
    32
  0
VERTEX
  8
0
  5
B87
 10
37.6408
 20
32.6172
 30
6.12372e-033
  70
    32
  0
VERTEX
  8
0
  5
B88
 10
37.6449
 20
32.6137
 30
6.19841e-033
  70
    32
  0
VERTEX
  8
0
  5
B89
 10
37.6489
 20
32.6103
 30
6.27216e-033
  70
    32
  0
VERTEX
  8
0
  5
B8A
 10
37.6531
 20
32.6069
 30
6.34497e-033
  70
    32
  0
VERTEX
  8
0
  5
B8B
 10
37.6573
 20
32.6036
 30
6.41682e-033
  70
    32
  0
VERTEX
  8
0
  5
B8C
 10
37.6615
 20
32.6003
 30
6.48771e-033
  70
    32
  0
VERTEX
  8
0
  5
B8D
 10
37.6657
 20
32.5971
 30
6.55762e-033
  70
    32
  0
VERTEX
  8
0
  5
B8E
 10
37.6701
 20
32.5939
 30
6.62654e-033
  70
    32
  0
VERTEX
  8
0
  5
B8F
 10
37.6744
 20
32.5908
 30
6.69447e-033
  70
    32
  0
VERTEX
  8
0
  5
B90
 10
37.6788
 20
32.5877
 30
6.76138e-033
  70
    32
  0
VERTEX
  8
0
  5
B91
 10
37.6833
 20
32.5847
 30
6.82728e-033
  70
    32
  0
VERTEX
  8
0
  5
B92
 10
37.6878
 20
32.5817
 30
6.89215e-033
  70
    32
  0
VERTEX
  8
0
  5
B93
 10
37.6923
 20
32.5787
 30
6.95598e-033
  70
    32
  0
VERTEX
  8
0
  5
B94
 10
37.6969
 20
32.5758
 30
7.01877e-033
  70
    32
  0
VERTEX
  8
0
  5
B95
 10
37.7015
 20
32.5730
 30
7.08049e-033
  70
    32
  0
VERTEX
  8
0
  5
B96
 10
37.7061
 20
32.5702
 30
7.14115e-033
  70
    32
  0
VERTEX
  8
0
  5
B97
 10
37.7108
 20
32.5674
 30
7.20074e-033
  70
    32
  0
VERTEX
  8
0
  5
B98
 10
37.7156
 20
32.5647
 30
7.25924e-033
  70
    32
  0
VERTEX
  8
0
  5
B99
 10
37.7203
 20
32.5621
 30
7.31665e-033
  70
    32
  0
VERTEX
  8
0
  5
B9A
 10
37.7251
 20
32.5595
 30
7.37295e-033
  70
    32
  0
VERTEX
  8
0
  5
B9B
 10
37.7300
 20
32.5569
 30
7.42815e-033
  70
    32
  0
VERTEX
  8
0
  5
B9C
 10
37.7349
 20
32.5544
 30
7.48222e-033
  70
    32
  0
VERTEX
  8
0
  5
B9D
 10
37.7398
 20
32.5520
 30
7.53517e-033
  70
    32
  0
VERTEX
  8
0
  5
B9E
 10
37.7447
 20
32.5496
 30
7.58699e-033
  70
    32
  0
VERTEX
  8
0
  5
B9F
 10
37.7497
 20
32.5472
 30
7.63766e-033
  70
    32
  0
VERTEX
  8
0
  5
BA0
 10
37.7547
 20
32.5449
 30
7.68718e-033
  70
    32
  0
VERTEX
  8
0
  5
BA1
 10
37.7598
 20
32.5427
 30
7.73555e-033
  70
    32
  0
VERTEX
  8
0
  5
BA2
 10
37.7648
 20
32.5405
 30
7.78275e-033
  70
    32
  0
VERTEX
  8
0
  5
BA3
 10
37.7700
 20
32.5384
 30
7.82878e-033
  70
    32
  0
VERTEX
  8
0
  5
BA4
 10
37.7751
 20
32.5363
 30
7.87363e-033
  70
    32
  0
VERTEX
  8
0
  5
BA5
 10
37.7803
 20
32.5343
 30
7.91729e-033
  70
    32
  0
VERTEX
  8
0
  5
BA6
 10
37.7855
 20
32.5324
 30
7.95976e-033
  70
    32
  0
VERTEX
  8
0
  5
BA7
 10
37.7907
 20
32.5304
 30
8.00103e-033
  70
    32
  0
VERTEX
  8
0
  5
BA8
 10
37.7959
 20
32.5286
 30
8.04110e-033
  70
    32
  0
VERTEX
  8
0
  5
BA9
 10
37.8012
 20
32.5268
 30
8.07995e-033
  70
    32
  0
VERTEX
  8
0
  5
BAA
 10
37.8065
 20
32.5251
 30
8.11759e-033
  70
    32
  0
VERTEX
  8
0
  5
BAB
 10
37.8118
 20
32.5234
 30
8.15401e-033
  70
    32
  0
VERTEX
  8
0
  5
BAC
 10
37.8172
 20
32.5218
 30
8.18920e-033
  70
    32
  0
VERTEX
  8
0
  5
BAD
 10
37.8226
 20
32.5202
 30
8.22316e-033
  70
    32
  0
VERTEX
  8
0
  5
BAE
 10
37.8279
 20
32.5187
 30
8.25587e-033
  70
    32
  0
VERTEX
  8
0
  5
BAF
 10
37.8334
 20
32.5172
 30
8.28735e-033
  70
    32
  0
VERTEX
  8
0
  5
BB0
 10
37.8388
 20
32.5158
 30
8.31757e-033
  70
    32
  0
VERTEX
  8
0
  5
BB1
 10
37.8442
 20
32.5145
 30
8.34655e-033
  70
    32
  0
VERTEX
  8
0
  5
BB2
 10
37.8497
 20
32.5132
 30
8.37426e-033
  70
    32
  0
VERTEX
  8
0
  5
BB3
 10
37.8552
 20
32.5120
 30
8.40072e-033
  70
    32
  0
VERTEX
  8
0
  5
BB4
 10
37.8607
 20
32.5108
 30
8.42591e-033
  70
    32
  0
VERTEX
  8
0
  5
BB5
 10
37.8662
 20
32.5097
 30
8.44983e-033
  70
    32
  0
VERTEX
  8
0
  5
BB6
 10
37.8718
 20
32.5087
 30
8.47248e-033
  70
    32
  0
VERTEX
  8
0
  5
BB7
 10
37.8773
 20
32.5077
 30
8.49385e-033
  70
    32
  0
VERTEX
  8
0
  5
BB8
 10
37.8829
 20
32.5068
 30
8.51394e-033
  70
    32
  0
VERTEX
  8
0
  5
BB9
 10
37.8885
 20
32.5059
 30
8.53275e-033
  70
    32
  0
VERTEX
  8
0
  5
BBA
 10
37.8941
 20
32.5051
 30
8.55028e-033
  70
    32
  0
VERTEX
  8
0
  5
BBB
 10
37.8997
 20
32.5043
 30
8.56652e-033
  70
    32
  0
VERTEX
  8
0
  5
BBC
 10
37.9053
 20
32.5036
 30
8.58147e-033
  70
    32
  0
VERTEX
  8
0
  5
BBD
 10
37.9109
 20
32.5030
 30
8.59512e-033
  70
    32
  0
VERTEX
  8
0
  5
BBE
 10
37.9165
 20
32.5024
 30
8.60749e-033
  70
    32
  0
VERTEX
  8
0
  5
BBF
 10
37.9222
 20
32.5019
 30
8.61855e-033
  70
    32
  0
VERTEX
  8
0
  5
BC0
 10
37.9278
 20
32.5015
 30
8.62832e-033
  70
    32
  0
VERTEX
  8
0
  5
BC1
 10
37.9335
 20
32.5011
 30
8.63679e-033
  70
    32
  0
VERTEX
  8
0
  5
BC2
 10
37.9391
 20
32.5008
 30
8.64396e-033
  70
    32
  0
VERTEX
  8
0
  5
BC3
 10
37.9448
 20
32.5005
 30
8.64982e-033
  70
    32
  0
VERTEX
  8
0
  5
BC4
 10
37.9504
 20
32.5003
 30
8.65439e-033
  70
    32
  0
VERTEX
  8
0
  5
BC5
 10
37.9561
 20
32.5001
 30
8.65765e-033
  70
    32
  0
VERTEX
  8
0
  5
BC6
 10
37.9618
 20
32.5000
 30
8.65960e-033
  70
    32
  0
VERTEX
  8
0
  5
BC7
 10
37.9674
 20
32.5000
 30
8.66025e-033
  70
    32
  0
SEQEND
  8
0
  5
BC8
  0
LINE
  5
93C
  8
0
 10
33.75277665443717
 20
32.5
 30
0.0
 11
33.75277665443717
 21
41.275106109678738
 31
0.0
  0
ARC
  5
93D
  8
0
 10
29.834194248326089
 20
28.364437181554649
 30
0.0
 40
13.49224444801944
 50
73.116166280597497
 51
89.295876312130204
  0
ARC
  5
93E
  8
0
 10
35.629164981655762
 20
38.440290935271832
 30
0.0
 40
3.3995602991518941
 50
63.500914337486762
 51
123.5009148535357
  0
ENDSEC
  0
EOF
