  0
SECTION
  2
HEADER
  9
$ACADVER
  1
AC1009
  9
$INSBASE
 10
0.0
 20
0.0
 30
0.0
  9
$EXTMIN
 10
0.0
 20
-1.4802182810368341
 30
0.0
  9
$EXTMAX
 10
132.9999999999996
 20
130.9999999999998
 30
0.0
  9
$LIMMIN
 10
0.0
 20
0.0
  9
$LIMMAX
 10
187.5
 20
135.0
  9
$ORTHOMODE
 70
     1
  9
$REGENMODE
 70
     1
  9
$FILLMODE
 70
     1
  9
$QTEXTMODE
 70
     0
  9
$MIRRTEXT
 70
     0
  9
$DRAGMODE
 70
     2
  9
$LTSCALE
 40
5.0
  9
$OSMODE
 70
    37
  9
$ATTMODE
 70
     1
  9
$TEXTSIZE
 40
0.2
  9
$TRACEWID
 40
0.05
  9
$TEXTSTYLE
  7
STANDARD
  9
$CLAYER
  8
0
  9
$CELTYPE
  6
BYLAYER
  9
$CECOLOR
 62
   256
  9
$DIMSCALE
 40
0.5
  9
$DIMASZ
 40
3.0
  9
$DIMEXO
 40
2.0
  9
$DIMDLI
 40
0.38
  9
$DIMRND
 40
0.0
  9
$DIMDLE
 40
0.0
  9
$DIMEXE
 40
2.0
  9
$DIMTP
 40
0.0
  9
$DIMTM
 40
0.0
  9
$DIMTXT
 40
3.2000000000000002
  9
$DIMCEN
 40
0.0
  9
$DIMTSZ
 40
0.0
  9
$DIMTOL
 70
     0
  9
$DIMLIM
 70
     0
  9
$DIMTIH
 70
     0
  9
$DIMTOH
 70
     0
  9
$DIMSE1
 70
     0
  9
$DIMSE2
 70
     0
  9
$DIMTAD
 70
     1
  9
$DIMZIN
 70
     8
  9
$DIMBLK
  1

  9
$DIMASO
 70
     0
  9
$DIMSHO
 70
     0
  9
$DIMPOST
  1

  9
$DIMAPOST
  1

  9
$DIMALT
 70
     0
  9
$DIMALTD
 70
     2
  9
$DIMALTF
 40
25.399999999999999
  9
$DIMLFAC
 40
1.0
  9
$DIMTOFL
 70
     1
  9
$DIMTVP
 40
1.6000000000000001
  9
$DIMTIX
 70
     1
  9
$DIMSOXD
 70
     0
  9
$DIMSAH
 70
     0
  9
$DIMBLK1
  1

  9
$DIMBLK2
  1

  9
$DIMSTYLE
  2
STANDARD
  9
$DIMCLRD
 70
     0
  9
$DIMCLRE
 70
     0
  9
$DIMCLRT
 70
     0
  9
$DIMTFAC
 40
1.0
  9
$DIMGAP
 40
0.09
  9
$LUNITS
 70
     2
  9
$LUPREC
 70
     1
  9
$SKETCHINC
 40
0.1
  9
$FILLETRAD
 40
0.0
  9
$AUNITS
 70
     0
  9
$AUPREC
 70
     1
  9
$MENU
  1
E:\r13\win\SUPPORT\ACAD
  9
$ELEVATION
 40
0.0
  9
$PELEVATION
 40
0.0
  9
$THICKNESS
 40
0.0
  9
$LIMCHECK
 70
     0
  9
$BLIPMODE
 70
     0
  9
$CHAMFERA
 40
0.0
  9
$CHAMFERB
 40
0.0
  9
$SKPOLY
 70
     0
  9
$TDCREATE
 40
2449839.7696759258
  9
$TDUPDATE
 40
2458920.4091221071
  9
$TDINDWG
 40
0.0080561111
  9
$TDUSRTIMER
 40
0.0080561111
  9
$USRTIMER
 70
     1
  9
$ANGBASE
 50
0.0
  9
$ANGDIR
 70
     0
  9
$PDMODE
 70
     0
  9
$PDSIZE
 40
0.0
  9
$PLINEWID
 40
0.0
  9
$COORDS
 70
     1
  9
$SPLFRAME
 70
     0
  9
$SPLINETYPE
 70
     6
  9
$SPLINESEGS
 70
     8
  9
$ATTDIA
 70
     0
  9
$ATTREQ
 70
     1
  9
$HANDLING
 70
     1
  9
$HANDSEED
  5
2D2
  9
$SURFTAB1
 70
     6
  9
$SURFTAB2
 70
     6
  9
$SURFTYPE
 70
     6
  9
$SURFU
 70
     6
  9
$SURFV
 70
     6
  9
$UCSNAME
  2

  9
$UCSORG
 10
0.0
 20
0.0
 30
0.0
  9
$UCSXDIR
 10
1.0
 20
0.0
 30
0.0
  9
$UCSYDIR
 10
0.0
 20
1.0
 30
0.0
  9
$PUCSNAME
  2

  9
$PUCSORG
 10
0.0
 20
0.0
 30
0.0
  9
$PUCSXDIR
 10
1.0
 20
0.0
 30
0.0
  9
$PUCSYDIR
 10
0.0
 20
1.0
 30
0.0
  9
$USERI1
 70
     0
  9
$USERI2
 70
     1
  9
$USERI3
 70
     0
  9
$USERI4
 70
     0
  9
$USERI5
 70
     0
  9
$USERR1
 40
0.0
  9
$USERR2
 40
0.0
  9
$USERR3
 40
0.0
  9
$USERR4
 40
0.0
  9
$USERR5
 40
0.0
  9
$WORLDVIEW
 70
     1
  9
$SHADEDGE
 70
     3
  9
$SHADEDIF
 70
    70
  9
$TILEMODE
 70
     1
  9
$MAXACTVP
 70
    16
  9
$PLIMCHECK
 70
     0
  9
$PEXTMIN
 10
1.0000000000000000E+020
 20
1.0000000000000000E+020
 30
1.0000000000000000E+020
  9
$PEXTMAX
 10
-1.0000000000000000E+020
 20
-1.0000000000000000E+020
 30
-1.0000000000000000E+020
  9
$PLIMMIN
 10
0.0
 20
0.0
  9
$PLIMMAX
 10
12.0
 20
9.0
  9
$UNITMODE
 70
     0
  9
$VISRETAIN
 70
     0
  9
$PLINEGEN
 70
     0
  9
$PSLTSCALE
 70
     0
  0
ENDSEC
  0
SECTION
  2
TABLES
  0
TABLE
  2
VPORT
 70
     1
  0
VPORT
  2
*ACTIVE
 70
     0
 10
0.0
 20
0.0
 11
1.0
 21
1.0
 12
241.56441717791409
 22
100.0
 13
0.0
 23
0.0
 14
5.0
 24
5.0
 15
5.0
 25
5.0
 16
0.0
 26
0.0
 36
1.0
 17
0.0
 27
0.0
 37
0.0
 40
200.0
 41
2.415644171779141
 42
50.0
 43
0.0
 44
0.0
 50
0.0
 51
0.0
 71
     0
 72
   500
 73
     1
 74
     0
 75
     0
 76
     0
 77
     0
 78
     2
  0
ENDTAB
  0
TABLE
  2
LTYPE
 70
     3
  0
LTYPE
  2
CONTINUOUS
 70
     0
  3
Solid Line
 72
    65
 73
     0
 40
0.0
  0
LTYPE
  2
CENTER
 70
     0
  3
____ _ ____ _ ____ _ ____ _ ____ _ ____ _ ____
 72
    65
 73
     4
 40
2.0
 49
1.25
 49
-0.25
 49
0.25
 49
-0.25
  0
LTYPE
  2
PHANTOM2
 70
     0
  3
___ _ _ ___ _ _ ___ _ _ ___ _ _
 72
    65
 73
     6
 40
1.25
 49
0.625
 49
-0.125
 49
0.125
 49
-0.125
 49
0.125
 49
-0.125
  0
ENDTAB
  0
TABLE
  2
LAYER
 70
     3
  0
LAYER
  2
0
 70
     0
 62
     7
  6
CONTINUOUS
  0
LAYER
  2
1
 70
     0
 62
     1
  6
CENTER
  0
LAYER
  2
3
 70
     0
 62
     3
  6
CONTINUOUS
  0
ENDTAB
  0
TABLE
  2
STYLE
 70
     2
  0
STYLE
  2
STANDARD
 70
     0
 40
0.0
 41
1.0
 50
0.0
 71
     0
 42
0.2
  3
TXT
  4
BIGFONT
  0
STYLE
  2
STANDARD1
 70
     0
 40
0.0
 41
1.0
 50
0.0
 71
     0
 42
3.0
  3
txt
  4

  0
ENDTAB
  0
TABLE
  2
VIEW
 70
     1
  0
VIEW
  2
ALL
 70
     0
 40
135.0
 10
110.4957983193277
 20
67.5
 41
0.0
 11
0.0
 21
0.0
 31
1.0
 12
0.0
 22
0.0
 32
0.0
 42
0.0
 43
0.0
 44
0.0
 50
0.0
 71
     0
  0
ENDTAB
  0
TABLE
  2
UCS
 70
     0
  0
ENDTAB
  0
TABLE
  2
APPID
 70
     6
  0
APPID
  2
ACAD
 70
     0
  0
APPID
  2
ACAD_MLEADERVER
 70
     0
  0
APPID
  2
ACAD_EXEMPT_FROM_CAD_STANDARDS
 70
     0
  0
APPID
  2
ACAD_DSTYLE_DIMJAG
 70
     0
  0
APPID
  2
ACAD_DSTYLE_DIMTALN
 70
     0
  0
APPID
  2
ACAD_NAV_VCDISPLAY
 70
     0
  0
ENDTAB
  0
TABLE
  2
DIMSTYLE
 70
     1
  0
DIMSTYLE
  2
STANDARD
 70
     0
  3

  4

  5

  6

  7

 40
1.0
 41
0.18
 42
0.0625
 43
0.38
 44
0.18
 45
0.0
 46
0.0
 47
0.0
 48
0.0
140
0.18
141
0.09
142
0.0
143
25.399999999999999
144
1.0
145
0.0
146
1.0
147
0.09
 71
     0
 72
     0
 73
     1
 74
     1
 75
     0
 76
     0
 77
     0
 78
     0
170
     0
171
     2
172
     0
173
     0
174
     0
175
     0
176
     0
177
     0
178
     0
  0
ENDTAB
  0
ENDSEC
  0
SECTION
  2
BLOCKS
  0
BLOCK
  8
0
  2
$MODEL_SPACE
 70
     0
 10
0.0
 20
0.0
 30
0.0
  3
$MODEL_SPACE
  1

  0
ENDBLK
  5
149
  8
0
  0
BLOCK
 67
     1
  8
0
  2
$PAPER_SPACE
 70
     0
 10
0.0
 20
0.0
 30
0.0
  3
$PAPER_SPACE
  1

  0
ENDBLK
  5
147
 67
     1
  8
0
  0
ENDSEC
  0
SECTION
  2
ENTITIES
  0
CIRCLE
  5
43
  8
0
 10
60.999999999999901
 20
115.0000000000001
 30
0.0
 40
4.25
  0
CIRCLE
  5
44
  8
3
 10
60.999999999999901
 20
115.0000000000001
 30
0.0
 40
5.0
  0
LINE
  5
45
  8
0
 10
70.537939387271777
 20
114.520195618266
 30
0.0
 11
66.184492477064609
 21
106.9798043817334
 31
0.0
  0
ARC
  5
46
  8
0
 10
60.999999999999901
 20
115.0000000000001
 30
0.0
 40
9.5500000000000007
 50
357.12017334747247
 51
2.8798266525267371
  0
ARC
  5
47
  8
0
 10
60.999999999999901
 20
115.0000000000001
 30
0.0
 40
9.5500000000000007
 50
57.120173347472338
 51
62.879826652526717
  0
LINE
  5
48
  8
0
 10
66.184492477064637
 20
123.0201956182666
 30
0.0
 11
70.537939387271777
 21
115.4798043817341
 31
0.0
  0
ARC
  5
49
  8
0
 10
60.999999999999901
 20
115.0000000000001
 30
0.0
 40
9.5500000000000007
 50
117.1201733474722
 51
122.8798266525266
  0
LINE
  5
4A
  8
0
 10
56.646553089792761
 20
123.5000000000007
 30
0.0
 11
65.35344691020704
 21
123.5000000000007
 31
0.0
  0
ARC
  5
4B
  8
0
 10
60.999999999999901
 20
115.0000000000001
 30
0.0
 40
9.5500000000000007
 50
177.12017334747219
 51
182.8798266525267
  0
LINE
  5
4C
  8
0
 10
51.462060612728031
 20
115.4798043817341
 30
0.0
 11
55.815507522935192
 21
123.0201956182666
 31
0.0
  0
ARC
  5
4D
  8
0
 10
60.999999999999901
 20
115.0000000000001
 30
0.0
 40
9.5500000000000007
 50
237.1201733474723
 51
242.8798266525267
  0
LINE
  5
4E
  8
0
 10
55.815507522935157
 20
106.9798043817334
 30
0.0
 11
51.462060612728031
 21
114.520195618266
 31
0.0
  0
ARC
  5
4F
  8
0
 10
60.999999999999901
 20
115.0000000000001
 30
0.0
 40
9.5500000000000007
 50
297.1201733474723
 51
302.87982665252662
  0
LINE
  5
50
  8
0
 10
65.35344691020704
 20
106.4999999999994
 30
0.0
 11
56.646553089792761
 21
106.4999999999994
 31
0.0
  0
CIRCLE
  5
51
  8
0
 10
60.999999999999901
 20
114.9999999999998
 30
0.0
 40
8.0
  0
CIRCLE
  5
52
  8
0
 10
60.999999999999901
 20
114.9999999999998
 30
0.0
 40
11.0
  0
LINE
  5
53
  8
1
 10
60.999999999999901
 20
130.9999999999998
 30
0.0
 11
60.999999999999901
 21
98.99999999999973
 31
0.0
  0
LINE
  5
54
  8
1
 10
45.000000000000071
 20
115.0
 30
0.0
 11
77.000000000000185
 21
115.0
 31
0.0
  0
ARC
  5
55
  8
0
 10
68.162499999999582
 20
61.375000000000043
 30
0.0
 40
3.6267948568005481
 50
71.169949760068334
 51
131.16994976012731
  0
LINE
  5
56
  8
0
 10
65.774999999999878
 20
64.105107082756362
 30
0.0
 11
65.774999999999991
 21
53.000000000000028
 31
0.0
  0
ARC
  5
57
  8
0
 10
61.000000000000007
 20
51.813250010947762
 30
0.0
 40
13.186749989052251
 50
68.770416872587177
 51
90.000000000000398
  0
LINE
  5
58
  8
0
 10
50.499999999999979
 20
52.999999999999972
 30
0.0
 11
71.499999999999787
 21
53.0
 31
0.0
  0
LINE
  5
59
  8
0
 10
50.499999999999979
 20
52.999999999999972
 30
0.0
 11
49.999999999999993
 21
52.499999999999972
 31
0.0
  0
LINE
  5
5A
  8
0
 10
49.999999999999993
 20
52.499999999999972
 30
0.0
 11
50.000000000000007
 21
50.500000000000028
 31
0.0
  0
LINE
  5
5B
  8
0
 10
50.000000000000007
 20
50.500000000000028
 30
0.0
 11
50.500000000000007
 21
50.000000000000028
 31
0.0
  0
ARC
  5
5C
  8
0
 10
51.049999999999912
 20
53.399999999999999
 30
0.0
 40
0.4
 50
270.0
 51
0.0
  0
LINE
  5
5D
  8
0
 10
71.999999999999787
 20
50.500000000000028
 30
0.0
 11
71.499999999999787
 21
50.000000000000028
 31
0.0
  0
LINE
  5
5E
  8
0
 10
71.499999999999787
 20
53.0
 30
0.0
 11
71.999999999999787
 21
52.5
 31
0.0
  0
ARC
  5
5F
  8
0
 10
70.949999999999889
 20
53.399999999999999
 30
0.0
 40
0.4
 50
180.0
 51
270.0
  0
LINE
  5
60
  8
0
 10
51.449999999999918
 20
64.105107082756248
 30
0.0
 11
51.449999999999918
 21
53.438219301848079
 31
0.0
  0
LINE
  5
61
  8
0
 10
56.224999999999923
 20
64.105107082756362
 30
0.0
 11
56.224999999999802
 21
53.000000000000028
 31
0.0
  0
LINE
  5
62
  8
0
 10
68.999999999999673
 20
65.000000000000384
 30
0.0
 11
53.000000000000128
 21
65.000000000000384
 31
0.0
  0
ARC
  5
63
  8
0
 10
60.999999999999787
 20
51.813250010947762
 30
0.0
 40
13.186749989052251
 50
89.999999999999588
 51
111.22958312741279
  0
ARC
  5
64
  8
0
 10
53.837500000000219
 20
61.375000000000043
 30
0.0
 40
3.6267948568005481
 50
131.16994976006779
 51
131.169949760104
  0
ARC
  5
65
  8
0
 10
53.837500000000219
 20
61.375000000000043
 30
0.0
 40
3.6267948568005481
 50
48.830050239872698
 51
108.8300502399315
  0
LINE
  5
66
  8
0
 10
51.449999999999918
 20
64.105107082755964
 30
0.0
 11
53.000000000000128
 21
65.000000000000384
 31
0.0
  0
LINE
  5
67
  8
0
 10
70.549999999999855
 20
64.105107082755964
 30
0.0
 11
68.999999999999673
 21
65.000000000000384
 31
0.0
  0
ARC
  5
68
  8
0
 10
68.162499999999582
 20
61.375000000000043
 30
0.0
 40
3.6267948568005481
 50
48.830050239895968
 51
48.830050239932213
  0
LINE
  5
69
  8
0
 10
71.499999999999787
 20
50.000000000000028
 30
0.0
 11
50.500000000000007
 21
50.000000000000028
 31
0.0
  0
LINE
  5
6A
  8
0
 10
71.999999999999787
 20
52.5
 30
0.0
 11
71.999999999999787
 21
50.500000000000028
 31
0.0
  0
LINE
  5
6B
  8
0
 10
70.549999999999912
 20
64.105107082758465
 30
0.0
 11
70.549999999999912
 21
53.399999999999999
 31
0.0
  0
LINE
  5
6C
  8
0
 10
132.9999999999996
 20
52.499999999999972
 30
0.0
 11
132.9999999999996
 21
50.5
 31
0.0
  0
LINE
  5
6D
  8
0
 10
132.4999999999996
 20
50.0
 30
0.0
 11
111.4999999999999
 21
50.0
 31
0.0
  0
LINE
  5
6E
  8
0
 10
132.4999999999996
 20
52.999999999999972
 30
0.0
 11
132.9999999999996
 21
52.499999999999972
 31
0.0
  0
LINE
  5
6F
  8
0
 10
132.9999999999996
 20
50.5
 30
0.0
 11
132.4999999999996
 21
50.0
 31
0.0
  0
ARC
  5
70
  8
0
 10
113.0999999999998
 20
53.399999999999977
 30
0.0
 40
0.4
 50
270.0
 51
0.0
  0
LINE
  5
71
  8
0
 10
110.9999999999999
 20
50.5
 30
0.0
 11
111.4999999999999
 21
50.0
 31
0.0
  0
LINE
  5
72
  8
0
 10
110.9999999999998
 20
52.499999999999943
 30
0.0
 11
110.9999999999999
 21
50.5
 31
0.0
  0
LINE
  5
73
  8
0
 10
111.4999999999998
 20
52.999999999999943
 30
0.0
 11
110.9999999999998
 21
52.499999999999943
 31
0.0
  0
LINE
  5
74
  8
0
 10
111.4999999999998
 20
52.999999999999943
 30
0.0
 11
132.4999999999996
 21
52.999999999999972
 31
0.0
  0
ARC
  5
76
  8
0
 10
126.2499999999997
 20
54.552685158683857
 30
0.0
 40
10.447314841315981
 50
65.995832269503339
 51
114.0041677304966
  0
ARC
  5
77
  8
0
 10
117.7499999999998
 20
54.552685158683857
 30
0.0
 40
10.447314841315981
 50
65.995832269503339
 51
114.0041677304966
  0
LINE
  5
78
  8
0
 10
130.49999999999969
 20
64.549999999999841
 30
0.0
 11
130.0499999999997
 21
64.999999999999829
 31
0.0
  0
LINE
  5
79
  8
0
 10
113.9499999999998
 20
64.999999999999844
 30
0.0
 11
113.4999999999998
 21
64.549999999999841
 31
0.0
  0
LINE
  5
7A
  8
0
 10
130.0499999999997
 20
64.999999999999829
 30
0.0
 11
113.9499999999998
 21
64.999999999999844
 31
0.0
  0
LINE
  5
7B
  8
0
 10
113.4999999999998
 20
64.549999999999841
 30
0.0
 11
113.4999999999998
 21
53.399999999999977
 31
0.0
  0
LINE
  5
7C
  8
0
 10
121.9999999999997
 20
64.096473054146657
 30
0.0
 11
121.9999999999997
 21
52.999999999999943
 31
0.0
  0
ARC
  5
7D
  8
0
 10
130.89999999999969
 20
53.399999999999977
 30
0.0
 40
0.4
 50
179.99999999999989
 51
270.0
  0
LINE
  5
7E
  8
0
 10
130.4999999999996
 20
64.549999999999841
 30
0.0
 11
130.4999999999996
 21
53.399999999999977
 31
0.0
  0
TEXT
  5
202
  8
0
 62
     3
 10
0.0
 20
0.0
 30
0.0
 40
5.0
  1
BJ740-10001
  7
STANDARD1
  0
LINE
  5
24E
  8
1
 10
60.999999999999901
 20
45.000000000000021
 30
0.0
 11
60.999999999999901
 21
70.000000000000384
 31
0.0
  0
LINE
  5
24F
  8
1
 10
121.9999999999998
 20
45.000000000000021
 30
0.0
 11
121.9999999999998
 21
70.000000000000384
 31
0.0
  0
ENDSEC
  0
EOF
