  0
SECTION
  2
HEADER
  9
$ACADVER
  1
AC1009
  9
$INSBASE
 10
0.0
 20
0.0
 30
0.0
  9
$EXTMIN
 10
0.0
 20
-1.4802182810368341
 30
0.0
  9
$EXTMAX
 10
167.5
 20
163.5
 30
0.0
  9
$LIMMIN
 10
0.0
 20
0.0
  9
$LIMMAX
 10
187.5
 20
135.0
  9
$ORTHOMODE
 70
     1
  9
$REGENMODE
 70
     1
  9
$FILLMODE
 70
     1
  9
$QTEXTMODE
 70
     0
  9
$MIRRTEXT
 70
     0
  9
$DRAGMODE
 70
     2
  9
$LTSCALE
 40
5.0
  9
$OSMODE
 70
    37
  9
$ATTMODE
 70
     1
  9
$TEXTSIZE
 40
0.2
  9
$TRACEWID
 40
0.05
  9
$TEXTSTYLE
  7
STANDARD
  9
$CLAYER
  8
0
  9
$CELTYPE
  6
BYLAYER
  9
$CECOLOR
 62
   256
  9
$DIMSCALE
 40
0.5
  9
$DIMASZ
 40
3.0
  9
$DIMEXO
 40
2.0
  9
$DIMDLI
 40
0.38
  9
$DIMRND
 40
0.0
  9
$DIMDLE
 40
0.0
  9
$DIMEXE
 40
2.0
  9
$DIMTP
 40
0.0
  9
$DIMTM
 40
0.0
  9
$DIMTXT
 40
3.2000000000000002
  9
$DIMCEN
 40
0.0
  9
$DIMTSZ
 40
0.0
  9
$DIMTOL
 70
     0
  9
$DIMLIM
 70
     0
  9
$DIMTIH
 70
     0
  9
$DIMTOH
 70
     0
  9
$DIMSE1
 70
     0
  9
$DIMSE2
 70
     0
  9
$DIMTAD
 70
     1
  9
$DIMZIN
 70
     8
  9
$DIMBLK
  1

  9
$DIMASO
 70
     0
  9
$DIMSHO
 70
     0
  9
$DIMPOST
  1

  9
$DIMAPOST
  1

  9
$DIMALT
 70
     0
  9
$DIMALTD
 70
     2
  9
$DIMALTF
 40
25.399999999999999
  9
$DIMLFAC
 40
1.0
  9
$DIMTOFL
 70
     1
  9
$DIMTVP
 40
1.6000000000000001
  9
$DIMTIX
 70
     1
  9
$DIMSOXD
 70
     0
  9
$DIMSAH
 70
     0
  9
$DIMBLK1
  1

  9
$DIMBLK2
  1

  9
$DIMSTYLE
  2
STANDARD
  9
$DIMCLRD
 70
     0
  9
$DIMCLRE
 70
     0
  9
$DIMCLRT
 70
     0
  9
$DIMTFAC
 40
1.0
  9
$DIMGAP
 40
0.09
  9
$LUNITS
 70
     2
  9
$LUPREC
 70
     1
  9
$SKETCHINC
 40
0.1
  9
$FILLETRAD
 40
0.0
  9
$AUNITS
 70
     0
  9
$AUPREC
 70
     1
  9
$MENU
  1
E:\r13\win\SUPPORT\ACAD
  9
$ELEVATION
 40
0.0
  9
$PELEVATION
 40
0.0
  9
$THICKNESS
 40
0.0
  9
$LIMCHECK
 70
     0
  9
$BLIPMODE
 70
     0
  9
$CHAMFERA
 40
0.0
  9
$CHAMFERB
 40
0.0
  9
$SKPOLY
 70
     0
  9
$TDCREATE
 40
2449839.7697337968
  9
$TDUPDATE
 40
2458920.4091423149
  9
$TDINDWG
 40
0.028369919
  9
$TDUSRTIMER
 40
0.028369919
  9
$USRTIMER
 70
     1
  9
$ANGBASE
 50
0.0
  9
$ANGDIR
 70
     0
  9
$PDMODE
 70
     0
  9
$PDSIZE
 40
0.0
  9
$PLINEWID
 40
0.0
  9
$COORDS
 70
     1
  9
$SPLFRAME
 70
     0
  9
$SPLINETYPE
 70
     6
  9
$SPLINESEGS
 70
     8
  9
$ATTDIA
 70
     0
  9
$ATTREQ
 70
     1
  9
$HANDLING
 70
     1
  9
$HANDSEED
  5
5B0
  9
$SURFTAB1
 70
     6
  9
$SURFTAB2
 70
     6
  9
$SURFTYPE
 70
     6
  9
$SURFU
 70
     6
  9
$SURFV
 70
     6
  9
$UCSNAME
  2

  9
$UCSORG
 10
0.0
 20
0.0
 30
0.0
  9
$UCSXDIR
 10
1.0
 20
0.0
 30
0.0
  9
$UCSYDIR
 10
0.0
 20
1.0
 30
0.0
  9
$PUCSNAME
  2

  9
$PUCSORG
 10
0.0
 20
0.0
 30
0.0
  9
$PUCSXDIR
 10
1.0
 20
0.0
 30
0.0
  9
$PUCSYDIR
 10
0.0
 20
1.0
 30
0.0
  9
$USERI1
 70
     0
  9
$USERI2
 70
     1
  9
$USERI3
 70
     0
  9
$USERI4
 70
     0
  9
$USERI5
 70
     0
  9
$USERR1
 40
0.0
  9
$USERR2
 40
0.0
  9
$USERR3
 40
0.0
  9
$USERR4
 40
0.0
  9
$USERR5
 40
0.0
  9
$WORLDVIEW
 70
     1
  9
$SHADEDGE
 70
     3
  9
$SHADEDIF
 70
    70
  9
$TILEMODE
 70
     1
  9
$MAXACTVP
 70
    16
  9
$PLIMCHECK
 70
     0
  9
$PEXTMIN
 10
1.0000000000000000E+020
 20
1.0000000000000000E+020
 30
1.0000000000000000E+020
  9
$PEXTMAX
 10
-1.0000000000000000E+020
 20
-1.0000000000000000E+020
 30
-1.0000000000000000E+020
  9
$PLIMMIN
 10
0.0
 20
0.0
  9
$PLIMMAX
 10
12.0
 20
9.0
  9
$UNITMODE
 70
     0
  9
$VISRETAIN
 70
     0
  9
$PLINEGEN
 70
     0
  9
$PSLTSCALE
 70
     0
  0
ENDSEC
  0
SECTION
  2
TABLES
  0
TABLE
  2
VPORT
 70
     1
  0
VPORT
  2
*ACTIVE
 70
     0
 10
0.0
 20
0.0
 11
1.0
 21
1.0
 12
241.56441717791409
 22
100.0
 13
0.0
 23
0.0
 14
5.0
 24
5.0
 15
5.0
 25
5.0
 16
0.0
 26
0.0
 36
1.0
 17
0.0
 27
0.0
 37
0.0
 40
200.0
 41
2.415644171779141
 42
50.0
 43
0.0
 44
0.0
 50
0.0
 51
0.0
 71
     0
 72
   500
 73
     1
 74
     0
 75
     0
 76
     0
 77
     0
 78
     2
  0
ENDTAB
  0
TABLE
  2
LTYPE
 70
     3
  0
LTYPE
  2
CONTINUOUS
 70
     0
  3
Solid Line
 72
    65
 73
     0
 40
0.0
  0
LTYPE
  2
CENTER
 70
     0
  3
____ _ ____ _ ____ _ ____ _ ____ _ ____ _ ____
 72
    65
 73
     4
 40
2.0
 49
1.25
 49
-0.25
 49
0.25
 49
-0.25
  0
LTYPE
  2
PHANTOM2
 70
     0
  3
___ _ _ ___ _ _ ___ _ _ ___ _ _
 72
    65
 73
     6
 40
1.25
 49
0.625
 49
-0.125
 49
0.125
 49
-0.125
 49
0.125
 49
-0.125
  0
ENDTAB
  0
TABLE
  2
LAYER
 70
     3
  0
LAYER
  2
0
 70
     0
 62
     7
  6
CONTINUOUS
  0
LAYER
  2
1
 70
     0
 62
     1
  6
CENTER
  0
LAYER
  2
3
 70
     0
 62
     3
  6
CONTINUOUS
  0
ENDTAB
  0
TABLE
  2
STYLE
 70
     2
  0
STYLE
  2
STANDARD
 70
     0
 40
0.0
 41
1.0
 50
0.0
 71
     0
 42
0.2
  3
TXT
  4
BIGFONT
  0
STYLE
  2
STANDARD1
 70
     0
 40
0.0
 41
1.0
 50
0.0
 71
     0
 42
3.0
  3
txt
  4

  0
ENDTAB
  0
TABLE
  2
VIEW
 70
     1
  0
VIEW
  2
ALL
 70
     0
 40
135.0
 10
110.4957983193277
 20
67.5
 41
0.0
 11
0.0
 21
0.0
 31
1.0
 12
0.0
 22
0.0
 32
0.0
 42
0.0
 43
0.0
 44
0.0
 50
0.0
 71
     0
  0
ENDTAB
  0
TABLE
  2
UCS
 70
     0
  0
ENDTAB
  0
TABLE
  2
APPID
 70
     6
  0
APPID
  2
ACAD
 70
     0
  0
APPID
  2
ACAD_MLEADERVER
 70
     0
  0
APPID
  2
ACAD_EXEMPT_FROM_CAD_STANDARDS
 70
     0
  0
APPID
  2
ACAD_NAV_VCDISPLAY
 70
     0
  0
APPID
  2
ACAD_DSTYLE_DIMJAG
 70
     0
  0
APPID
  2
ACAD_DSTYLE_DIMTALN
 70
     0
  0
ENDTAB
  0
TABLE
  2
DIMSTYLE
 70
     1
  0
DIMSTYLE
  2
STANDARD
 70
     0
  3

  4

  5

  6

  7

 40
1.0
 41
0.18
 42
0.0625
 43
0.38
 44
0.18
 45
0.0
 46
0.0
 47
0.0
 48
0.0
140
0.18
141
0.09
142
0.0
143
25.399999999999999
144
1.0
145
0.0
146
1.0
147
0.09
 71
     0
 72
     0
 73
     1
 74
     1
 75
     0
 76
     0
 77
     0
 78
     0
170
     0
171
     2
172
     0
173
     0
174
     0
175
     0
176
     0
177
     0
178
     0
  0
ENDTAB
  0
ENDSEC
  0
SECTION
  2
BLOCKS
  0
BLOCK
  8
0
  2
$MODEL_SPACE
 70
     0
 10
0.0
 20
0.0
 30
0.0
  3
$MODEL_SPACE
  1

  0
ENDBLK
  5
146
  8
0
  0
BLOCK
 67
     1
  8
0
  2
$PAPER_SPACE
 70
     0
 10
0.0
 20
0.0
 30
0.0
  3
$PAPER_SPACE
  1

  0
ENDBLK
  5
144
 67
     1
  8
0
  0
ENDSEC
  0
SECTION
  2
ENTITIES
  0
CIRCLE
  5
253
  8
0
 10
72.499999999999943
 20
136.0
 30
0.0
 40
22.5
  0
CIRCLE
  5
254
  8
3
 10
72.499999999999943
 20
136.0
 30
0.0
 40
12.00000000000003
  0
CIRCLE
  5
26B
  8
0
 10
72.499999999999886
 20
136.0
 30
0.0
 40
18.00000000000006
  0
LINE
  5
27F
  8
0
 10
122.5
 20
50.249999999999993
 30
0.0
 11
122.75
 21
50.0
 31
0.0
  0
LINE
  5
280
  8
0
 10
167.25
 20
50.0
 30
0.0
 11
167.5
 21
50.249999999999993
 31
0.0
  0
LINE
  5
281
  8
0
 10
122.5
 20
55.749999999999993
 30
0.0
 11
122.5
 21
50.249999999999993
 31
0.0
  0
LINE
  5
282
  8
0
 10
167.5
 20
50.249999999999993
 30
0.0
 11
167.5
 21
55.749999999999993
 31
0.0
  0
LINE
  5
283
  8
0
 10
122.75
 20
55.999999999999993
 30
0.0
 11
122.5
 21
55.749999999999993
 31
0.0
  0
LINE
  5
284
  8
0
 10
167.5
 20
55.749999999999993
 30
0.0
 11
167.25
 21
55.999999999999993
 31
0.0
  0
LINE
  5
28A
  8
0
 10
122.75
 20
50.0
 30
0.0
 11
167.25
 21
50.0
 31
0.0
  0
LINE
  5
28F
  8
0
 10
163.0
 20
85.999999999999986
 30
0.0
 11
127.0
 21
85.999999999999986
 31
0.0
  0
LINE
  5
290
  8
0
 10
167.25
 20
55.999999999999993
 30
0.0
 11
122.75
 21
55.999999999999993
 31
0.0
  0
POLYLINE
  5
298
  8
0
 66
     1
 10
0.0
 20
0.0
 30
0.0
  0
VERTEX
  5
487
  8
0
 10
154.0
 20
85.999999999999986
 30
0.0
  0
VERTEX
  5
488
  8
0
 10
154.2424966451517
 20
85.998742636624584
 30
0.0
  0
VERTEX
  5
489
  8
0
 10
154.72597534631711
 20
85.988736222559496
 30
0.0
  0
VERTEX
  5
48A
  8
0
 10
155.20802134553091
 20
85.968841663805208
 30
0.0
  0
VERTEX
  5
48B
  8
0
 10
155.44872328511909
 20
85.955217146956969
 30
0.0
  0
VERTEX
  5
48C
  8
0
 10
155.68932476325381
 20
85.939153950837138
 30
0.0
  0
VERTEX
  5
48D
  8
0
 10
156.1705629096237
 20
85.899739364302476
 30
0.0
  0
VERTEX
  5
48E
  8
0
 10
156.6524036486181
 20
85.850636305435216
 30
0.0
  0
VERTEX
  5
48F
  8
0
 10
157.1355086280052
 20
85.791855916632244
 30
0.0
  0
VERTEX
  5
490
  8
0
 10
157.62053640928971
 20
85.723382502853937
 30
0.0
  0
VERTEX
  5
491
  8
0
 10
158.1081455297645
 20
85.645173761698146
 30
0.0
  0
VERTEX
  5
492
  8
0
 10
158.35312462314229
 20
85.602398162990411
 30
0.0
  0
VERTEX
  5
493
  8
0
 10
158.59899752727259
 20
85.557160827380784
 30
0.0
  0
VERTEX
  5
494
  8
0
 10
159.0937599573071
 20
85.459248131378118
 30
0.0
  0
VERTEX
  5
495
  8
0
 10
159.59310943160989
 20
85.351313080097285
 30
0.0
  0
VERTEX
  5
496
  8
0
 10
160.09773470744901
 20
85.233205547581406
 30
0.0
  0
VERTEX
  5
497
  8
0
 10
160.60833985725691
 20
85.104747178888175
 30
0.0
  0
VERTEX
  5
498
  8
0
 10
161.12564754930361
 20
84.965730497343486
 30
0.0
  0
VERTEX
  5
499
  8
0
 10
161.38704660641579
 20
84.892189723953081
 30
0.0
  0
VERTEX
  5
49A
  8
0
 10
161.6504024715812
 20
84.815917806325714
 30
0.0
  0
VERTEX
  5
49B
  8
0
 10
162.18337493312191
 20
84.655039873518305
 30
0.0
  0
VERTEX
  5
49C
  8
0
 10
162.7253646796039
 20
84.482794382629777
 30
0.0
  0
VERTEX
  5
49D
  8
0
 10
163.0
 20
84.392304845413236
 30
0.0
  0
SEQEND
  5
49E
  8
0
  0
LINE
  5
299
  8
0
 10
163.00000000000011
 20
86.000000000000014
 30
0.0
 11
163.0
 21
55.999999999999993
 31
0.0
  0
POLYLINE
  5
29A
  8
0
 66
     1
 10
0.0
 20
0.0
 30
0.0
  0
VERTEX
  5
49F
  8
0
 10
145.0
 20
84.392304845413236
 30
0.0
  0
VERTEX
  5
4A0
  8
0
 10
145.27463532039599
 20
84.482794382629777
 30
0.0
  0
VERTEX
  5
4A1
  8
0
 10
145.81662506687809
 20
84.655039873518305
 30
0.0
  0
VERTEX
  5
4A2
  8
0
 10
146.3495975284188
 20
84.815917806325714
 30
0.0
  0
VERTEX
  5
4A3
  8
0
 10
146.61295339358409
 20
84.892189723953081
 30
0.0
  0
VERTEX
  5
4A4
  8
0
 10
146.87435245069639
 20
84.965730497343486
 30
0.0
  0
VERTEX
  5
4A5
  8
0
 10
147.39166014274309
 20
85.104747178888175
 30
0.0
  0
VERTEX
  5
4A6
  8
0
 10
147.90226529255091
 20
85.233205547581406
 30
0.0
  0
VERTEX
  5
4A7
  8
0
 10
148.40689056839011
 20
85.351313080097285
 30
0.0
  0
VERTEX
  5
4A8
  8
0
 10
148.90624004269279
 20
85.459248131378075
 30
0.0
  0
VERTEX
  5
4A9
  8
0
 10
149.40100247272741
 20
85.557160827380784
 30
0.0
  0
VERTEX
  5
4AA
  8
0
 10
149.64687537685759
 20
85.602398162990411
 30
0.0
  0
VERTEX
  5
4AB
  8
0
 10
149.8918544702355
 20
85.645173761698146
 30
0.0
  0
VERTEX
  5
4AC
  8
0
 10
150.37946359071029
 20
85.723382502853937
 30
0.0
  0
VERTEX
  5
4AD
  8
0
 10
150.86449137199469
 20
85.791855916632244
 30
0.0
  0
VERTEX
  5
4AE
  8
0
 10
151.34759635138181
 20
85.850636305435216
 30
0.0
  0
VERTEX
  5
4AF
  8
0
 10
151.82943709037619
 20
85.899739364302476
 30
0.0
  0
VERTEX
  5
4B0
  8
0
 10
152.31067523674619
 20
85.939153950837138
 30
0.0
  0
VERTEX
  5
4B1
  8
0
 10
152.55127671488091
 20
85.955217146956969
 30
0.0
  0
VERTEX
  5
4B2
  8
0
 10
152.7919786544692
 20
85.968841663805208
 30
0.0
  0
VERTEX
  5
4B3
  8
0
 10
153.27402465368289
 20
85.988736222559496
 30
0.0
  0
VERTEX
  5
4B4
  8
0
 10
153.75750335484841
 20
85.998742636624584
 30
0.0
  0
VERTEX
  5
4B5
  8
0
 10
154.0
 20
85.999999999999986
 30
0.0
  0
SEQEND
  5
4B6
  8
0
  0
POLYLINE
  5
29B
  8
0
 66
     1
 10
0.0
 20
0.0
 30
0.0
  0
VERTEX
  5
4B7
  8
0
 10
136.0
 20
85.999999999999986
 30
0.0
  0
VERTEX
  5
4B8
  8
0
 10
136.24249664515159
 20
85.998742636624584
 30
0.0
  0
VERTEX
  5
4B9
  8
0
 10
136.72597534631711
 20
85.988736222559496
 30
0.0
  0
VERTEX
  5
4BA
  8
0
 10
137.2080213455308
 20
85.968841663805208
 30
0.0
  0
VERTEX
  5
4BB
  8
0
 10
137.44872328511909
 20
85.955217146956969
 30
0.0
  0
VERTEX
  5
4BC
  8
0
 10
137.68932476325381
 20
85.939153950837138
 30
0.0
  0
VERTEX
  5
4BD
  8
0
 10
138.1705629096237
 20
85.899739364302476
 30
0.0
  0
VERTEX
  5
4BE
  8
0
 10
138.6524036486181
 20
85.850636305435216
 30
0.0
  0
VERTEX
  5
4BF
  8
0
 10
139.1355086280052
 20
85.791855916632244
 30
0.0
  0
VERTEX
  5
4C0
  8
0
 10
139.62053640928971
 20
85.723382502853937
 30
0.0
  0
VERTEX
  5
4C1
  8
0
 10
140.1081455297645
 20
85.645173761698146
 30
0.0
  0
VERTEX
  5
4C2
  8
0
 10
140.35312462314229
 20
85.602398162990411
 30
0.0
  0
VERTEX
  5
4C3
  8
0
 10
140.59899752727259
 20
85.557160827380741
 30
0.0
  0
VERTEX
  5
4C4
  8
0
 10
141.0937599573071
 20
85.459248131378118
 30
0.0
  0
VERTEX
  5
4C5
  8
0
 10
141.59310943160989
 20
85.351313080097285
 30
0.0
  0
VERTEX
  5
4C6
  8
0
 10
142.09773470744901
 20
85.233205547581406
 30
0.0
  0
VERTEX
  5
4C7
  8
0
 10
142.60833985725691
 20
85.104747178888175
 30
0.0
  0
VERTEX
  5
4C8
  8
0
 10
143.12564754930361
 20
84.965730497343486
 30
0.0
  0
VERTEX
  5
4C9
  8
0
 10
143.38704660641579
 20
84.892189723953081
 30
0.0
  0
VERTEX
  5
4CA
  8
0
 10
143.6504024715812
 20
84.815917806325714
 30
0.0
  0
VERTEX
  5
4CB
  8
0
 10
144.18337493312191
 20
84.655039873518305
 30
0.0
  0
VERTEX
  5
4CC
  8
0
 10
144.7253646796039
 20
84.482794382629777
 30
0.0
  0
VERTEX
  5
4CD
  8
0
 10
145.0
 20
84.392304845413236
 30
0.0
  0
SEQEND
  5
4CE
  8
0
  0
LINE
  5
29C
  8
0
 10
145.0
 20
84.392304845413236
 30
0.0
 11
145.0
 21
55.999999999999993
 31
0.0
  0
POLYLINE
  5
29D
  8
0
 66
     1
 10
0.0
 20
0.0
 30
0.0
  0
VERTEX
  5
4CF
  8
0
 10
127.0
 20
84.392304845413236
 30
0.0
  0
VERTEX
  5
4D0
  8
0
 10
127.274635320396
 20
84.482794382629777
 30
0.0
  0
VERTEX
  5
4D1
  8
0
 10
127.8166250668781
 20
84.655039873518305
 30
0.0
  0
VERTEX
  5
4D2
  8
0
 10
128.3495975284188
 20
84.815917806325714
 30
0.0
  0
VERTEX
  5
4D3
  8
0
 10
128.61295339358421
 20
84.892189723953038
 30
0.0
  0
VERTEX
  5
4D4
  8
0
 10
128.87435245069639
 20
84.965730497343486
 30
0.0
  0
VERTEX
  5
4D5
  8
0
 10
129.39166014274309
 20
85.104747178888175
 30
0.0
  0
VERTEX
  5
4D6
  8
0
 10
129.90226529255099
 20
85.233205547581406
 30
0.0
  0
VERTEX
  5
4D7
  8
0
 10
130.40689056839011
 20
85.351313080097285
 30
0.0
  0
VERTEX
  5
4D8
  8
0
 10
130.90624004269279
 20
85.459248131378118
 30
0.0
  0
VERTEX
  5
4D9
  8
0
 10
131.40100247272741
 20
85.557160827380784
 30
0.0
  0
VERTEX
  5
4DA
  8
0
 10
131.64687537685759
 20
85.602398162990411
 30
0.0
  0
VERTEX
  5
4DB
  8
0
 10
131.8918544702355
 20
85.645173761698189
 30
0.0
  0
VERTEX
  5
4DC
  8
0
 10
132.37946359071029
 20
85.723382502853894
 30
0.0
  0
VERTEX
  5
4DD
  8
0
 10
132.86449137199469
 20
85.791855916632244
 30
0.0
  0
VERTEX
  5
4DE
  8
0
 10
133.34759635138181
 20
85.850636305435216
 30
0.0
  0
VERTEX
  5
4DF
  8
0
 10
133.82943709037619
 20
85.899739364302476
 30
0.0
  0
VERTEX
  5
4E0
  8
0
 10
134.31067523674619
 20
85.939153950837138
 30
0.0
  0
VERTEX
  5
4E1
  8
0
 10
134.55127671488091
 20
85.955217146956969
 30
0.0
  0
VERTEX
  5
4E2
  8
0
 10
134.79197865446909
 20
85.968841663805208
 30
0.0
  0
VERTEX
  5
4E3
  8
0
 10
135.27402465368289
 20
85.988736222559496
 30
0.0
  0
VERTEX
  5
4E4
  8
0
 10
135.7575033548483
 20
85.998742636624584
 30
0.0
  0
VERTEX
  5
4E5
  8
0
 10
136.0
 20
85.999999999999986
 30
0.0
  0
SEQEND
  5
4E6
  8
0
  0
LINE
  5
29F
  8
0
 10
127.0
 20
86.000000000000014
 30
0.0
 11
127.0
 21
55.999999999999993
 31
0.0
  0
LINE
  5
2B7
  8
0
 10
50.0
 20
50.25
 30
0.0
 11
50.249999999999993
 21
50.0
 31
0.0
  0
LINE
  5
2B8
  8
0
 10
94.749999999999986
 20
50.0
 30
0.0
 11
95.0
 21
50.25
 31
0.0
  0
LINE
  5
2B9
  8
0
 10
50.0
 20
55.75
 30
0.0
 11
50.0
 21
50.25
 31
0.0
  0
LINE
  5
2BA
  8
0
 10
95.0
 20
50.25
 30
0.0
 11
95.0
 21
55.75
 31
0.0
  0
LINE
  5
2BB
  8
0
 10
50.249999999999993
 20
56.000000000000007
 30
0.0
 11
50.0
 21
55.75
 31
0.0
  0
LINE
  5
2BC
  8
0
 10
95.0
 20
55.75
 30
0.0
 11
94.749999999999986
 21
55.999999999999993
 31
0.0
  0
LINE
  5
2C1
  8
0
 10
54.499999999999993
 20
86.0
 30
0.0
 11
51.715390309173472
 21
84.392304845413236
 31
0.0
  0
LINE
  5
2C2
  8
0
 10
93.284609690826528
 20
84.392304845413264
 30
0.0
 11
90.5
 21
86.0
 31
0.0
  0
LINE
  5
2C4
  8
0
 10
50.249999999999993
 20
50.0
 30
0.0
 11
94.749999999999986
 21
50.0
 31
0.0
  0
LINE
  5
2C9
  8
0
 10
54.499999999999993
 20
86.0
 30
0.0
 11
90.5
 21
86.0
 31
0.0
  0
LINE
  5
2CA
  8
0
 10
94.749999999999986
 20
55.999999999999993
 30
0.0
 11
50.249999999999993
 21
56.000000000000007
 31
0.0
  0
POLYLINE
  5
2CB
  8
0
 66
     1
 10
0.0
 20
0.0
 30
0.0
  0
VERTEX
  5
4E7
  8
0
 10
62.107695154586729
 20
84.392304845413236
 30
0.0
  0
VERTEX
  5
4E8
  8
0
 10
62.424816706905972
 20
84.482794382629777
 30
0.0
  0
VERTEX
  5
4E9
  8
0
 10
63.05065255896487
 20
84.655039873518305
 30
0.0
  0
VERTEX
  5
4EA
  8
0
 10
63.666076147247281
 20
84.815917806325714
 30
0.0
  0
VERTEX
  5
4EB
  8
0
 10
63.970173306539031
 20
84.892189723953081
 30
0.0
  0
VERTEX
  5
4EC
  8
0
 10
64.272010938518335
 20
84.965730497343486
 30
0.0
  0
VERTEX
  5
4ED
  8
0
 10
64.869346409032346
 20
85.104747178888175
 30
0.0
  0
VERTEX
  5
4EE
  8
0
 10
65.458942450414781
 20
85.233205547581449
 30
0.0
  0
VERTEX
  5
4EF
  8
0
 10
66.04163352810599
 20
85.351313080097285
 30
0.0
  0
VERTEX
  5
4F0
  8
0
 10
66.618232634922776
 20
85.459248131378118
 30
0.0
  0
VERTEX
  5
4F1
  8
0
 10
67.18953507925346
 20
85.557160827380784
 30
0.0
  0
VERTEX
  5
4F2
  8
0
 10
67.473444654025514
 20
85.602398162990426
 30
0.0
  0
VERTEX
  5
4F3
  8
0
 10
67.756322145040656
 20
85.645173761698189
 30
0.0
  0
VERTEX
  5
4F4
  8
0
 10
68.319364658971494
 20
85.723382502853937
 30
0.0
  0
VERTEX
  5
4F5
  8
0
 10
68.879426499149531
 20
85.791855916632244
 30
0.0
  0
VERTEX
  5
4F6
  8
0
 10
69.437268078941543
 20
85.850636305435216
 30
0.0
  0
VERTEX
  5
4F7
  8
0
 10
69.993649839671363
 20
85.899739364302476
 30
0.0
  0
VERTEX
  5
4F8
  8
0
 10
70.549335786373433
 20
85.939153950837152
 30
0.0
  0
VERTEX
  5
4F9
  8
0
 10
70.827158442710413
 20
85.955217146956997
 30
0.0
  0
VERTEX
  5
4FA
  8
0
 10
71.105097101941894
 20
85.968841663805208
 30
0.0
  0
VERTEX
  5
4FB
  8
0
 10
71.661715876757569
 20
85.988736222559496
 30
0.0
  0
VERTEX
  5
4FC
  8
0
 10
72.219988993288268
 20
85.998742636624598
 30
0.0
  0
VERTEX
  5
4FD
  8
0
 10
72.5
 20
86.0
 30
0.0
  0
SEQEND
  5
4FE
  8
0
  0
POLYLINE
  5
2CC
  8
0
 66
     1
 10
0.0
 20
0.0
 30
0.0
  0
VERTEX
  5
4FF
  8
0
 10
72.5
 20
86.0
 30
0.0
  0
VERTEX
  5
500
  8
0
 10
72.780011006711788
 20
85.998742636624584
 30
0.0
  0
VERTEX
  5
501
  8
0
 10
73.338284123242474
 20
85.988736222559496
 30
0.0
  0
VERTEX
  5
502
  8
0
 10
73.894902898058092
 20
85.968841663805208
 30
0.0
  0
VERTEX
  5
503
  8
0
 10
74.172841557289587
 20
85.955217146956997
 30
0.0
  0
VERTEX
  5
504
  8
0
 10
74.450664213626567
 20
85.939153950837166
 30
0.0
  0
VERTEX
  5
505
  8
0
 10
75.006350160328623
 20
85.899739364302491
 30
0.0
  0
VERTEX
  5
506
  8
0
 10
75.562731921058443
 20
85.850636305435216
 30
0.0
  0
VERTEX
  5
507
  8
0
 10
76.120573500850469
 20
85.791855916632244
 30
0.0
  0
VERTEX
  5
508
  8
0
 10
76.680635341028506
 20
85.723382502853937
 30
0.0
  0
VERTEX
  5
509
  8
0
 10
77.243677854959401
 20
85.645173761698189
 30
0.0
  0
VERTEX
  5
50A
  8
0
 10
77.526555345974486
 20
85.602398162990411
 30
0.0
  0
VERTEX
  5
50B
  8
0
 10
77.81046492074654
 20
85.557160827380784
 30
0.0
  0
VERTEX
  5
50C
  8
0
 10
78.381767365077224
 20
85.459248131378118
 30
0.0
  0
VERTEX
  5
50D
  8
0
 10
78.958366471894067
 20
85.351313080097285
 30
0.0
  0
VERTEX
  5
50E
  8
0
 10
79.541057549585219
 20
85.233205547581449
 30
0.0
  0
VERTEX
  5
50F
  8
0
 10
80.130653590967654
 20
85.104747178888175
 30
0.0
  0
VERTEX
  5
510
  8
0
 10
80.727989061481651
 20
84.965730497343515
 30
0.0
  0
VERTEX
  5
511
  8
0
 10
81.029826693460947
 20
84.892189723953081
 30
0.0
  0
VERTEX
  5
512
  8
0
 10
81.333923852752704
 20
84.815917806325729
 30
0.0
  0
VERTEX
  5
513
  8
0
 10
81.949347441035115
 20
84.655039873518319
 30
0.0
  0
VERTEX
  5
514
  8
0
 10
82.575183293094028
 20
84.482794382629777
 30
0.0
  0
VERTEX
  5
515
  8
0
 10
82.892304845413264
 20
84.392304845413264
 30
0.0
  0
SEQEND
  5
516
  8
0
  0
LINE
  5
2CD
  8
0
 10
82.892304845413264
 20
84.392304845413264
 30
0.0
 11
82.892304845413264
 21
56.0
 31
0.0
  0
POLYLINE
  5
2CE
  8
0
 66
     1
 10
0.0
 20
0.0
 30
0.0
  0
VERTEX
  5
517
  8
0
 10
82.892304845413264
 20
84.392304845413264
 30
0.0
  0
VERTEX
  5
518
  8
0
 10
83.050865621572882
 20
84.482794382629777
 30
0.0
  0
VERTEX
  5
519
  8
0
 10
83.363783547602324
 20
84.655039873518305
 30
0.0
  0
VERTEX
  5
51A
  8
0
 10
83.671495341743537
 20
84.815917806325729
 30
0.0
  0
VERTEX
  5
51B
  8
0
 10
83.823543921389444
 20
84.892189723953095
 30
0.0
  0
VERTEX
  5
51C
  8
0
 10
83.974462737379099
 20
84.965730497343529
 30
0.0
  0
VERTEX
  5
51D
  8
0
 10
84.273130472636069
 20
85.104747178888204
 30
0.0
  0
VERTEX
  5
51E
  8
0
 10
84.567928493327258
 20
85.233205547581449
 30
0.0
  0
VERTEX
  5
51F
  8
0
 10
84.859274032172891
 20
85.351313080097285
 30
0.0
  0
VERTEX
  5
520
  8
0
 10
85.147573585581256
 20
85.459248131378118
 30
0.0
  0
VERTEX
  5
521
  8
0
 10
85.433224807746626
 20
85.557160827380784
 30
0.0
  0
VERTEX
  5
522
  8
0
 10
85.575179595132624
 20
85.602398162990411
 30
0.0
  0
VERTEX
  5
523
  8
0
 10
85.716618340640196
 20
85.645173761698175
 30
0.0
  0
VERTEX
  5
524
  8
0
 10
85.998139597605643
 20
85.723382502853937
 30
0.0
  0
VERTEX
  5
525
  8
0
 10
86.278170517694676
 20
85.791855916632244
 30
0.0
  0
VERTEX
  5
526
  8
0
 10
86.557091307590667
 20
85.850636305435216
 30
0.0
  0
VERTEX
  5
527
  8
0
 10
86.835282187955613
 20
85.899739364302476
 30
0.0
  0
VERTEX
  5
528
  8
0
 10
87.113125161306641
 20
85.939153950837152
 30
0.0
  0
VERTEX
  5
529
  8
0
 10
87.252036489475074
 20
85.955217146956997
 30
0.0
  0
VERTEX
  5
52A
  8
0
 10
87.391005819090836
 20
85.968841663805208
 30
0.0
  0
VERTEX
  5
52B
  8
0
 10
87.669315206498652
 20
85.988736222559496
 30
0.0
  0
VERTEX
  5
52C
  8
0
 10
87.948451764764002
 20
85.998742636624584
 30
0.0
  0
VERTEX
  5
52D
  8
0
 10
88.088457268119896
 20
86.0
 30
0.0
  0
SEQEND
  5
52E
  8
0
  0
POLYLINE
  5
2CF
  8
0
 66
     1
 10
0.0
 20
0.0
 30
0.0
  0
VERTEX
  5
52F
  8
0
 10
88.088457268119896
 20
86.0
 30
0.0
  0
VERTEX
  5
530
  8
0
 10
88.22846277147579
 20
85.998742636624584
 30
0.0
  0
VERTEX
  5
531
  8
0
 10
88.50759932974114
 20
85.988736222559496
 30
0.0
  0
VERTEX
  5
532
  8
0
 10
88.785908717148956
 20
85.968841663805208
 30
0.0
  0
VERTEX
  5
533
  8
0
 10
88.924878046764718
 20
85.955217146956969
 30
0.0
  0
VERTEX
  5
534
  8
0
 10
89.063789374933194
 20
85.939153950837166
 30
0.0
  0
VERTEX
  5
535
  8
0
 10
89.341632348284165
 20
85.899739364302476
 30
0.0
  0
VERTEX
  5
536
  8
0
 10
89.619823228649125
 20
85.850636305435216
 30
0.0
  0
VERTEX
  5
537
  8
0
 10
89.898744018545116
 20
85.791855916632244
 30
0.0
  0
VERTEX
  5
538
  8
0
 10
90.178774938634135
 20
85.723382502853937
 30
0.0
  0
VERTEX
  5
539
  8
0
 10
90.460296195599597
 20
85.645173761698189
 30
0.0
  0
VERTEX
  5
53A
  8
0
 10
90.601734941107168
 20
85.602398162990426
 30
0.0
  0
VERTEX
  5
53B
  8
0
 10
90.743689728493166
 20
85.557160827380756
 30
0.0
  0
VERTEX
  5
53C
  8
0
 10
91.029340950658536
 20
85.459248131378104
 30
0.0
  0
VERTEX
  5
53D
  8
0
 10
91.317640504066901
 20
85.351313080097285
 30
0.0
  0
VERTEX
  5
53E
  8
0
 10
91.608986042912534
 20
85.233205547581449
 30
0.0
  0
VERTEX
  5
53F
  8
0
 10
91.903784063603709
 20
85.104747178888175
 30
0.0
  0
VERTEX
  5
540
  8
0
 10
92.202451798860764
 20
84.965730497343529
 30
0.0
  0
VERTEX
  5
541
  8
0
 10
92.353370614850348
 20
84.892189723953081
 30
0.0
  0
VERTEX
  5
542
  8
0
 10
92.505419194496255
 20
84.815917806325729
 30
0.0
  0
VERTEX
  5
543
  8
0
 10
92.813130988637454
 20
84.655039873518305
 30
0.0
  0
VERTEX
  5
544
  8
0
 10
93.12604891466691
 20
84.482794382629777
 30
0.0
  0
VERTEX
  5
545
  8
0
 10
93.284609690826528
 20
84.392304845413264
 30
0.0
  0
SEQEND
  5
546
  8
0
  0
LINE
  5
2D0
  8
0
 10
93.284609690826528
 20
84.392304845413264
 30
0.0
 11
93.284609690826528
 21
56.0
 31
0.0
  0
POLYLINE
  5
2D3
  8
0
 66
     1
 10
0.0
 20
0.0
 30
0.0
  0
VERTEX
  5
547
  8
0
 10
56.911542731880097
 20
86.0
 30
0.0
  0
VERTEX
  5
548
  8
0
 10
57.051548235235991
 20
85.998742636624598
 30
0.0
  0
VERTEX
  5
549
  8
0
 10
57.330684793501341
 20
85.988736222559496
 30
0.0
  0
VERTEX
  5
54A
  8
0
 10
57.608994180909171
 20
85.968841663805222
 30
0.0
  0
VERTEX
  5
54B
  8
0
 10
57.747963510524919
 20
85.955217146956997
 30
0.0
  0
VERTEX
  5
54C
  8
0
 10
57.886874838693352
 20
85.939153950837152
 30
0.0
  0
VERTEX
  5
54D
  8
0
 10
58.164717812044373
 20
85.899739364302476
 30
0.0
  0
VERTEX
  5
54E
  8
0
 10
58.442908692409318
 20
85.850636305435216
 30
0.0
  0
VERTEX
  5
54F
  8
0
 10
58.721829482305331
 20
85.791855916632244
 30
0.0
  0
VERTEX
  5
550
  8
0
 10
59.00186040239435
 20
85.723382502853937
 30
0.0
  0
VERTEX
  5
551
  8
0
 10
59.28338165935979
 20
85.645173761698189
 30
0.0
  0
VERTEX
  5
552
  8
0
 10
59.424820404867368
 20
85.602398162990411
 30
0.0
  0
VERTEX
  5
553
  8
0
 10
59.566775192253367
 20
85.557160827380784
 30
0.0
  0
VERTEX
  5
554
  8
0
 10
59.852426414418737
 20
85.459248131378118
 30
0.0
  0
VERTEX
  5
555
  8
0
 10
60.140725967827102
 20
85.351313080097285
 30
0.0
  0
VERTEX
  5
556
  8
0
 10
60.432071506672727
 20
85.233205547581434
 30
0.0
  0
VERTEX
  5
557
  8
0
 10
60.726869527363917
 20
85.104747178888204
 30
0.0
  0
VERTEX
  5
558
  8
0
 10
61.025537262620887
 20
84.965730497343529
 30
0.0
  0
VERTEX
  5
559
  8
0
 10
61.176456078610549
 20
84.892189723953081
 30
0.0
  0
VERTEX
  5
55A
  8
0
 10
61.328504658256449
 20
84.815917806325714
 30
0.0
  0
VERTEX
  5
55B
  8
0
 10
61.636216452397647
 20
84.655039873518305
 30
0.0
  0
VERTEX
  5
55C
  8
0
 10
61.949134378427111
 20
84.482794382629777
 30
0.0
  0
VERTEX
  5
55D
  8
0
 10
62.107695154586729
 20
84.392304845413236
 30
0.0
  0
SEQEND
  5
55E
  8
0
  0
LINE
  5
2D4
  8
0
 10
62.107695154586729
 20
84.392304845413236
 30
0.0
 11
62.107695154586729
 21
56.0
 31
0.0
  0
POLYLINE
  5
2D6
  8
0
 66
     1
 10
0.0
 20
0.0
 30
0.0
  0
VERTEX
  5
55F
  8
0
 10
51.715390309173472
 20
84.392304845413236
 30
0.0
  0
VERTEX
  5
560
  8
0
 10
51.873951085333083
 20
84.482794382629777
 30
0.0
  0
VERTEX
  5
561
  8
0
 10
52.186869011362539
 20
84.655039873518305
 30
0.0
  0
VERTEX
  5
562
  8
0
 10
52.494580805503738
 20
84.815917806325714
 30
0.0
  0
VERTEX
  5
563
  8
0
 10
52.646629385149637
 20
84.892189723953081
 30
0.0
  0
VERTEX
  5
564
  8
0
 10
52.7975482011393
 20
84.965730497343515
 30
0.0
  0
VERTEX
  5
565
  8
0
 10
53.09621593639627
 20
85.104747178888175
 30
0.0
  0
VERTEX
  5
566
  8
0
 10
53.391013957087459
 20
85.233205547581434
 30
0.0
  0
VERTEX
  5
567
  8
0
 10
53.682359495933092
 20
85.351313080097285
 30
0.0
  0
VERTEX
  5
568
  8
0
 10
53.97065904934145
 20
85.459248131378118
 30
0.0
  0
VERTEX
  5
569
  8
0
 10
54.25631027150682
 20
85.557160827380784
 30
0.0
  0
VERTEX
  5
56A
  8
0
 10
54.398265058892818
 20
85.602398162990411
 30
0.0
  0
VERTEX
  5
56B
  8
0
 10
54.539703804400403
 20
85.645173761698189
 30
0.0
  0
VERTEX
  5
56C
  8
0
 10
54.821225061365837
 20
85.723382502853937
 30
0.0
  0
VERTEX
  5
56D
  8
0
 10
55.101255981454862
 20
85.791855916632244
 30
0.0
  0
VERTEX
  5
56E
  8
0
 10
55.380176771350868
 20
85.850636305435231
 30
0.0
  0
VERTEX
  5
56F
  8
0
 10
55.658367651715821
 20
85.899739364302476
 30
0.0
  0
VERTEX
  5
570
  8
0
 10
55.936210625066842
 20
85.939153950837152
 30
0.0
  0
VERTEX
  5
571
  8
0
 10
56.075121953235268
 20
85.955217146956969
 30
0.0
  0
VERTEX
  5
572
  8
0
 10
56.214091282851022
 20
85.968841663805208
 30
0.0
  0
VERTEX
  5
573
  8
0
 10
56.492400670258853
 20
85.988736222559496
 30
0.0
  0
VERTEX
  5
574
  8
0
 10
56.771537228524203
 20
85.998742636624627
 30
0.0
  0
VERTEX
  5
575
  8
0
 10
56.911542731880097
 20
86.0
 30
0.0
  0
SEQEND
  5
576
  8
0
  0
LINE
  5
2D8
  8
0
 10
51.715390309173472
 20
84.392304845413236
 30
0.0
 11
51.715390309173472
 21
56.0
 31
0.0
  0
LINE
  5
2F8
  8
0
 10
62.107695154586729
 20
154.0
 30
0.0
 11
82.892304845413264
 21
154.0
 31
0.0
  0
LINE
  5
2F9
  8
0
 10
51.715390309173472
 20
136.0
 30
0.0
 11
62.107695154586729
 21
154.0
 31
0.0
  0
LINE
  5
2FB
  8
0
 10
82.892304845413264
 20
154.0
 30
0.0
 11
93.284609690826528
 21
136.0
 31
0.0
  0
LINE
  5
2FC
  8
0
 10
82.892304845413264
 20
117.9999999999999
 30
0.0
 11
93.284609690826528
 21
136.0
 31
0.0
  0
LINE
  5
2FD
  8
0
 10
51.715390309173472
 20
136.0
 30
0.0
 11
62.107695154586729
 21
117.9999999999999
 31
0.0
  0
LINE
  5
2FE
  8
0
 10
62.107695154586729
 20
117.9999999999999
 30
0.0
 11
82.892304845413264
 21
117.9999999999999
 31
0.0
  0
CIRCLE
  5
2FF
  8
0
 10
72.499999999999943
 20
136.0
 30
0.0
 40
10.37599999999998
  0
LINE
  5
307
  8
1
 10
72.499999999999943
 20
45.0
 30
0.0
 11
72.499999999999943
 21
91.0
 31
0.0
  0
LINE
  5
308
  8
1
 10
99.999999999999943
 20
136.0
 30
0.0
 11
44.999999999999929
 21
136.0
 31
0.0
  0
LINE
  5
309
  8
1
 10
145.0
 20
90.999999999999986
 30
0.0
 11
145.0
 21
45.0
 31
0.0
  0
LINE
  5
30D
  8
1
 10
72.499999999999943
 20
108.5
 30
0.0
 11
72.499999999999943
 21
163.5
 31
0.0
  0
TEXT
  5
3D0
  8
0
 62
     3
 10
0.0
 20
0.0
 30
0.0
 40
5.0
  1
BJ740-24001
  7
STANDARD1
  0
ENDSEC
  0
EOF
