  0
SECTION
  2
HEADER
  9
$ACADVER
  1
AC1009
  9
$INSBASE
 10
0.0
 20
0.0
 30
0.0
  9
$EXTMIN
 10
0.0
 20
-2.960436562073669
 30
0.0
  9
$EXTMAX
 10
157.27465460875311
 20
99.234693699735146
 30
0.0
  9
$LIMMIN
 10
0.0
 20
0.0
  9
$LIMMAX
 10
192.5
 20
135.0
  9
$ORTHOMODE
 70
     1
  9
$REGENMODE
 70
     1
  9
$FILLMODE
 70
     1
  9
$QTEXTMODE
 70
     0
  9
$MIRRTEXT
 70
     0
  9
$DRAGMODE
 70
     2
  9
$LTSCALE
 40
5.0
  9
$OSMODE
 70
  3071
  9
$ATTMODE
 70
     1
  9
$TEXTSIZE
 40
1.6000000000000489
  9
$TRACEWID
 40
0.05
  9
$TEXTSTYLE
  7
STANDARD
  9
$CLAYER
  8
0
  9
$CELTYPE
  6
BYLAYER
  9
$CECOLOR
 62
   256
  9
$DIMSCALE
 40
0.5
  9
$DIMASZ
 40
3.0
  9
$DIMEXO
 40
2.0
  9
$DIMDLI
 40
0.38
  9
$DIMRND
 40
0.0
  9
$DIMDLE
 40
0.0
  9
$DIMEXE
 40
2.0
  9
$DIMTP
 40
0.0
  9
$DIMTM
 40
0.0
  9
$DIMTXT
 40
3.0
  9
$DIMCEN
 40
0.0
  9
$DIMTSZ
 40
0.0
  9
$DIMTOL
 70
     0
  9
$DIMLIM
 70
     0
  9
$DIMTIH
 70
     0
  9
$DIMTOH
 70
     0
  9
$DIMSE1
 70
     0
  9
$DIMSE2
 70
     0
  9
$DIMTAD
 70
     1
  9
$DIMZIN
 70
     0
  9
$DIMBLK
  1

  9
$DIMASO
 70
     0
  9
$DIMSHO
 70
     0
  9
$DIMPOST
  1

  9
$DIMAPOST
  1

  9
$DIMALT
 70
     0
  9
$DIMALTD
 70
     2
  9
$DIMALTF
 40
25.399999999999999
  9
$DIMLFAC
 40
1.0
  9
$DIMTOFL
 70
     1
  9
$DIMTVP
 40
1.6000000000000001
  9
$DIMTIX
 70
     1
  9
$DIMSOXD
 70
     0
  9
$DIMSAH
 70
     0
  9
$DIMBLK1
  1

  9
$DIMBLK2
  1

  9
$DIMSTYLE
  2
STANDARD
  9
$DIMCLRD
 70
     0
  9
$DIMCLRE
 70
     0
  9
$DIMCLRT
 70
     0
  9
$DIMTFAC
 40
1.0
  9
$DIMGAP
 40
0.09
  9
$LUNITS
 70
     2
  9
$LUPREC
 70
     4
  9
$SKETCHINC
 40
0.1
  9
$FILLETRAD
 40
0.3
  9
$AUNITS
 70
     0
  9
$AUPREC
 70
     4
  9
$MENU
  1
E:\r13\win\SUPPORT\ACAD
  9
$ELEVATION
 40
0.0
  9
$PELEVATION
 40
0.0
  9
$THICKNESS
 40
0.0
  9
$LIMCHECK
 70
     0
  9
$BLIPMODE
 70
     0
  9
$CHAMFERA
 40
0.0
  9
$CHAMFERB
 40
0.0
  9
$SKPOLY
 70
     0
  9
$TDCREATE
 40
2448328.489641204
  9
$TDUPDATE
 40
2456597.7149159149
  9
$TDINDWG
 40
0.0487418056
  9
$TDUSRTIMER
 40
0.0487418056
  9
$USRTIMER
 70
     1
  9
$ANGBASE
 50
0.0
  9
$ANGDIR
 70
     0
  9
$PDMODE
 70
    35
  9
$PDSIZE
 40
0.0
  9
$PLINEWID
 40
0.0
  9
$COORDS
 70
     1
  9
$SPLFRAME
 70
     0
  9
$SPLINETYPE
 70
     6
  9
$SPLINESEGS
 70
     8
  9
$ATTDIA
 70
     0
  9
$ATTREQ
 70
     1
  9
$HANDLING
 70
     1
  9
$HANDSEED
  5
73D
  9
$SURFTAB1
 70
     6
  9
$SURFTAB2
 70
     6
  9
$SURFTYPE
 70
     6
  9
$SURFU
 70
     6
  9
$SURFV
 70
     6
  9
$UCSNAME
  2

  9
$UCSORG
 10
0.0
 20
0.0
 30
0.0
  9
$UCSXDIR
 10
1.0
 20
0.0
 30
0.0
  9
$UCSYDIR
 10
0.0
 20
1.0
 30
0.0
  9
$PUCSNAME
  2

  9
$PUCSORG
 10
0.0
 20
0.0
 30
0.0
  9
$PUCSXDIR
 10
1.0
 20
0.0
 30
0.0
  9
$PUCSYDIR
 10
0.0
 20
1.0
 30
0.0
  9
$USERI1
 70
     3
  9
$USERI2
 70
     1
  9
$USERI3
 70
     1
  9
$USERI4
 70
     0
  9
$USERI5
 70
     0
  9
$USERR1
 40
0.5
  9
$USERR2
 40
3.0
  9
$USERR3
 40
3.0
  9
$USERR4
 40
3.0
  9
$USERR5
 40
10.0
  9
$WORLDVIEW
 70
     1
  9
$SHADEDGE
 70
     3
  9
$SHADEDIF
 70
    70
  9
$TILEMODE
 70
     1
  9
$MAXACTVP
 70
    16
  9
$PLIMCHECK
 70
     0
  9
$PEXTMIN
 10
1.0000000000000000E+020
 20
1.0000000000000000E+020
 30
1.0000000000000000E+020
  9
$PEXTMAX
 10
-1.0000000000000000E+020
 20
-1.0000000000000000E+020
 30
-1.0000000000000000E+020
  9
$PLIMMIN
 10
0.0
 20
0.0
  9
$PLIMMAX
 10
12.0
 20
9.0
  9
$UNITMODE
 70
     0
  9
$VISRETAIN
 70
     0
  9
$PLINEGEN
 70
     1
  9
$PSLTSCALE
 70
     0
  0
ENDSEC
  0
SECTION
  2
TABLES
  0
TABLE
  2
VPORT
 70
     1
  0
VPORT
  2
*ACTIVE
 70
     0
 10
0.0
 20
0.0
 11
1.0
 21
1.0
 12
100.0700744819264
 22
66.014785922033241
 13
0.0
 23
0.0
 14
2.5
 24
2.5
 15
5.0
 25
5.0
 16
0.0
 26
0.0
 36
1.0
 17
0.0
 27
0.0
 37
0.0
 40
139.20783109903601
 41
1.831871345029239
 42
50.0
 43
0.0
 44
0.0
 50
0.0
 51
0.0
 71
     0
 72
   500
 73
     1
 74
     0
 75
     0
 76
     0
 77
     0
 78
     2
  0
ENDTAB
  0
TABLE
  2
LTYPE
 70
     4
  0
LTYPE
  2
CONTINUOUS
 70
     0
  3
Solid Line
 72
    65
 73
     0
 40
0.0
  0
LTYPE
  2
CENTER
 70
     0
  3
____ _ ____ _ ____ _ ____ _ ____ _ ____ _ ____
 72
    65
 73
     4
 40
2.0
 49
1.25
 49
-0.25
 49
0.25
 49
-0.25
  0
LTYPE
  2
HIDDEN
 70
     0
  3
_ _ _ _ _ _ _ _ _ _ _ _ _ _ _ _ _ _ _ _ _ _ _
 72
    65
 73
     2
 40
0.375
 49
0.25
 49
-0.125
  0
LTYPE
  2
PHANTOM2
 70
     0
  3
___ _ _ ___ _ _ ___ _ _ ___ _ _
 72
    65
 73
     6
 40
1.25
 49
0.625
 49
-0.125
 49
0.125
 49
-0.125
 49
0.125
 49
-0.125
  0
ENDTAB
  0
TABLE
  2
LAYER
 70
     5
  0
LAYER
  2
0
 70
     0
 62
     7
  6
CONTINUOUS
  0
LAYER
  2
1
 70
     0
 62
     1
  6
CENTER
  0
LAYER
  2
3
 70
     0
 62
     3
  6
CONTINUOUS
  0
LAYER
  2
11
 70
     0
 62
     3
  6
CONTINUOUS
  0
LAYER
  2
2
 70
     0
 62
     2
  6
HIDDEN
  0
ENDTAB
  0
TABLE
  2
STYLE
 70
     2
  0
STYLE
  2
STANDARD
 70
     0
 40
0.0
 41
1.0
 50
0.0
 71
     0
 42
1.6000000000000489
  3
SIMPLEX
  4
BIGFONT
  0
STYLE
  2
STANDARD1
 70
     0
 40
0.0
 41
1.0
 50
0.0
 71
     0
 42
3.0
  3
txt
  4

  0
ENDTAB
  0
TABLE
  2
VIEW
 70
     1
  0
VIEW
  2
ALL
 70
     0
 40
87.5
 10
71.617647058823522
 20
43.75
 41
0.0
 11
0.0
 21
0.0
 31
1.0
 12
0.0
 22
0.0
 32
0.0
 42
0.0
 43
0.0
 44
0.0
 50
0.0
 71
     0
  0
ENDTAB
  0
TABLE
  2
UCS
 70
     0
  0
ENDTAB
  0
TABLE
  2
APPID
 70
     3
  0
APPID
  2
ACAD
 70
     0
  0
APPID
  2
ACAD_MLEADERVER
 70
     0
  0
APPID
  2
ACAD_NAV_VCDISPLAY
 70
     0
  0
ENDTAB
  0
TABLE
  2
DIMSTYLE
 70
     1
  0
DIMSTYLE
  2
STANDARD
 70
     0
  3

  4

  5

  6

  7

 40
1.0
 41
0.18
 42
0.0625
 43
0.38
 44
0.18
 45
0.0
 46
0.0
 47
0.0
 48
0.0
140
0.18
141
0.09
142
0.0
143
25.399999999999999
144
1.0
145
0.0
146
1.0
147
0.09
 71
     0
 72
     0
 73
     1
 74
     1
 75
     0
 76
     0
 77
     0
 78
     0
170
     0
171
     2
172
     0
173
     0
174
     0
175
     0
176
     0
177
     0
178
     0
  0
ENDTAB
  0
ENDSEC
  0
SECTION
  2
BLOCKS
  0
BLOCK
  8
0
  2
$MODEL_SPACE
 70
     0
 10
0.0
 20
0.0
 30
0.0
  3
$MODEL_SPACE
  1

  0
ENDBLK
  5
5F6
  8
0
  0
BLOCK
 67
     1
  8
0
  2
$PAPER_SPACE
 70
     0
 10
0.0
 20
0.0
 30
0.0
  3
$PAPER_SPACE
  1

  0
ENDBLK
  5
5F4
 67
     1
  8
0
  0
BLOCK
  8
11
  2
STDGX5
 70
     0
 10
0.0
 20
0.0
 30
0.0
  3
STDGX5
  1

  0
ENDBLK
  5
230
  8
11
  0
ENDSEC
  0
SECTION
  2
ENTITIES
  0
INSERT
  5
254
  8
11
  2
STDGX5
 10
155.0
 20
0.0
 30
0.0
 41
0.5
 42
0.5
 43
0.5
  0
LINE
  5
35C
  8
0
 10
109.43140172187471
 20
67.030612173051964
 30
0.0
 11
109.43140172187471
 21
61.030612173054351
 31
0.0
  0
LINE
  5
35D
  8
2
 10
93.431401721874693
 20
62.298561366894027
 30
0.0
 11
94.431401721060865
 21
64.030612173053157
 31
0.0
  0
LINE
  5
35E
  8
2
 10
93.431401721874693
 20
65.762662979211484
 30
0.0
 11
93.431401721874693
 21
62.298561366894027
 31
0.0
  0
LINE
  5
35F
  8
0
 10
91.431401721874707
 20
67.030612173051964
 30
0.0
 11
91.431401721874707
 21
61.030612173054351
 31
0.0
  0
LINE
  5
360
  8
0
 10
90.431401721874678
 20
66.030612173051964
 30
0.0
 11
90.431401721874678
 21
62.030612173054351
 31
0.0
  0
LINE
  5
364
  8
0
 10
110.00875199106321
 20
65.980612173053657
 30
0.0
 11
110.00875199106321
 21
62.080612173052629
 31
0.0
  0
LINE
  5
365
  8
0
 10
117.6150929352233
 20
58.530612173053157
 30
0.0
 11
117.6150929352233
 21
69.530612173053143
 31
0.0
  0
LINE
  5
36D
  8
3
 10
90.889901721874196
 20
61.572112173054961
 30
0.0
 11
109.74403689264111
 21
61.572112173054961
 31
0.0
  0
LINE
  5
36E
  8
0
 10
91.431401721874707
 20
61.030612173054351
 30
0.0
 11
109.43140172187471
 21
61.030612173054351
 31
0.0
  0
LINE
  5
371
  8
2
 10
90.431401721874678
 20
62.298561366894027
 30
0.0
 11
93.431401721874693
 21
62.298561366894027
 31
0.0
  0
LINE
  5
372
  8
0
 10
90.431401721874678
 20
62.030612173054351
 30
0.0
 11
91.431401721874707
 21
61.030612173054351
 31
0.0
  0
LINE
  5
375
  8
0
 10
114.6150929352233
 20
59.030612173053157
 30
0.0
 11
111.1150929352233
 21
59.030612173053157
 31
0.0
  0
LINE
  5
37A
  8
0
 10
111.1150929352233
 20
59.030612173053157
 30
0.0
 11
110.6150929352233
 21
59.53061217305315
 31
0.0
  0
ARC
  5
37B
  8
0
 10
110.2396920987391
 20
61.630612173052619
 30
0.0
 40
0.4
 50
90.0
 51
150.00000000000341
  0
LINE
  5
37C
  8
0
 10
109.43140172187471
 20
61.030612173054443
 30
0.0
 11
109.8932819372253
 21
61.8306121730526
 31
0.0
  0
LINE
  5
37D
  8
0
 10
110.6150929352233
 20
59.53061217305315
 30
0.0
 11
110.6150929352233
 21
68.530612173053157
 31
0.0
  0
LINE
  5
381
  8
0
 10
110.6150929352233
 20
62.03061217305261
 30
0.0
 11
110.2396920987391
 21
62.03061217305261
 31
0.0
  0
LINE
  5
38B
  8
0
 10
115.1150929352233
 20
58.530612173053157
 30
0.0
 11
115.6150929352233
 21
58.030612173053157
 31
0.0
  0
ARC
  5
38C
  8
0
 10
114.6150929352233
 20
58.530612173053157
 30
0.0
 40
0.5
 50
0.0
 51
89.999999999999915
  0
LINE
  5
38D
  8
0
 10
117.1150929352233
 20
58.030612173053157
 30
0.0
 11
115.6150929352233
 21
58.030612173053157
 31
0.0
  0
LINE
  5
38E
  8
0
 10
117.1150929352233
 20
58.030612173053157
 30
0.0
 11
117.6150929352233
 21
58.530612173053157
 31
0.0
  0
LINE
  5
396
  8
0
 10
91.431401721874707
 20
67.030612173051964
 30
0.0
 11
109.43140172187459
 21
67.030612173051964
 31
0.0
  0
LINE
  5
397
  8
3
 10
90.889901721874196
 20
66.489112173051467
 30
0.0
 11
109.74403689264111
 21
66.489112173051467
 31
0.0
  0
LINE
  5
398
  8
1
 10
122.46574073221559
 20
64.030612173053157
 30
0.0
 11
85.431401721874579
 21
64.030612173053157
 31
0.0
  0
LINE
  5
399
  8
2
 10
90.431401721874764
 20
65.762662979211484
 30
0.0
 11
93.431401721874693
 21
65.762662979211484
 31
0.0
  0
LINE
  5
39A
  8
2
 10
90.431401721874678
 20
64.896637576132207
 30
0.0
 11
93.431401721874693
 21
64.896637576132207
 31
0.0
  0
LINE
  5
39B
  8
2
 10
90.431401721874678
 20
63.164586769974342
 30
0.0
 11
93.431401721874693
 21
63.164586769974342
 31
0.0
  0
LINE
  5
39C
  8
0
 10
90.431401721874678
 20
66.030612173051964
 30
0.0
 11
91.431401721874707
 21
67.030612173051964
 31
0.0
  0
LINE
  5
39D
  8
2
 10
93.431401721874693
 20
65.762662979212337
 30
0.0
 11
94.431401721060865
 21
64.030612173053157
 31
0.0
  0
LINE
  5
39F
  8
0
 10
114.6150929352233
 20
69.030612173053157
 30
0.0
 11
111.1150929352233
 21
69.030612173053157
 31
0.0
  0
ARC
  5
3AB
  8
0
 10
110.239692098739
 20
66.430612173053646
 30
0.0
 40
0.4
 50
209.99999999999679
 51
269.99999999999989
  0
LINE
  5
3AC
  8
0
 10
110.6150929352233
 20
66.03061217305364
 30
0.0
 11
110.239692098739
 21
66.030612173053655
 31
0.0
  0
LINE
  5
3AD
  8
0
 10
109.43140172187471
 20
67.03061217305185
 30
0.0
 11
109.8932819372253
 21
66.230612173053672
 31
0.0
  0
LINE
  5
3B1
  8
0
 10
110.6150929352233
 20
68.530612173053157
 30
0.0
 11
111.1150929352233
 21
69.030612173053157
 31
0.0
  0
LINE
  5
3B4
  8
0
 10
117.1150929352233
 20
70.030612173053143
 30
0.0
 11
117.6150929352233
 21
69.530612173053143
 31
0.0
  0
LINE
  5
3B5
  8
0
 10
115.1150929352233
 20
69.530612173053143
 30
0.0
 11
115.6150929352233
 21
70.030612173053143
 31
0.0
  0
ARC
  5
3BA
  8
0
 10
114.6150929352233
 20
69.530612173053143
 30
0.0
 40
0.5
 50
270.00000000000011
 51
0.0
  0
LINE
  5
3BC
  8
0
 10
115.6150929352233
 20
70.030612173053143
 30
0.0
 11
117.1150929352233
 21
70.030612173053143
 31
0.0
  0
LINE
  5
48F
  8
0
 10
61.16012811727397
 20
62.298561365484289
 30
0.0
 11
62.660128117273977
 21
63.164586769268737
 31
0.0
  0
LINE
  5
490
  8
0
 10
59.660128117273992
 20
63.164586769268681
 30
0.0
 11
61.16012811727397
 21
62.298561365484289
 31
0.0
  0
LINE
  5
491
  8
0
 10
59.660128117273992
 20
64.896637576837605
 30
0.0
 11
59.660128117273992
 21
63.164586769268681
 31
0.0
  0
LINE
  5
492
  8
0
 10
61.160128117273949
 20
65.762662980622025
 30
0.0
 11
59.660128117273992
 21
64.896637576837605
 31
0.0
  0
LINE
  5
493
  8
0
 10
62.660128117273977
 20
64.896637576837577
 30
0.0
 11
61.160128117273949
 21
65.762662980622025
 31
0.0
  0
LINE
  5
494
  8
0
 10
62.660128117273977
 20
63.164586769268737
 30
0.0
 11
62.660128117273977
 21
64.896637576837577
 31
0.0
  0
CIRCLE
  5
497
  8
3
 10
61.160128117273977
 20
64.030612173053157
 30
0.0
 40
2.4584999999997299
  0
CIRCLE
  5
499
  8
0
 10
61.160128117273977
 20
64.030612173053157
 30
0.0
 40
3.0
  0
CIRCLE
  5
49A
  8
0
 10
61.160128117273977
 20
64.030612173053157
 30
0.0
 40
5.0
  0
CIRCLE
  5
49B
  8
0
 10
61.160128117273977
 20
64.030612173053157
 30
0.0
 40
6.0
  0
LINE
  5
49D
  8
1
 10
61.160128117273977
 20
72.530612173053143
 30
0.0
 11
61.160128117273977
 21
55.530612173053157
 31
0.0
  0
LINE
  5
49E
  8
1
 10
69.660128117273985
 20
64.030612173053157
 30
0.0
 11
52.660128117273977
 21
64.030612173053157
 31
0.0
  0
LINE
  5
4BD
  8
0
 10
115.1150929352233
 20
69.530612173053143
 30
0.0
 11
115.1150929352233
 21
58.530612173053157
 31
0.0
  0
LINE
  5
4E3
  8
3
 10
90.889901721874196
 20
90.776193699736936
 30
0.0
 11
109.74403689264111
 21
90.776193699736936
 31
0.0
  0
LINE
  5
4E4
  8
0
 10
91.431401721874707
 20
90.23469369973634
 30
0.0
 11
109.43140172187471
 21
90.23469369973634
 31
0.0
  0
LINE
  5
4E5
  8
0
 10
91.431401721874707
 20
96.234693699733953
 30
0.0
 11
109.43140172187459
 21
96.234693699733953
 31
0.0
  0
LINE
  5
4E6
  8
3
 10
90.889901721874196
 20
95.693193699733456
 30
0.0
 11
109.74403689264111
 21
95.693193699733456
 31
0.0
  0
LINE
  5
4E7
  8
1
 10
122.46574073221559
 20
93.234693699735146
 30
0.0
 11
85.431401721874579
 21
93.234693699735146
 31
0.0
  0
LINE
  5
4F6
  8
0
 10
91.431401721874707
 20
96.234693699733953
 30
0.0
 11
91.431401721874707
 21
90.23469369973634
 31
0.0
  0
LINE
  5
4F7
  8
0
 10
90.431401721874678
 20
95.234693699733967
 30
0.0
 11
90.431401721874678
 21
91.23469369973634
 31
0.0
  0
LINE
  5
4F8
  8
2
 10
93.431401721874693
 20
94.734693699735146
 30
0.0
 11
93.431401721874693
 21
91.734693699735146
 31
0.0
  0
LINE
  5
4FC
  8
0
 10
90.431401721874678
 20
91.23469369973634
 30
0.0
 11
91.431401721874707
 21
90.23469369973634
 31
0.0
  0
LINE
  5
4FF
  8
0
 10
90.431401721874678
 20
95.234693699733967
 30
0.0
 11
91.431401721874707
 21
96.234693699733953
 31
0.0
  0
LINE
  5
500
  8
0
 10
117.6150929352233
 20
87.734693699735146
 30
0.0
 11
117.6150929352233
 21
98.734693699735146
 31
0.0
  0
LINE
  5
501
  8
0
 10
110.6150929352233
 20
88.734693699735146
 30
0.0
 11
110.6150929352233
 21
97.734693699735146
 31
0.0
  0
LINE
  5
502
  8
0
 10
115.1150929352233
 20
98.734693699735146
 30
0.0
 11
115.1150929352233
 21
87.734693699735146
 31
0.0
  0
LINE
  5
503
  8
0
 10
114.6150929352233
 20
88.234693699735146
 30
0.0
 11
111.1150929352233
 21
88.234693699735146
 31
0.0
  0
LINE
  5
504
  8
0
 10
111.1150929352233
 20
88.234693699735146
 30
0.0
 11
110.6150929352233
 21
88.734693699735146
 31
0.0
  0
ARC
  5
505
  8
0
 10
114.6150929352233
 20
87.734693699735146
 30
0.0
 40
0.5
 50
0.0
 51
89.999999999999915
  0
LINE
  5
506
  8
0
 10
117.1150929352233
 20
87.234693699735146
 30
0.0
 11
115.6150929352233
 21
87.234693699735146
 31
0.0
  0
LINE
  5
507
  8
0
 10
115.1150929352233
 20
87.734693699735146
 30
0.0
 11
115.6150929352233
 21
87.234693699735146
 31
0.0
  0
LINE
  5
508
  8
0
 10
117.1150929352233
 20
87.234693699735146
 30
0.0
 11
117.6150929352233
 21
87.734693699735146
 31
0.0
  0
LINE
  5
509
  8
0
 10
114.6150929352233
 20
98.234693699735161
 30
0.0
 11
111.1150929352233
 21
98.234693699735161
 31
0.0
  0
LINE
  5
50A
  8
0
 10
109.43140172187471
 20
96.234693699733953
 30
0.0
 11
109.43140172187471
 21
90.23469369973634
 31
0.0
  0
LINE
  5
50B
  8
0
 10
110.00875199106321
 20
95.184693699735647
 30
0.0
 11
110.00875199106321
 21
91.284693699734618
 31
0.0
  0
ARC
  5
50C
  8
0
 10
110.2396920987391
 20
90.834693699734615
 30
0.0
 40
0.4
 50
90.0
 51
150.00000000000341
  0
LINE
  5
50D
  8
0
 10
109.43140172187471
 20
90.234693699736425
 30
0.0
 11
109.8932819372253
 21
91.034693699734575
 31
0.0
  0
LINE
  5
50E
  8
0
 10
110.6150929352233
 20
91.234693699734606
 30
0.0
 11
110.2396920987391
 21
91.234693699734606
 31
0.0
  0
ARC
  5
50F
  8
0
 10
110.239692098739
 20
95.634693699735635
 30
0.0
 40
0.4
 50
209.99999999999679
 51
269.99999999999989
  0
LINE
  5
510
  8
0
 10
109.43140172187471
 20
96.234693699733853
 30
0.0
 11
109.8932819372253
 21
95.434693699735661
 31
0.0
  0
LINE
  5
511
  8
0
 10
110.6150929352233
 20
95.234693699735629
 30
0.0
 11
110.239692098739
 21
95.234693699735644
 31
0.0
  0
LINE
  5
512
  8
0
 10
110.6150929352233
 20
97.734693699735146
 30
0.0
 11
111.1150929352233
 21
98.234693699735161
 31
0.0
  0
ARC
  5
513
  8
0
 10
114.6150929352233
 20
98.734693699735146
 30
0.0
 40
0.5
 50
270.00000000000011
 51
0.0
  0
LINE
  5
514
  8
0
 10
115.6150929352233
 20
99.234693699735146
 30
0.0
 11
117.1150929352233
 21
99.234693699735146
 31
0.0
  0
LINE
  5
515
  8
0
 10
115.1150929352233
 20
98.734693699735146
 30
0.0
 11
115.6150929352233
 21
99.234693699735146
 31
0.0
  0
LINE
  5
516
  8
0
 10
117.1150929352233
 20
99.234693699735146
 30
0.0
 11
117.6150929352233
 21
98.734693699735146
 31
0.0
  0
LINE
  5
517
  8
2
 10
90.431401721874707
 20
94.734693699735146
 30
0.0
 11
93.431401721874707
 21
94.734693699735146
 31
0.0
  0
LINE
  5
518
  8
2
 10
90.431401721874678
 20
91.734693699735146
 30
0.0
 11
93.431401721874707
 21
91.734693699735146
 31
0.0
  0
LINE
  5
519
  8
2
 10
93.431401721874693
 20
91.734693699735146
 30
0.0
 11
94.431401721060865
 21
93.234693699735146
 31
0.0
  0
LINE
  5
51A
  8
2
 10
94.431401721060865
 20
93.234693699735146
 30
0.0
 11
93.431401721874693
 21
94.734693699735146
 31
0.0
  0
LINE
  5
51B
  8
2
 10
90.431401721874678
 20
93.234693699735146
 30
0.0
 11
93.431401721874693
 21
93.234693699735146
 31
0.0
  0
LINE
  5
533
  8
1
 10
148.77465460875311
 20
72.530612173053143
 30
0.0
 11
148.77465460875311
 21
55.530612173053157
 31
0.0
  0
CIRCLE
  5
534
  8
0
 10
148.77465460875311
 20
64.030612173053157
 30
0.0
 40
6.0
  0
LINE
  5
536
  8
1
 10
157.27465460875311
 20
64.030612173053157
 30
0.0
 11
140.27465460875311
 21
64.030612173053157
 31
0.0
  0
TEXT
  5
6AD
  8
0
 62
     3
 10
0.0
 20
0.0
 30
0.0
 40
10.0
  1
BJ746-06001-SUS
  7
STANDARD1
  0
ENDSEC
  0
EOF
