  0
SECTION
  2
HEADER
  9
$ACADVER
  1
AC1009
  9
$INSBASE
 10
0.0
 20
0.0
 30
0.0
  9
$EXTMIN
 10
0.0
 20
-2.960436562073669
 30
0.0
  9
$EXTMAX
 10
116.4870395634379
 20
150.76213999999999
 30
0.0
  9
$LIMMIN
 10
0.0
 20
0.0
  9
$LIMMAX
 10
187.5
 20
135.0
  9
$ORTHOMODE
 70
     1
  9
$REGENMODE
 70
     1
  9
$FILLMODE
 70
     1
  9
$QTEXTMODE
 70
     0
  9
$MIRRTEXT
 70
     0
  9
$DRAGMODE
 70
     2
  9
$LTSCALE
 40
5.0
  9
$OSMODE
 70
  3071
  9
$ATTMODE
 70
     1
  9
$TEXTSIZE
 40
0.2
  9
$TRACEWID
 40
0.05
  9
$TEXTSTYLE
  7
STANDARD
  9
$CLAYER
  8
0
  9
$CELTYPE
  6
BYLAYER
  9
$CECOLOR
 62
   256
  9
$DIMSCALE
 40
0.5
  9
$DIMASZ
 40
3.0
  9
$DIMEXO
 40
2.0
  9
$DIMDLI
 40
0.38
  9
$DIMRND
 40
0.0
  9
$DIMDLE
 40
0.0
  9
$DIMEXE
 40
2.0
  9
$DIMTP
 40
0.0
  9
$DIMTM
 40
0.0
  9
$DIMTXT
 40
3.2000000000000002
  9
$DIMCEN
 40
0.0
  9
$DIMTSZ
 40
0.0
  9
$DIMTOL
 70
     0
  9
$DIMLIM
 70
     0
  9
$DIMTIH
 70
     0
  9
$DIMTOH
 70
     0
  9
$DIMSE1
 70
     0
  9
$DIMSE2
 70
     0
  9
$DIMTAD
 70
     1
  9
$DIMZIN
 70
     0
  9
$DIMBLK
  1

  9
$DIMASO
 70
     0
  9
$DIMSHO
 70
     0
  9
$DIMPOST
  1

  9
$DIMAPOST
  1

  9
$DIMALT
 70
     0
  9
$DIMALTD
 70
     2
  9
$DIMALTF
 40
25.399999999999999
  9
$DIMLFAC
 40
1.0
  9
$DIMTOFL
 70
     1
  9
$DIMTVP
 40
1.6000000000000001
  9
$DIMTIX
 70
     1
  9
$DIMSOXD
 70
     0
  9
$DIMSAH
 70
     0
  9
$DIMBLK1
  1

  9
$DIMBLK2
  1

  9
$DIMSTYLE
  2
STANDARD
  9
$DIMCLRD
 70
     0
  9
$DIMCLRE
 70
     0
  9
$DIMCLRT
 70
     0
  9
$DIMTFAC
 40
1.0
  9
$DIMGAP
 40
0.09
  9
$LUNITS
 70
     2
  9
$LUPREC
 70
     4
  9
$SKETCHINC
 40
0.1
  9
$FILLETRAD
 40
0.0
  9
$AUNITS
 70
     0
  9
$AUPREC
 70
     4
  9
$MENU
  1
E:\r13\win\SUPPORT\ACAD
  9
$ELEVATION
 40
0.0
  9
$PELEVATION
 40
0.0
  9
$THICKNESS
 40
0.0
  9
$LIMCHECK
 70
     0
  9
$BLIPMODE
 70
     0
  9
$CHAMFERA
 40
0.0
  9
$CHAMFERB
 40
0.0
  9
$SKPOLY
 70
     0
  9
$TDCREATE
 40
2449839.7711458332
  9
$TDUPDATE
 40
2456602.6103531951
  9
$TDINDWG
 40
0.001260463
  9
$TDUSRTIMER
 40
2456598.4082215158
  9
$USRTIMER
 70
     1
  9
$ANGBASE
 50
0.0
  9
$ANGDIR
 70
     0
  9
$PDMODE
 70
     0
  9
$PDSIZE
 40
0.0
  9
$PLINEWID
 40
0.0
  9
$COORDS
 70
     1
  9
$SPLFRAME
 70
     0
  9
$SPLINETYPE
 70
     6
  9
$SPLINESEGS
 70
     8
  9
$ATTDIA
 70
     0
  9
$ATTREQ
 70
     1
  9
$HANDLING
 70
     1
  9
$HANDSEED
  5
252
  9
$SURFTAB1
 70
     6
  9
$SURFTAB2
 70
     6
  9
$SURFTYPE
 70
     6
  9
$SURFU
 70
     6
  9
$SURFV
 70
     6
  9
$UCSNAME
  2

  9
$UCSORG
 10
0.0
 20
0.0
 30
0.0
  9
$UCSXDIR
 10
1.0
 20
0.0
 30
0.0
  9
$UCSYDIR
 10
0.0
 20
1.0
 30
0.0
  9
$PUCSNAME
  2

  9
$PUCSORG
 10
0.0
 20
0.0
 30
0.0
  9
$PUCSXDIR
 10
1.0
 20
0.0
 30
0.0
  9
$PUCSYDIR
 10
0.0
 20
1.0
 30
0.0
  9
$USERI1
 70
     0
  9
$USERI2
 70
     1
  9
$USERI3
 70
     0
  9
$USERI4
 70
     0
  9
$USERI5
 70
     0
  9
$USERR1
 40
0.0
  9
$USERR2
 40
0.0
  9
$USERR3
 40
0.0
  9
$USERR4
 40
0.0
  9
$USERR5
 40
0.0
  9
$WORLDVIEW
 70
     1
  9
$SHADEDGE
 70
     3
  9
$SHADEDIF
 70
    70
  9
$TILEMODE
 70
     1
  9
$MAXACTVP
 70
    16
  9
$PLIMCHECK
 70
     0
  9
$PEXTMIN
 10
1.0000000000000000E+020
 20
1.0000000000000000E+020
 30
1.0000000000000000E+020
  9
$PEXTMAX
 10
-1.0000000000000000E+020
 20
-1.0000000000000000E+020
 30
-1.0000000000000000E+020
  9
$PLIMMIN
 10
0.0
 20
0.0
  9
$PLIMMAX
 10
12.0
 20
9.0
  9
$UNITMODE
 70
     0
  9
$VISRETAIN
 70
     0
  9
$PLINEGEN
 70
     0
  9
$PSLTSCALE
 70
     0
  0
ENDSEC
  0
SECTION
  2
TABLES
  0
TABLE
  2
VPORT
 70
     1
  0
VPORT
  2
*ACTIVE
 70
     0
 10
0.0
 20
0.0
 11
1.0
 21
1.0
 12
97.570150770051072
 22
66.014785922033241
 13
0.0
 23
0.0
 14
5.0
 24
5.0
 15
5.0
 25
5.0
 16
0.0
 26
0.0
 36
1.0
 17
0.0
 27
0.0
 37
0.0
 40
139.20783109903601
 41
1.831871345029239
 42
50.0
 43
0.0
 44
0.0
 50
0.0
 51
0.0
 71
     0
 72
   100
 73
     1
 74
     0
 75
     0
 76
     0
 77
     0
 78
     2
  0
ENDTAB
  0
TABLE
  2
LTYPE
 70
     3
  0
LTYPE
  2
CONTINUOUS
 70
     0
  3
Solid Line
 72
    65
 73
     0
 40
0.0
  0
LTYPE
  2
CENTER
 70
     0
  3
____ _ ____ _ ____ _ ____ _ ____ _ ____ _ ____
 72
    65
 73
     4
 40
2.0
 49
1.25
 49
-0.25
 49
0.25
 49
-0.25
  0
LTYPE
  2
PHANTOM2
 70
     0
  3
___ _ _ ___ _ _ ___ _ _ ___ _ _
 72
    65
 73
     6
 40
1.25
 49
0.625
 49
-0.125
 49
0.125
 49
-0.125
 49
0.125
 49
-0.125
  0
ENDTAB
  0
TABLE
  2
LAYER
 70
     3
  0
LAYER
  2
0
 70
     0
 62
     7
  6
CONTINUOUS
  0
LAYER
  2
1
 70
     0
 62
     1
  6
CENTER
  0
LAYER
  2
3
 70
     0
 62
     3
  6
CONTINUOUS
  0
ENDTAB
  0
TABLE
  2
STYLE
 70
     2
  0
STYLE
  2
STANDARD
 70
     0
 40
0.0
 41
1.0
 50
0.0
 71
     0
 42
0.2
  3
TXT
  4
BIGFONT
  0
STYLE
  2
STANDARD1
 70
     0
 40
0.0
 41
1.0
 50
0.0
 71
     0
 42
3.0
  3
txt
  4

  0
ENDTAB
  0
TABLE
  2
VIEW
 70
     1
  0
VIEW
  2
ALL
 70
     0
 40
270.0
 10
220.99159700000001
 20
135.0
 41
0.0
 11
0.0
 21
0.0
 31
1.0
 12
0.0
 22
0.0
 32
0.0
 42
0.0
 43
0.0
 44
0.0
 50
0.0
 71
     0
  0
ENDTAB
  0
TABLE
  2
UCS
 70
     0
  0
ENDTAB
  0
TABLE
  2
APPID
 70
     3
  0
APPID
  2
ACAD
 70
     0
  0
APPID
  2
ACAD_MLEADERVER
 70
     0
  0
APPID
  2
ACAD_NAV_VCDISPLAY
 70
     0
  0
ENDTAB
  0
TABLE
  2
DIMSTYLE
 70
     1
  0
DIMSTYLE
  2
STANDARD
 70
     0
  3

  4

  5

  6

  7

 40
1.0
 41
0.18
 42
0.0625
 43
0.38
 44
0.18
 45
0.0
 46
0.0
 47
0.0
 48
0.0
140
0.18
141
0.09
142
0.0
143
25.399999999999999
144
1.0
145
0.0
146
1.0
147
0.09
 71
     0
 72
     0
 73
     1
 74
     1
 75
     0
 76
     0
 77
     0
 78
     0
170
     0
171
     2
172
     0
173
     0
174
     0
175
     0
176
     0
177
     0
178
     0
  0
ENDTAB
  0
ENDSEC
  0
SECTION
  2
BLOCKS
  0
BLOCK
  8
0
  2
$MODEL_SPACE
 70
     0
 10
0.0
 20
0.0
 30
0.0
  3
$MODEL_SPACE
  1

  0
ENDBLK
  5
F9
  8
0
  0
BLOCK
 67
     1
  8
0
  2
$PAPER_SPACE
 70
     0
 10
0.0
 20
0.0
 30
0.0
  3
$PAPER_SPACE
  1

  0
ENDBLK
  5
F7
 67
     1
  8
0
  0
BLOCK
  8
0
  2
STDGX5
 70
     0
 10
0.0
 20
0.0
 30
0.0
  3
STDGX5
  1

  0
ENDBLK
  5
36
  8
0
  0
ENDSEC
  0
SECTION
  2
ENTITIES
  0
LINE
  5
40
  8
0
 10
92.128263000000004
 20
33.667715999999999
 30
0.0
 11
92.128263000000004
 21
37.667715999999999
 31
0.0
  0
LINE
  5
41
  8
0
 10
89.628263000000004
 20
40.167715999999999
 30
0.0
 11
89.628263000000004
 21
43.667715999999992
 31
0.0
  0
LINE
  5
42
  8
0
 10
89.128263000000004
 20
44.167715999999992
 30
0.0
 11
82.128263000000004
 21
44.167715999999992
 31
0.0
  0
LINE
  5
43
  8
0
 10
82.128263000000004
 20
33.167715999999999
 30
0.0
 11
91.628263000000004
 21
33.167715999999999
 31
0.0
  0
LINE
  5
44
  8
0
 10
91.628263000000004
 20
33.167715999999999
 30
0.0
 11
92.128263000000004
 21
33.667715999999999
 31
0.0
  0
LINE
  5
45
  8
0
 10
92.128263000000004
 20
37.667715999999999
 30
0.0
 11
91.628263000000004
 21
38.167715999999999
 31
0.0
  0
LINE
  5
46
  8
0
 10
89.628263000000004
 20
43.667715999999992
 30
0.0
 11
89.128263000000004
 21
44.167715999999992
 31
0.0
  0
ARC
  5
47
  8
0
 10
91.628263000000004
 20
40.167715999999999
 30
0.0
 40
2.0
 50
180.0
 51
270.0
  0
ARC
  5
48
  8
0
 10
72.628263000000004
 20
40.167715999999999
 30
0.0
 40
2.0
 50
270.0
 51
0.0
  0
LINE
  5
49
  8
0
 10
74.628263000000004
 20
40.167715999999999
 30
0.0
 11
74.628263000000004
 21
43.667715999999992
 31
0.0
  0
LINE
  5
4A
  8
0
 10
74.628263000000004
 20
43.667715999999992
 30
0.0
 11
75.128263000000004
 21
44.167715999999992
 31
0.0
  0
LINE
  5
4B
  8
0
 10
75.128263000000004
 20
44.167715999999992
 30
0.0
 11
82.128263000000004
 21
44.167715999999992
 31
0.0
  0
LINE
  5
4C
  8
0
 10
72.128263000000004
 20
37.667715999999999
 30
0.0
 11
72.628263000000004
 21
38.167715999999999
 31
0.0
  0
LINE
  5
4D
  8
0
 10
72.128263000000004
 20
33.667715999999999
 30
0.0
 11
72.128263000000004
 21
37.667715999999999
 31
0.0
  0
LINE
  5
4E
  8
0
 10
72.628263000000004
 20
33.167715999999999
 30
0.0
 11
72.128263000000004
 21
33.667715999999999
 31
0.0
  0
LINE
  5
4F
  8
0
 10
82.128263000000004
 20
33.167715999999999
 30
0.0
 11
72.628263000000004
 21
33.167715999999999
 31
0.0
  0
LINE
  5
50
  8
1
 10
82.128263000000004
 20
119.26771599999999
 30
0.0
 11
82.128263000000004
 21
30.667715999999999
 31
0.0
  0
LINE
  5
51
  8
0
 10
78.528262999999995
 20
44.935803
 30
0.0
 11
82.128263000000004
 21
44.935803
 31
0.0
  0
LINE
  5
52
  8
0
 10
78.528262999999995
 20
44.935803
 30
0.0
 11
78.528262999999995
 21
44.167715999999992
 31
0.0
  0
LINE
  5
53
  8
0
 10
77.128263000000004
 20
45.744092999999999
 30
0.0
 11
78.528262999999995
 21
44.935803
 31
0.0
  0
LINE
  5
54
  8
0
 10
85.728262999999998
 20
44.935803
 30
0.0
 11
85.728262999999998
 21
44.167715999999992
 31
0.0
  0
LINE
  5
55
  8
0
 10
85.728262999999998
 20
44.935803
 30
0.0
 11
82.128263000000004
 21
44.935803
 31
0.0
  0
LINE
  5
56
  8
0
 10
87.128263000000004
 20
45.744092999999999
 30
0.0
 11
85.728262999999998
 21
44.935803
 31
0.0
  0
LINE
  5
57
  8
0
 10
87.128263000000004
 20
115.26771599999999
 30
0.0
 11
77.128263000000004
 21
115.26771599999999
 31
0.0
  0
LINE
  5
58
  8
0
 10
78.628263000000004
 20
116.76771599999999
 30
0.0
 11
77.128263000000004
 21
115.26771599999999
 31
0.0
  0
LINE
  5
59
  8
0
 10
87.128263000000004
 20
115.26771599999999
 30
0.0
 11
85.628263000000004
 21
116.76771599999999
 31
0.0
  0
LINE
  5
5A
  8
0
 10
78.628263000000004
 20
116.76771599999999
 30
0.0
 11
85.628263000000004
 21
116.76771599999999
 31
0.0
  0
LINE
  5
5B
  8
0
 10
77.128263000000004
 20
45.744092999999999
 30
0.0
 11
77.128263000000004
 21
115.26771599999999
 31
0.0
  0
LINE
  5
5C
  8
0
 10
87.128263000000004
 20
45.744092999999999
 30
0.0
 11
77.128263000000004
 21
45.744092999999999
 31
0.0
  0
LINE
  5
5D
  8
0
 10
91.628263000000004
 20
38.167715999999999
 30
0.0
 11
72.628263000000004
 21
38.167715999999999
 31
0.0
  0
LINE
  5
5E
  8
3
 10
77.878263000000004
 20
116.01771599999999
 30
0.0
 11
77.878263000000004
 21
45.311080999999987
 31
0.0
  0
LINE
  5
5F
  8
0
 10
87.128263000000004
 20
45.744092999999999
 30
0.0
 11
87.128263000000004
 21
115.26771599999999
 31
0.0
  0
LINE
  5
60
  8
3
 10
86.378263000000004
 20
116.01771599999999
 30
0.0
 11
86.378263000000004
 21
45.311080999999987
 31
0.0
  0
CIRCLE
  5
61
  8
0
 10
82.128263000000004
 20
138.26213999999999
 30
0.0
 40
7.5
  0
CIRCLE
  5
62
  8
0
 10
82.128263000000004
 20
138.26213999999999
 30
0.0
 40
10.0
  0
LINE
  5
63
  8
1
 10
94.628263000000004
 20
138.26213999999999
 30
0.0
 11
69.628263000000004
 21
138.26213999999999
 31
0.0
  0
LINE
  5
64
  8
1
 10
82.128263000000004
 20
150.76213999999999
 30
0.0
 11
82.128263000000004
 21
125.76214
 31
0.0
  0
CIRCLE
  5
65
  8
3
 10
82.128263000000004
 20
138.26213999999999
 30
0.0
 40
4.3235000000000001
  0
CIRCLE
  5
66
  8
0
 10
82.128263000000004
 20
138.26213999999999
 30
0.0
 40
5.0
  0
INSERT
  5
67
  8
0
  2
STDGX5
 10
0.0
 20
0.0
 30
0.0
  0
LINE
  5
68
  8
0
 10
79.241512
 20
138.26213999999999
 30
0.0
 11
80.684888000000001
 21
135.76213999999999
 31
0.0
  0
LINE
  5
69
  8
0
 10
80.684888000000001
 20
140.76213999999999
 30
0.0
 11
79.241512
 21
138.26213999999999
 31
0.0
  0
LINE
  5
6A
  8
0
 10
83.571639000000005
 20
140.76213999999999
 30
0.0
 11
80.684888000000001
 21
140.76213999999999
 31
0.0
  0
LINE
  5
6B
  8
0
 10
85.015015000000005
 20
138.26213999999999
 30
0.0
 11
83.571639000000005
 21
140.76213999999999
 31
0.0
  0
LINE
  5
6C
  8
0
 10
83.571639000000005
 20
135.76213999999999
 30
0.0
 11
85.015015000000005
 21
138.26213999999999
 31
0.0
  0
LINE
  5
6D
  8
0
 10
80.684888000000001
 20
135.76213999999999
 30
0.0
 11
83.571639000000005
 21
135.76213999999999
 31
0.0
  0
INSERT
  5
6E
  8
0
  2
STDGX5
 10
0.0
 20
0.0
 30
0.0
  0
TEXT
  5
1B2
  8
0
 62
     3
 10
0.0
 20
0.0
 30
0.0
 40
10.0
  1
BJ746-10002-SUS
  7
STANDARD1
  0
ENDSEC
  0
EOF
