  0
SECTION
  2
HEADER
  9
$ACADVER
  1
AC1009
  9
$INSBASE
 10
0.0
 20
0.0
 30
0.0
  9
$EXTMIN
 10
0.0
 20
-2.960436562073669
 30
0.0
  9
$EXTMAX
 10
231.48337957677009
 20
101.0008869337059
 30
0.0
  9
$LIMMIN
 10
0.0
 20
0.0
  9
$LIMMAX
 10
375.0
 20
270.0
  9
$ORTHOMODE
 70
     1
  9
$REGENMODE
 70
     1
  9
$FILLMODE
 70
     1
  9
$QTEXTMODE
 70
     0
  9
$MIRRTEXT
 70
     0
  9
$DRAGMODE
 70
     2
  9
$LTSCALE
 40
10.0
  9
$OSMODE
 70
  3071
  9
$ATTMODE
 70
     1
  9
$TEXTSIZE
 40
3.200000000000049
  9
$TRACEWID
 40
0.05
  9
$TEXTSTYLE
  7
STANDARD
  9
$CLAYER
  8
0
  9
$CELTYPE
  6
BYLAYER
  9
$CECOLOR
 62
   256
  9
$DIMSCALE
 40
1.0
  9
$DIMASZ
 40
3.0
  9
$DIMEXO
 40
2.0
  9
$DIMDLI
 40
10.0
  9
$DIMRND
 40
0.0
  9
$DIMDLE
 40
0.0
  9
$DIMEXE
 40
2.0
  9
$DIMTP
 40
0.0
  9
$DIMTM
 40
0.0
  9
$DIMTXT
 40
3.2000000000000002
  9
$DIMCEN
 40
0.0
  9
$DIMTSZ
 40
0.0
  9
$DIMTOL
 70
     0
  9
$DIMLIM
 70
     0
  9
$DIMTIH
 70
     0
  9
$DIMTOH
 70
     0
  9
$DIMSE1
 70
     0
  9
$DIMSE2
 70
     0
  9
$DIMTAD
 70
     1
  9
$DIMZIN
 70
     0
  9
$DIMBLK
  1

  9
$DIMASO
 70
     0
  9
$DIMSHO
 70
     0
  9
$DIMPOST
  1

  9
$DIMAPOST
  1

  9
$DIMALT
 70
     0
  9
$DIMALTD
 70
     2
  9
$DIMALTF
 40
25.399999999999999
  9
$DIMLFAC
 40
1.0
  9
$DIMTOFL
 70
     1
  9
$DIMTVP
 40
1.6000000000000001
  9
$DIMTIX
 70
     1
  9
$DIMSOXD
 70
     0
  9
$DIMSAH
 70
     0
  9
$DIMBLK1
  1

  9
$DIMBLK2
  1

  9
$DIMSTYLE
  2
STANDARD
  9
$DIMCLRD
 70
     0
  9
$DIMCLRE
 70
     0
  9
$DIMCLRT
 70
     0
  9
$DIMTFAC
 40
1.0
  9
$DIMGAP
 40
0.09
  9
$LUNITS
 70
     2
  9
$LUPREC
 70
     4
  9
$SKETCHINC
 40
0.1
  9
$FILLETRAD
 40
0.0
  9
$AUNITS
 70
     0
  9
$AUPREC
 70
     4
  9
$MENU
  1
E:\r13\win\SUPPORT\ACAD
  9
$ELEVATION
 40
0.0
  9
$PELEVATION
 40
0.0
  9
$THICKNESS
 40
0.0
  9
$LIMCHECK
 70
     0
  9
$BLIPMODE
 70
     0
  9
$CHAMFERA
 40
0.0
  9
$CHAMFERB
 40
0.0
  9
$SKPOLY
 70
     0
  9
$TDCREATE
 40
2449839.7726967591
  9
$TDUPDATE
 40
2456598.3670960539
  9
$TDINDWG
 40
0.0556229745
  9
$TDUSRTIMER
 40
0.0556229745
  9
$USRTIMER
 70
     1
  9
$ANGBASE
 50
0.0
  9
$ANGDIR
 70
     0
  9
$PDMODE
 70
    35
  9
$PDSIZE
 40
0.0
  9
$PLINEWID
 40
0.0
  9
$COORDS
 70
     1
  9
$SPLFRAME
 70
     0
  9
$SPLINETYPE
 70
     6
  9
$SPLINESEGS
 70
     8
  9
$ATTDIA
 70
     0
  9
$ATTREQ
 70
     1
  9
$HANDLING
 70
     1
  9
$HANDSEED
  5
589
  9
$SURFTAB1
 70
     6
  9
$SURFTAB2
 70
     6
  9
$SURFTYPE
 70
     6
  9
$SURFU
 70
     6
  9
$SURFV
 70
     6
  9
$UCSNAME
  2

  9
$UCSORG
 10
0.0
 20
0.0
 30
0.0
  9
$UCSXDIR
 10
1.0
 20
0.0
 30
0.0
  9
$UCSYDIR
 10
0.0
 20
1.0
 30
0.0
  9
$PUCSNAME
  2

  9
$PUCSORG
 10
0.0
 20
0.0
 30
0.0
  9
$PUCSXDIR
 10
1.0
 20
0.0
 30
0.0
  9
$PUCSYDIR
 10
0.0
 20
1.0
 30
0.0
  9
$USERI1
 70
     0
  9
$USERI2
 70
     1
  9
$USERI3
 70
     0
  9
$USERI4
 70
     0
  9
$USERI5
 70
     0
  9
$USERR1
 40
0.0
  9
$USERR2
 40
0.0
  9
$USERR3
 40
0.0
  9
$USERR4
 40
0.0
  9
$USERR5
 40
0.0
  9
$WORLDVIEW
 70
     1
  9
$SHADEDGE
 70
     3
  9
$SHADEDIF
 70
    70
  9
$TILEMODE
 70
     1
  9
$MAXACTVP
 70
    16
  9
$PLIMCHECK
 70
     0
  9
$PEXTMIN
 10
1.0000000000000000E+020
 20
1.0000000000000000E+020
 30
1.0000000000000000E+020
  9
$PEXTMAX
 10
-1.0000000000000000E+020
 20
-1.0000000000000000E+020
 30
-1.0000000000000000E+020
  9
$PLIMMIN
 10
0.0
 20
0.0
  9
$PLIMMAX
 10
12.0
 20
9.0
  9
$UNITMODE
 70
     0
  9
$VISRETAIN
 70
     0
  9
$PLINEGEN
 70
     0
  9
$PSLTSCALE
 70
     0
  0
ENDSEC
  0
SECTION
  2
TABLES
  0
TABLE
  2
VPORT
 70
     1
  0
VPORT
  2
*ACTIVE
 70
     0
 10
0.0
 20
0.0
 11
1.0
 21
1.0
 12
195.0581083320873
 22
133.5127261426681
 13
0.0
 23
0.0
 14
10.0
 24
10.0
 15
10.0
 25
10.0
 16
0.0
 26
0.0
 36
1.0
 17
0.0
 27
0.0
 37
0.0
 40
275.42274993631997
 41
1.831871345029239
 42
50.0
 43
0.0
 44
0.0
 50
0.0
 51
0.0
 71
     0
 72
   500
 73
     1
 74
     0
 75
     0
 76
     0
 77
     0
 78
     2
  0
ENDTAB
  0
TABLE
  2
LTYPE
 70
     3
  0
LTYPE
  2
CONTINUOUS
 70
     0
  3
Solid Line
 72
    65
 73
     0
 40
0.0
  0
LTYPE
  2
CENTER
 70
     0
  3
____ _ ____ _ ____ _ ____ _ ____ _ ____ _ ____
 72
    65
 73
     4
 40
2.0
 49
1.25
 49
-0.25
 49
0.25
 49
-0.25
  0
LTYPE
  2
PHANTOM2
 70
     0
  3
___ _ _ ___ _ _ ___ _ _ ___ _ _
 72
    65
 73
     6
 40
1.25
 49
0.625
 49
-0.125
 49
0.125
 49
-0.125
 49
0.125
 49
-0.125
  0
ENDTAB
  0
TABLE
  2
LAYER
 70
     3
  0
LAYER
  2
0
 70
     0
 62
     7
  6
CONTINUOUS
  0
LAYER
  2
1
 70
     0
 62
     1
  6
CENTER
  0
LAYER
  2
3
 70
     0
 62
     3
  6
CONTINUOUS
  0
ENDTAB
  0
TABLE
  2
STYLE
 70
     2
  0
STYLE
  2
STANDARD
 70
     0
 40
0.0
 41
1.0
 50
0.0
 71
     0
 42
3.200000000000049
  3
TXT
  4
BIGFONT
  0
STYLE
  2
STANDARD1
 70
     0
 40
0.0
 41
1.0
 50
0.0
 71
     0
 42
3.0
  3
txt
  4

  0
ENDTAB
  0
TABLE
  2
VIEW
 70
     1
  0
VIEW
  2
ALL
 70
     0
 40
175.0
 10
143.23529411764699
 20
87.5
 41
0.0
 11
0.0
 21
0.0
 31
1.0
 12
0.0
 22
0.0
 32
0.0
 42
0.0
 43
0.0
 44
0.0
 50
0.0
 71
     0
  0
ENDTAB
  0
TABLE
  2
UCS
 70
     0
  0
ENDTAB
  0
TABLE
  2
APPID
 70
     3
  0
APPID
  2
ACAD
 70
     0
  0
APPID
  2
ACAD_MLEADERVER
 70
     0
  0
APPID
  2
ACAD_NAV_VCDISPLAY
 70
     0
  0
ENDTAB
  0
TABLE
  2
DIMSTYLE
 70
     1
  0
DIMSTYLE
  2
STANDARD
 70
     0
  3

  4

  5

  6

  7

 40
1.0
 41
0.18
 42
0.0625
 43
0.38
 44
0.18
 45
0.0
 46
0.0
 47
0.0
 48
0.0
140
0.18
141
0.09
142
0.0
143
25.399999999999999
144
1.0
145
0.0
146
1.0
147
0.09
 71
     0
 72
     0
 73
     1
 74
     1
 75
     0
 76
     0
 77
     0
 78
     0
170
     0
171
     2
172
     0
173
     0
174
     0
175
     0
176
     0
177
     0
178
     0
  0
ENDTAB
  0
ENDSEC
  0
SECTION
  2
BLOCKS
  0
BLOCK
  8
0
  2
$MODEL_SPACE
 70
     0
 10
0.0
 20
0.0
 30
0.0
  3
$MODEL_SPACE
  1

  0
ENDBLK
  5
DA
  8
0
  0
BLOCK
 67
     1
  8
0
  2
$PAPER_SPACE
 70
     0
 10
0.0
 20
0.0
 30
0.0
  3
$PAPER_SPACE
  1

  0
ENDBLK
  5
D8
 67
     1
  8
0
  0
ENDSEC
  0
SECTION
  2
ENTITIES
  0
LINE
  5
1D1
  8
0
 10
204.5490254577559
 20
50.639182152000977
 30
0.0
 11
226.41773369578411
 21
50.639182152000977
 31
0.0
  0
ARC
  5
1D3
  8
0
 10
215.48337957677009
 20
39.639182152000998
 30
0.0
 40
15.50999999999997
 50
44.828523754437832
 51
45.17147624556101
  0
ARC
  5
1D4
  8
0
 10
215.48337957677009
 20
39.639182152000998
 30
0.0
 40
15.51000000000001
 50
134.828523754439
 51
135.1714762455621
  0
LINE
  5
1D6
  8
0
 10
226.41773369578411
 20
28.639182152000998
 30
0.0
 11
204.5490254577559
 21
28.639182152000998
 31
0.0
  0
LINE
  5
1D7
  8
0
 10
226.48337957677001
 20
50.573536271015122
 30
0.0
 11
226.48337957677001
 21
28.704828032986921
 31
0.0
  0
LINE
  5
1D8
  8
0
 10
204.48337957677001
 20
28.704828032986921
 30
0.0
 11
204.48337957677001
 21
50.57353627101503
 31
0.0
  0
ARC
  5
1D9
  8
0
 10
215.48337957677009
 20
39.639182152000998
 30
0.0
 40
15.510000000000019
 50
224.82852375443841
 51
225.17147624556159
  0
ARC
  5
1DA
  8
0
 10
215.48337957677009
 20
39.639182152000998
 30
0.0
 40
15.50999999999998
 50
314.82852375443889
 51
315.17147624556208
  0
LINE
  5
1DB
  8
0
 10
224.09020826101849
 20
32.789182152000997
 30
0.0
 11
206.87655089252169
 21
32.789182152000997
 31
0.0
  0
ARC
  5
1DC
  8
0
 10
215.48337957677009
 20
39.639182152000998
 30
0.0
 40
11.00000000000006
 50
321.4844309475223
 51
0.0
  0
ARC
  5
1DD
  8
0
 10
215.48337957677009
 20
39.639182152000998
 30
0.0
 40
11.00000000000006
 50
0.0
 51
38.515569052478362
  0
LINE
  5
1DE
  8
0
 10
206.87655089252169
 20
46.489182152000971
 30
0.0
 11
224.09020826101849
 21
46.489182152000971
 31
0.0
  0
ARC
  5
1DF
  8
0
 10
215.48337957677009
 20
39.639182152000998
 30
0.0
 40
11.00000000000003
 50
141.48443094752031
 51
180.0
  0
ARC
  5
1E0
  8
0
 10
215.48337957677009
 20
39.639182152000998
 30
0.0
 40
11.00000000000003
 50
180.0
 51
218.51556905247969
  0
CIRCLE
  5
1E1
  8
0
 10
215.48337957676989
 20
39.639182152000998
 30
0.0
 40
6.0
  0
CIRCLE
  5
1E2
  8
3
 10
215.48337957676989
 20
39.639182152000998
 30
0.0
 40
4.9264999999999901
  0
ARC
  5
1EA
  8
0
 10
40.905267221358883
 20
39.639182152000998
 30
0.0
 40
15.51
 50
44.828523754437832
 51
45.17147624556101
  0
ARC
  5
1EB
  8
0
 10
40.905267221358883
 20
39.639182152000998
 30
0.0
 40
11.109999999999999
 50
8.0693011593945219
 51
81.930698840610447
  0
ARC
  5
1EE
  8
0
 10
40.905267221358883
 20
39.639182152000998
 30
0.0
 40
11.109999999999999
 50
278.06930115939599
 51
351.93069884060873
  0
ARC
  5
1EF
  8
0
 10
40.905267221358883
 20
39.639182152000998
 30
0.0
 40
15.51000000000001
 50
314.82852375443889
 51
315.17147624556208
  0
ARC
  5
1F1
  8
0
 10
40.905267221358883
 20
39.639182152000998
 30
0.0
 40
11.109999999999999
 50
188.06930115939531
 51
261.93069884061049
  0
ARC
  5
1F3
  8
0
 10
40.905267221358883
 20
39.639182152000998
 30
0.0
 40
15.51
 50
224.82852375443841
 51
225.17147624556159
  0
ARC
  5
1F5
  8
0
 10
40.905267221358883
 20
39.639182152000998
 30
0.0
 40
11.109999999999991
 50
98.069301159396019
 51
171.9306988406079
  0
ARC
  5
1F7
  8
0
 10
40.905267221358883
 20
39.639182152000998
 30
0.0
 40
15.509999999999989
 50
134.828523754439
 51
135.1714762455621
  0
LINE
  5
1F9
  8
3
 10
161.94052944046661
 20
94.927386933705776
 30
0.0
 11
116.94052944046651
 21
94.92738693370579
 31
0.0
  0
LINE
  5
1FA
  8
3
 10
161.94052944046661
 20
85.074386933705767
 30
0.0
 11
116.94052944046651
 21
85.074386933705796
 31
0.0
  0
LINE
  5
1FC
  8
0
 10
114.7754659310055
 20
94.7508869337058
 30
0.0
 11
114.7754659310054
 21
85.250886933705772
 31
0.0
  0
LINE
  5
1FE
  8
0
 10
116.94052944046651
 20
96.000886933705786
 30
0.0
 11
116.94052944046651
 21
84.000886933705772
 31
0.0
  0
LINE
  5
200
  8
0
 10
160.8670294404665
 20
96.000886933705743
 30
0.0
 11
160.86702944046661
 21
84.000886933705772
 31
0.0
  0
LINE
  5
202
  8
0
 10
161.94052944046661
 20
94.927386933705804
 30
0.0
 11
161.94052944046661
 21
85.074386933705767
 31
0.0
  0
ARC
  5
203
  8
0
 10
98.940529440466563
 20
90.0008869337058
 30
0.0
 40
8.6068286842483985
 50
270.0
 51
90.0
  0
LINE
  5
205
  8
0
 10
108.8620968569588
 20
94.7508869337058
 30
0.0
 11
108.8620968569588
 21
85.250886933705772
 31
0.0
  0
LINE
  5
206
  8
0
 10
98.940529440466605
 20
79.000886933705743
 30
0.0
 11
90.940529440466605
 21
79.000886933705743
 31
0.0
  0
LINE
  5
208
  8
0
 10
90.940529440466605
 20
101.0008869337057
 30
0.0
 11
98.940529440466605
 21
101.0008869337057
 31
0.0
  0
LINE
  5
20A
  8
0
 10
95.340529440466582
 20
79.066532814691669
 30
0.0
 11
98.940529440466605
 21
79.066532814691669
 31
0.0
  0
LINE
  5
20B
  8
0
 10
98.940529440466605
 20
79.000886933705743
 30
0.0
 11
98.940529440466605
 21
101.0008869337057
 31
0.0
  0
LINE
  5
20C
  8
0
 10
98.940529440466605
 20
100.9352410527198
 30
0.0
 11
95.340529440466582
 21
100.9352410527198
 31
0.0
  0
LINE
  5
20F
  8
0
 10
95.340529440466582
 20
79.066532814691669
 30
0.0
 11
95.340529440466582
 21
79.000886933705743
 31
0.0
  0
LINE
  5
213
  8
0
 10
90.940529440466605
 20
101.0008869337057
 30
0.0
 11
90.940529440466605
 21
79.000886933705743
 31
0.0
  0
LINE
  5
215
  8
0
 10
95.340529440466582
 20
101.0008869337057
 30
0.0
 11
95.340529440466582
 21
100.9352410527198
 31
0.0
  0
LINE
  5
216
  8
0
 10
108.8620968569588
 20
85.250886933705772
 30
0.0
 11
114.7754659310054
 21
85.250886933705772
 31
0.0
  0
LINE
  5
217
  8
0
 10
114.7754659310054
 20
94.750886933705786
 30
0.0
 11
108.8620968569588
 21
94.750886933705786
 31
0.0
  0
LINE
  5
218
  8
0
 10
114.7754659310054
 20
85.250886933705772
 30
0.0
 11
116.94052944046651
 21
84.000886933705772
 31
0.0
  0
LINE
  5
219
  8
0
 10
116.94052944046651
 20
96.000886933705786
 30
0.0
 11
114.7754659310054
 21
94.750886933705786
 31
0.0
  0
LINE
  5
21A
  8
0
 10
116.94052944046651
 20
84.000886933705772
 30
0.0
 11
160.86702944046661
 21
84.000886933705772
 31
0.0
  0
LINE
  5
21B
  8
0
 10
160.86702944046661
 20
96.000886933705786
 30
0.0
 11
116.94052944046651
 21
96.000886933705786
 31
0.0
  0
LINE
  5
21C
  8
0
 10
161.94052944046661
 20
94.927386933705776
 30
0.0
 11
160.86702944046661
 21
96.000886933705786
 31
0.0
  0
LINE
  5
21D
  8
0
 10
160.86702944046661
 20
84.000886933705772
 30
0.0
 11
161.94052944046661
 21
85.074386933705767
 31
0.0
  0
ARC
  5
21E
  8
0
 10
98.940529440466563
 20
90.000886933705829
 30
0.0
 40
11.000000000000069
 50
270.0
 51
334.41699802260109
  0
ARC
  5
21F
  8
0
 10
98.940529440466563
 20
90.000886933705829
 30
0.0
 40
11.000000000000041
 50
25.583001977398919
 51
90.0
  0
LINE
  5
220
  8
0
 10
116.94052944046651
 20
45.639182152001013
 30
0.0
 11
116.94052944046651
 21
33.639182152000991
 31
0.0
  0
LINE
  5
221
  8
3
 10
161.94052944046661
 20
44.565682152000988
 30
0.0
 11
116.94052944046651
 21
44.565682152000988
 31
0.0
  0
LINE
  5
222
  8
3
 10
161.94052944046661
 20
34.712682152001001
 30
0.0
 11
116.94052944046651
 21
34.712682152001001
 31
0.0
  0
LINE
  5
223
  8
0
 10
160.86702944046661
 20
45.639182152001013
 30
0.0
 11
160.86702944046661
 21
33.639182152000991
 31
0.0
  0
LINE
  5
224
  8
0
 10
161.94052944046661
 20
44.565682152000988
 30
0.0
 11
161.94052944046661
 21
34.712682152001001
 31
0.0
  0
LINE
  5
225
  8
0
 10
114.7754659310054
 20
44.389182152001013
 30
0.0
 11
114.7754659310054
 21
34.889182152000991
 31
0.0
  0
LINE
  5
229
  8
0
 10
98.940529440466605
 20
28.639182152000991
 30
0.0
 11
98.940529440466605
 21
50.639182152000963
 31
0.0
  0
LINE
  5
22A
  8
0
 10
98.940529440466605
 20
28.639182152000998
 30
0.0
 11
90.940529440466605
 21
28.639182152000998
 31
0.0
  0
LINE
  5
22C
  8
0
 10
95.340529440466582
 20
28.704828032986921
 30
0.0
 11
98.940529440466605
 21
28.704828032986921
 31
0.0
  0
LINE
  5
22D
  8
0
 10
90.940529440466662
 20
50.639182152000977
 30
0.0
 11
98.940529440466605
 21
50.639182152000977
 31
0.0
  0
LINE
  5
22F
  8
0
 10
98.940529440466605
 20
50.573536271015051
 30
0.0
 11
95.340529440466582
 21
50.573536271015051
 31
0.0
  0
LINE
  5
230
  8
0
 10
107.5473581247149
 20
32.789182152000997
 30
0.0
 11
98.940529440466605
 21
32.789182152000997
 31
0.0
  0
LINE
  5
231
  8
0
 10
98.940529440466605
 20
46.489182152000971
 30
0.0
 11
107.5473581247149
 21
46.489182152000971
 31
0.0
  0
LINE
  5
232
  8
0
 10
108.8620968569588
 20
44.389182152001013
 30
0.0
 11
108.8620968569588
 21
34.88918215200097
 31
0.0
  0
LINE
  5
236
  8
0
 10
95.340529440466582
 20
28.704828032986921
 30
0.0
 11
95.340529440466582
 21
28.639182152000998
 31
0.0
  0
LINE
  5
239
  8
0
 10
95.340529440466582
 20
50.639182152000977
 30
0.0
 11
95.340529440466582
 21
50.573536271015051
 31
0.0
  0
LINE
  5
23A
  8
0
 10
90.940529440466605
 20
50.639182152000977
 30
0.0
 11
90.940529440466605
 21
28.639182152000998
 31
0.0
  0
LINE
  5
23B
  8
0
 10
108.8620968569588
 20
34.889182152000991
 30
0.0
 11
114.7754659310054
 21
34.889182152000991
 31
0.0
  0
LINE
  5
23C
  8
0
 10
114.7754659310054
 20
44.389182152001013
 30
0.0
 11
108.8620968569588
 21
44.389182152001013
 31
0.0
  0
LINE
  5
23D
  8
0
 10
116.94052944046651
 20
33.639182152000991
 30
0.0
 11
160.86702944046661
 21
33.639182152000991
 31
0.0
  0
LINE
  5
23E
  8
0
 10
160.86702944046661
 20
45.639182152001013
 30
0.0
 11
116.94052944046651
 21
45.639182152001013
 31
0.0
  0
LINE
  5
23F
  8
0
 10
161.94052944046661
 20
44.565682152000988
 30
0.0
 11
160.86702944046661
 21
45.639182152001013
 31
0.0
  0
LINE
  5
240
  8
0
 10
160.86702944046661
 20
33.639182152000991
 30
0.0
 11
161.94052944046661
 21
34.712682152001001
 31
0.0
  0
LINE
  5
241
  8
0
 10
114.7754659310054
 20
34.889182152000991
 30
0.0
 11
116.94052944046651
 21
33.639182152000991
 31
0.0
  0
LINE
  5
242
  8
0
 10
116.94052944046651
 20
45.639182152001013
 30
0.0
 11
114.7754659310054
 21
44.389182152001013
 31
0.0
  0
ARC
  5
243
  8
0
 10
98.940529440466563
 20
39.639182152000998
 30
0.0
 40
11.00000000000006
 50
321.4844309475223
 51
334.41699802260109
  0
ARC
  5
244
  8
0
 10
98.940529440466563
 20
39.639182152000998
 30
0.0
 40
11.00000000000005
 50
25.583001977398919
 51
38.515569052479627
  0
LINE
  5
245
  8
0
 10
29.97091310234498
 20
50.639182152001119
 30
0.0
 11
51.839621340372958
 21
50.639182152000977
 31
0.0
  0
LINE
  5
246
  8
0
 10
51.905267221358891
 20
50.573536271015051
 30
0.0
 11
51.905267221359217
 21
28.70482803298728
 31
0.0
  0
LINE
  5
247
  8
0
 10
51.839621340372958
 20
28.639182152000998
 30
0.0
 11
29.97091310234504
 21
28.639182152000739
 31
0.0
  0
LINE
  5
248
  8
0
 10
29.905267221358539
 20
50.573536271014717
 30
0.0
 11
29.90526722135888
 21
28.704828032986921
 31
0.0
  0
LINE
  5
24A
  8
1
 10
40.905267221358883
 20
55.639182152001069
 30
0.0
 11
40.905267221358933
 21
23.63918215200091
 31
0.0
  0
LINE
  5
24B
  8
1
 10
24.90526722135872
 20
39.639182152000998
 30
0.0
 11
56.905267221359047
 21
39.639182152000998
 31
0.0
  0
LINE
  5
257
  8
1
 10
215.48337957677009
 20
55.639182152001013
 30
0.0
 11
215.48337957677009
 21
23.639182152000991
 31
0.0
  0
LINE
  5
258
  8
1
 10
85.940529440466605
 20
39.639182152000998
 30
0.0
 11
166.94052944046649
 21
39.639182152000991
 31
0.0
  0
LINE
  5
259
  8
1
 10
199.48337957677001
 20
39.639182152000991
 30
0.0
 11
231.48337957677009
 21
39.639182152000991
 31
0.0
  0
POLYLINE
  5
29C
  8
0
 66
     1
 10
0.0
 20
0.0
 30
0.0
 70
     2
  0
VERTEX
  5
29D
  8
0
 10
90.940529440466605
 20
41.198701308664397
 30
0.0
 42
-0.0059248346243708
  0
VERTEX
  5
2A8
  8
0
 10
90.937446290741704
 20
42.328361472527263
 30
0.0
 42
-0.0104277251814202
 70
     1
  0
VERTEX
  5
29E
  8
0
 10
90.956684366839625
 20
42.969974137736472
 30
0.0
 42
-0.000966517144269
  0
VERTEX
  5
2A9
  8
0
 10
91.030052563357614
 20
44.35921534536589
 30
0.0
 42
-0.0055113182345213
 70
     1
  0
VERTEX
  5
29F
  8
0
 10
91.046074780924471
 20
44.602665919153729
 30
0.0
 42
-0.0196438559663125
  0
VERTEX
  5
2AA
  8
0
 10
91.144274451400918
 20
45.445242606411171
 30
0.0
 42
-0.0168578006037561
 70
     1
  0
VERTEX
  5
2A0
  8
0
 10
91.329984736276273
 20
46.41601168397878
 30
0.0
 42
-0.0194011413753089
  0
VERTEX
  5
2AB
  8
0
 10
91.475650184066524
 20
46.960232571650863
 30
0.0
 42
-0.0166007104615615
 70
     1
  0
VERTEX
  5
2A1
  8
0
 10
91.691177440912796
 20
47.582303721743983
 30
0.0
 42
-0.0270599858106522
  0
VERTEX
  5
2AC
  8
0
 10
91.959921952176785
 20
48.182759493379649
 30
0.0
 42
-0.0272443944335276
 70
     1
  0
VERTEX
  5
2A2
  8
0
 10
92.289908983974726
 20
48.746717915894322
 30
0.0
 42
-0.0280591034949157
  0
VERTEX
  5
2AD
  8
0
 10
92.634762351842184
 20
49.209901497667829
 30
0.0
 42
-0.0312726340306952
 70
     1
  0
VERTEX
  5
2A3
  8
0
 10
92.991257302158886
 20
49.586020284010118
 30
0.0
 42
-0.0226975643016522
  0
VERTEX
  5
2AE
  8
0
 10
93.288783056288082
 20
49.838800109673109
 30
0.0
 42
-0.0229311212721755
 70
     1
  0
VERTEX
  5
2A4
  8
0
 10
93.604854290213609
 20
50.061133994889559
 30
0.0
 42
-0.033745933927072
  0
VERTEX
  5
2B0
  8
0
 10
93.808981599069625
 20
50.172570699156097
 30
0.0
 42
-0.0120612635892046
 70
     1
  0
VERTEX
  5
2A5
  8
0
 10
94.405634309389825
 20
50.43055920708678
 30
0.0
 42
-0.0581244879695499
  0
VERTEX
  5
2AF
  8
0
 10
94.758235902961815
 20
50.527338853006938
 30
0.0
 42
-0.0363093369948458
 70
     1
  0
VERTEX
  5
2A6
  8
0
 10
95.340529440466582
 20
50.573536271015051
 30
0.0
  0
SEQEND
  5
2A7
  8
0
  0
POLYLINE
  5
2B1
  8
0
 66
     1
 10
0.0
 20
0.0
 30
0.0
 70
     2
  0
VERTEX
  5
2B2
  8
0
 10
90.940529440466605
 20
38.0796629953376
 30
0.0
 42
0.0059248346243708
  0
VERTEX
  5
2B3
  8
0
 10
90.937446290741704
 20
36.950002831474741
 30
0.0
 42
0.0104277251814202
 70
     1
  0
VERTEX
  5
2B4
  8
0
 10
90.956684366839625
 20
36.308390166265518
 30
0.0
 42
0.000966517144269
  0
VERTEX
  5
2B5
  8
0
 10
91.030052563357614
 20
34.9191489586361
 30
0.0
 42
0.0055113182345213
 70
     1
  0
VERTEX
  5
2B6
  8
0
 10
91.046074780924471
 20
34.675698384848261
 30
0.0
 42
0.0196438559663125
  0
VERTEX
  5
2B7
  8
0
 10
91.144274451400918
 20
33.833121697590833
 30
0.0
 42
0.0168578006037561
 70
     1
  0
VERTEX
  5
2B8
  8
0
 10
91.329984736276273
 20
32.862352620023223
 30
0.0
 42
0.0194011413753089
  0
VERTEX
  5
2B9
  8
0
 10
91.475650184066524
 20
32.318131732351141
 30
0.0
 42
0.0166007104615615
 70
     1
  0
VERTEX
  5
2BA
  8
0
 10
91.691177440912796
 20
31.69606058225801
 30
0.0
 42
0.0270599858106522
  0
VERTEX
  5
2BB
  8
0
 10
91.959921952176785
 20
31.095604810622351
 30
0.0
 42
0.0272443944335276
 70
     1
  0
VERTEX
  5
2BC
  8
0
 10
92.289908983974726
 20
30.531646388107681
 30
0.0
 42
0.0280591034949157
  0
VERTEX
  5
2BD
  8
0
 10
92.634762351842184
 20
30.068462806334171
 30
0.0
 42
0.0312726340306952
 70
     1
  0
VERTEX
  5
2BE
  8
0
 10
92.991257302158886
 20
29.692344019991879
 30
0.0
 42
0.0226975643016522
  0
VERTEX
  5
2BF
  8
0
 10
93.288783056288082
 20
29.439564194328881
 30
0.0
 42
0.0229311212721755
 70
     1
  0
VERTEX
  5
2C0
  8
0
 10
93.604854290213609
 20
29.217230309112441
 30
0.0
 42
0.033745933927072
  0
VERTEX
  5
2C1
  8
0
 10
93.808981599069625
 20
29.1057936048459
 30
0.0
 42
0.0120612635892046
 70
     1
  0
VERTEX
  5
2C2
  8
0
 10
94.405634309389825
 20
28.847805096915209
 30
0.0
 42
0.0581244879695499
  0
VERTEX
  5
2C3
  8
0
 10
94.758235902961815
 20
28.751025450995058
 30
0.0
 42
0.0363093369948458
 70
     1
  0
VERTEX
  5
2C4
  8
0
 10
95.340529440466582
 20
28.704828032986939
 30
0.0
  0
SEQEND
  5
2C5
  8
0
  0
POLYLINE
  5
2C6
  8
0
 66
     1
 10
0.0
 20
0.0
 30
0.0
 70
     2
  0
VERTEX
  5
2C7
  8
0
 10
90.940529440466605
 20
91.560406090369156
 30
0.0
 42
-0.0059248346243708
  0
VERTEX
  5
2C8
  8
0
 10
90.937446290741704
 20
92.690066254232022
 30
0.0
 42
-0.0104277251814202
 70
     1
  0
VERTEX
  5
2C9
  8
0
 10
90.956684366839625
 20
93.331678919441231
 30
0.0
 42
-0.000966517144269
  0
VERTEX
  5
2CA
  8
0
 10
91.030052563357614
 20
94.720920127070656
 30
0.0
 42
-0.0055113182345213
 70
     1
  0
VERTEX
  5
2CB
  8
0
 10
91.046074780924471
 20
94.964370700858495
 30
0.0
 42
-0.0196438559663125
  0
VERTEX
  5
2CC
  8
0
 10
91.144274451400918
 20
95.806947388115915
 30
0.0
 42
-0.0168578006037561
 70
     1
  0
VERTEX
  5
2CD
  8
0
 10
91.329984736276273
 20
96.77771646568354
 30
0.0
 42
-0.0194011413753089
  0
VERTEX
  5
2CE
  8
0
 10
91.475650184066524
 20
97.321937353355636
 30
0.0
 42
-0.0166007104615615
 70
     1
  0
VERTEX
  5
2CF
  8
0
 10
91.691177440912796
 20
97.944008503448742
 30
0.0
 42
-0.0270599858106522
  0
VERTEX
  5
2D0
  8
0
 10
91.959921952176785
 20
98.544464275084422
 30
0.0
 42
-0.0272443944335276
 70
     1
  0
VERTEX
  5
2D1
  8
0
 10
92.289908983974726
 20
99.108422697599096
 30
0.0
 42
-0.0280591034949157
  0
VERTEX
  5
2D2
  8
0
 10
92.634762351842184
 20
99.571606279372588
 30
0.0
 42
-0.0312726340306952
 70
     1
  0
VERTEX
  5
2D3
  8
0
 10
92.991257302158886
 20
99.947725065714877
 30
0.0
 42
-0.0226975643016522
  0
VERTEX
  5
2D4
  8
0
 10
93.288783056288082
 20
100.2005048913779
 30
0.0
 42
-0.0229311212721755
 70
     1
  0
VERTEX
  5
2D5
  8
0
 10
93.604854290213609
 20
100.4228387765943
 30
0.0
 42
-0.033745933927072
  0
VERTEX
  5
2D6
  8
0
 10
93.808981599069625
 20
100.5342754808608
 30
0.0
 42
-0.0120612635892046
 70
     1
  0
VERTEX
  5
2D7
  8
0
 10
94.405634309389825
 20
100.7922639887915
 30
0.0
 42
-0.0581244879695499
  0
VERTEX
  5
2D8
  8
0
 10
94.758235902961815
 20
100.8890436347117
 30
0.0
 42
-0.0363093369948458
 70
     1
  0
VERTEX
  5
2D9
  8
0
 10
95.340529440466582
 20
100.9352410527198
 30
0.0
  0
SEQEND
  5
2DA
  8
0
  0
POLYLINE
  5
2DB
  8
0
 66
     1
 10
0.0
 20
0.0
 30
0.0
 70
     2
  0
VERTEX
  5
2DC
  8
0
 10
90.940529440466605
 20
88.441367777042345
 30
0.0
 42
0.0059248346243708
  0
VERTEX
  5
2DD
  8
0
 10
90.937446290741704
 20
87.311707613179493
 30
0.0
 42
0.0104277251814202
 70
     1
  0
VERTEX
  5
2DE
  8
0
 10
90.956684366839625
 20
86.670094947970284
 30
0.0
 42
0.000966517144269
  0
VERTEX
  5
2DF
  8
0
 10
91.030052563357614
 20
85.280853740340859
 30
0.0
 42
0.0055113182345213
 70
     1
  0
VERTEX
  5
2E0
  8
0
 10
91.046074780924471
 20
85.037403166553005
 30
0.0
 42
0.0196438559663125
  0
VERTEX
  5
2E1
  8
0
 10
91.144274451400918
 20
84.194826479295585
 30
0.0
 42
0.0168578006037561
 70
     1
  0
VERTEX
  5
2E2
  8
0
 10
91.329984736276273
 20
83.224057401727976
 30
0.0
 42
0.0194011413753089
  0
VERTEX
  5
2E3
  8
0
 10
91.475650184066524
 20
82.679836514055893
 30
0.0
 42
0.0166007104615615
 70
     1
  0
VERTEX
  5
2E4
  8
0
 10
91.691177440912796
 20
82.057765363962758
 30
0.0
 42
0.0270599858106522
  0
VERTEX
  5
2E5
  8
0
 10
91.959921952176785
 20
81.457309592327107
 30
0.0
 42
0.0272443944335276
 70
     1
  0
VERTEX
  5
2E6
  8
0
 10
92.289908983974726
 20
80.893351169812433
 30
0.0
 42
0.0280591034949157
  0
VERTEX
  5
2E7
  8
0
 10
92.634762351842184
 20
80.430167588038927
 30
0.0
 42
0.0312726340306952
 70
     1
  0
VERTEX
  5
2E8
  8
0
 10
92.991257302158886
 20
80.054048801696624
 30
0.0
 42
0.0226975643016522
  0
VERTEX
  5
2E9
  8
0
 10
93.288783056288082
 20
79.80126897603364
 30
0.0
 42
0.0229311212721755
 70
     1
  0
VERTEX
  5
2EA
  8
0
 10
93.604854290213609
 20
79.578935090817197
 30
0.0
 42
0.033745933927072
  0
VERTEX
  5
2EB
  8
0
 10
93.808981599069625
 20
79.467498386550645
 30
0.0
 42
0.0120612635892046
 70
     1
  0
VERTEX
  5
2EC
  8
0
 10
94.405634309389825
 20
79.209509878619969
 30
0.0
 42
0.0581244879695499
  0
VERTEX
  5
2ED
  8
0
 10
94.758235902961815
 20
79.112730232699803
 30
0.0
 42
0.0363093369948458
 70
     1
  0
VERTEX
  5
2EE
  8
0
 10
95.340529440466582
 20
79.066532814691698
 30
0.0
  0
SEQEND
  5
2EF
  8
0
  0
LINE
  5
2F0
  8
1
 10
85.940529440466548
 20
90.000886933705758
 30
0.0
 11
166.94052944046669
 21
90.000886933705758
 31
0.0
  0
TEXT
  5
4F8
  8
0
 62
     3
 10
0.0
 20
0.0
 30
0.0
 40
10.0
  1
BJ755-14063
  7
STANDARD1
  0
ENDSEC
  0
EOF
