  0
SECTION
  2
HEADER
  9
$ACADVER
  1
AC1009
  9
$INSBASE
 10
0.0
 20
0.0
 30
0.0
  9
$EXTMIN
 10
-0.0005
 20
-1.4802182810368341
 30
0.0
  9
$EXTMAX
 10
78.0
 20
108.0
 30
0.0
  9
$LIMMIN
 10
0.0
 20
0.0
  9
$LIMMAX
 10
275.0
 20
175.0
  9
$ORTHOMODE
 70
     1
  9
$REGENMODE
 70
     1
  9
$FILLMODE
 70
     1
  9
$QTEXTMODE
 70
     0
  9
$MIRRTEXT
 70
     0
  9
$DRAGMODE
 70
     2
  9
$LTSCALE
 40
5.0
  9
$OSMODE
 70
  3071
  9
$ATTMODE
 70
     1
  9
$TEXTSIZE
 40
3.0
  9
$TRACEWID
 40
0.05
  9
$TEXTSTYLE
  7
STANDARD
  9
$CLAYER
  8
0
  9
$CELTYPE
  6
BYLAYER
  9
$CECOLOR
 62
   256
  9
$DIMSCALE
 40
1.0
  9
$DIMASZ
 40
3.0
  9
$DIMEXO
 40
2.0
  9
$DIMDLI
 40
10.0
  9
$DIMRND
 40
0.0
  9
$DIMDLE
 40
0.0
  9
$DIMEXE
 40
2.0
  9
$DIMTP
 40
0.0
  9
$DIMTM
 40
0.0
  9
$DIMTXT
 40
3.0
  9
$DIMCEN
 40
0.0
  9
$DIMTSZ
 40
0.0
  9
$DIMTOL
 70
     0
  9
$DIMLIM
 70
     0
  9
$DIMTIH
 70
     0
  9
$DIMTOH
 70
     0
  9
$DIMSE1
 70
     0
  9
$DIMSE2
 70
     0
  9
$DIMTAD
 70
     1
  9
$DIMZIN
 70
     0
  9
$DIMBLK
  1

  9
$DIMASO
 70
     0
  9
$DIMSHO
 70
     0
  9
$DIMPOST
  1

  9
$DIMAPOST
  1

  9
$DIMALT
 70
     0
  9
$DIMALTD
 70
     2
  9
$DIMALTF
 40
25.399999999999999
  9
$DIMLFAC
 40
1.0
  9
$DIMTOFL
 70
     1
  9
$DIMTVP
 40
1.6000000000000001
  9
$DIMTIX
 70
     1
  9
$DIMSOXD
 70
     0
  9
$DIMSAH
 70
     0
  9
$DIMBLK1
  1
ARROW1
  9
$DIMBLK2
  1
ARROW1
  9
$DIMSTYLE
  2
STANDARD
  9
$DIMCLRD
 70
     0
  9
$DIMCLRE
 70
     0
  9
$DIMCLRT
 70
     0
  9
$DIMTFAC
 40
1.0
  9
$DIMGAP
 40
0.09
  9
$LUNITS
 70
     2
  9
$LUPREC
 70
     2
  9
$SKETCHINC
 40
0.1
  9
$FILLETRAD
 40
0.0
  9
$AUNITS
 70
     0
  9
$AUPREC
 70
     2
  9
$MENU
  1
ME
  9
$ELEVATION
 40
0.0
  9
$PELEVATION
 40
0.0
  9
$THICKNESS
 40
0.0
  9
$LIMCHECK
 70
     0
  9
$BLIPMODE
 70
     0
  9
$CHAMFERA
 40
0.5
  9
$CHAMFERB
 40
0.5
  9
$SKPOLY
 70
     0
  9
$TDCREATE
 40
2452016.3857584959
  9
$TDUPDATE
 40
2456598.4294544798
  9
$TDINDWG
 40
0.9287813079
  9
$TDUSRTIMER
 40
0.9287811921
  9
$USRTIMER
 70
     1
  9
$ANGBASE
 50
0.0
  9
$ANGDIR
 70
     0
  9
$PDMODE
 70
     0
  9
$PDSIZE
 40
0.0
  9
$PLINEWID
 40
0.0
  9
$COORDS
 70
     1
  9
$SPLFRAME
 70
     0
  9
$SPLINETYPE
 70
     6
  9
$SPLINESEGS
 70
     8
  9
$ATTDIA
 70
     0
  9
$ATTREQ
 70
     1
  9
$HANDLING
 70
     1
  9
$HANDSEED
  5
38CD
  9
$SURFTAB1
 70
     6
  9
$SURFTAB2
 70
     6
  9
$SURFTYPE
 70
     6
  9
$SURFU
 70
     6
  9
$SURFV
 70
     6
  9
$UCSNAME
  2

  9
$UCSORG
 10
0.0
 20
0.0
 30
0.0
  9
$UCSXDIR
 10
1.0
 20
0.0
 30
0.0
  9
$UCSYDIR
 10
0.0
 20
1.0
 30
0.0
  9
$PUCSNAME
  2

  9
$PUCSORG
 10
0.0
 20
0.0
 30
0.0
  9
$PUCSXDIR
 10
1.0
 20
0.0
 30
0.0
  9
$PUCSYDIR
 10
0.0
 20
1.0
 30
0.0
  9
$USERI1
 70
     4
  9
$USERI2
 70
     1
  9
$USERI3
 70
     1
  9
$USERI4
 70
     1
  9
$USERI5
 70
     0
  9
$USERR1
 40
1.0
  9
$USERR2
 40
3.0
  9
$USERR3
 40
3.0
  9
$USERR4
 40
3.0
  9
$USERR5
 40
10.0
  9
$WORLDVIEW
 70
     1
  9
$SHADEDGE
 70
     3
  9
$SHADEDIF
 70
    70
  9
$TILEMODE
 70
     1
  9
$MAXACTVP
 70
    16
  9
$PLIMCHECK
 70
     0
  9
$PEXTMIN
 10
1.0000000000000000E+020
 20
1.0000000000000000E+020
 30
1.0000000000000000E+020
  9
$PEXTMAX
 10
-1.0000000000000000E+020
 20
-1.0000000000000000E+020
 30
-1.0000000000000000E+020
  9
$PLIMMIN
 10
0.0
 20
0.0
  9
$PLIMMAX
 10
12.0
 20
9.0
  9
$UNITMODE
 70
     0
  9
$VISRETAIN
 70
     0
  9
$PLINEGEN
 70
     0
  9
$PSLTSCALE
 70
     0
  0
ENDSEC
  0
SECTION
  2
TABLES
  0
TABLE
  2
VPORT
 70
     1
  0
VPORT
  2
*ACTIVE
 70
     0
 10
0.0
 20
0.0
 11
1.0
 21
1.0
 12
142.38584200527569
 22
86.756072846141691
 13
0.0
 23
0.0
 14
5.0
 24
5.0
 15
10.0
 25
10.0
 16
0.0
 26
0.0
 36
1.0
 17
0.0
 27
0.0
 37
0.0
 40
178.07070501899651
 41
1.831871345029239
 42
50.0
 43
0.0
 44
0.0
 50
0.0
 51
0.0
 71
     0
 72
   500
 73
     1
 74
     0
 75
     0
 76
     0
 77
     0
 78
     1
  0
ENDTAB
  0
TABLE
  2
LTYPE
 70
     5
  0
LTYPE
  2
CONTINUOUS
 70
     0
  3
Solid Line
 72
    65
 73
     0
 40
0.0
  0
LTYPE
  2
CENTER
 70
     0
  3
____ _ ____ _ ____ _ ____ _ ____ _ ____ _ ____
 72
    65
 73
     4
 40
2.0
 49
1.25
 49
-0.25
 49
0.25
 49
-0.25
  0
LTYPE
  2
HIDDEN
 70
     0
  3
_ _ _ _ _ _ _ _ _ _ _ _ _ _ _ _ _ _ _ _ _ _ _
 72
    65
 73
     2
 40
0.375
 49
0.25
 49
-0.125
  0
LTYPE
  2
GESTRICHELT
 70
     0
  3
__ __ __ __  __ __
 72
    65
 73
     2
 40
1.75
 49
1.0
 49
-1.0
  0
LTYPE
  2
PHANTOM2
 70
     0
  3
___ _ _ ___ _ _ ___ _ _ ___ _ _
 72
    65
 73
     6
 40
1.25
 49
0.625
 49
-0.125
 49
0.125
 49
-0.125
 49
0.125
 49
-0.125
  0
ENDTAB
  0
TABLE
  2
LAYER
 70
     8
  0
LAYER
  2
0
 70
     0
 62
     7
  6
CONTINUOUS
  0
LAYER
  2
1
 70
     0
 62
     1
  6
CENTER
  0
LAYER
  2
2
 70
     0
 62
     2
  6
HIDDEN
  0
LAYER
  2
3
 70
     0
 62
     3
  6
CONTINUOUS
  0
LAYER
  2
10
 70
     0
 62
     7
  6
CONTINUOUS
  0
LAYER
  2
11
 70
     0
 62
     3
  6
CONTINUOUS
  0
LAYER
  2
WAKU
 70
     0
 62
     5
  6
CONTINUOUS
  0
LAYER
  2
ITTEN
 70
     0
 62
     1
  6
CENTER
  0
ENDTAB
  0
TABLE
  2
STYLE
 70
     3
  0
STYLE
  2
STANDARD
 70
     0
 40
0.0
 41
1.0
 50
0.0
 71
     0
 42
3.0
  3
simplex.shx
  4
bigfont.shx
  0
STYLE
  2
07500
 70
     0
 40
0.0
 41
0.75
 50
0.0
 71
     0
 42
6.0
  3
ROMANS
  4
EXTFONT
  0
STYLE
  2
STANDARD1
 70
     0
 40
0.0
 41
1.0
 50
0.0
 71
     0
 42
3.0
  3
txt
  4

  0
ENDTAB
  0
TABLE
  2
VIEW
 70
     0
  0
ENDTAB
  0
TABLE
  2
UCS
 70
     0
  0
ENDTAB
  0
TABLE
  2
APPID
 70
     4
  0
APPID
  2
ACAD
 70
     0
  0
APPID
  2
DCO15
 70
     0
  0
APPID
  2
ACAD_MLEADERVER
 70
     0
  0
APPID
  2
ACAD_NAV_VCDISPLAY
 70
     0
  0
ENDTAB
  0
TABLE
  2
DIMSTYLE
 70
     2
  0
DIMSTYLE
  2
STANDARD
 70
     0
  3

  4

  5

  6

  7

 40
1.0
 41
0.18
 42
0.0625
 43
0.38
 44
0.18
 45
0.0
 46
0.0
 47
0.0
 48
0.0
140
0.18
141
0.09
142
0.0
143
25.399999999999999
144
1.0
145
0.0
146
1.0
147
0.09
 71
     0
 72
     0
 73
     1
 74
     1
 75
     0
 76
     0
 77
     0
 78
     0
170
     0
171
     2
172
     0
173
     0
174
     0
175
     0
176
     0
177
     0
178
     0
  0
DIMSTYLE
  2
ISO-25
 70
     0
  3

  4

  5

  6

  7

 40
1.0
 41
2.5
 42
1.0
 43
3.75
 44
1.25
 45
0.0
 46
0.0
 47
0.0
 48
0.0
140
2.5
141
2.5
142
0.0
143
0.03937007874016
144
1.0
145
0.0
146
1.0
147
1.0
 71
     0
 72
     0
 73
     0
 74
     0
 75
     0
 76
     0
 77
     1
 78
     8
170
     0
171
     3
172
     1
173
     0
174
     0
175
     0
176
     4
177
     4
178
     4
  0
ENDTAB
  0
ENDSEC
  0
SECTION
  2
BLOCKS
  0
BLOCK
  8
0
  2
$MODEL_SPACE
 70
     0
 10
0.0
 20
0.0
 30
0.0
  3
$MODEL_SPACE
  1

  0
ENDBLK
  5
33
  8
0
  0
BLOCK
 67
     1
  8
0
  2
$PAPER_SPACE
 70
     0
 10
0.0
 20
0.0
 30
0.0
  3
$PAPER_SPACE
  1

  0
ENDBLK
  5
31
 67
     1
  8
0
  0
BLOCK
  8
0
  2
ARROW1
 70
     0
 10
0.0
 20
0.0
 30
0.0
  3
ARROW1
  1

  0
SOLID
  5
D5
  8
WAKU
  6
CONTINUOUS
 62
     4
 10
-1.0
 20
0.1666666666666714
 30
0.0
 11
-1.0
 21
-0.1666666666666714
 31
0.0
 12
0.0
 22
0.0
 32
0.0
 13
0.0
 23
0.0
 33
0.0
  0
ENDBLK
  5
D7
  8
0
  0
BLOCK
  8
0
  2
STDGX5
 70
     0
 10
0.0
 20
0.0
 30
0.0
  3
STDGX5
  1

  0
ENDBLK
  5
21A
  8
0
  0
BLOCK
  8
0
  2
BATU
 70
     0
 10
0.0
 20
0.0
 30
0.0
  3
BATU
  1

  0
LINE
  5
26E6
  8
ITTEN
 10
0.5
 20
0.0
 30
0.0
 11
-0.5
 21
0.0
 31
0.0
  0
LINE
  5
26E7
  8
ITTEN
 10
0.0
 20
0.5
 30
0.0
 11
0.0
 21
-0.5
 31
0.0
  0
ENDBLK
  5
26E9
  8
0
  0
ENDSEC
  0
SECTION
  2
ENTITIES
  0
INSERT
  5
765
  8
11
  2
STDGX5
 10
171.6259341103956
 20
132.69480478791689
 30
0.0
 41
0.0499999999999972
 42
0.0499999999999972
 43
0.0499999999999972
  0
INSERT
  5
AA6
  8
11
  2
STDGX5
 10
0.0
 20
0.0
 30
0.0
 41
0.5
 42
0.5
 43
0.5
  0
INSERT
  5
177B
  8
11
  2
STDGX5
 10
73.162382305902796
 20
48.562877491067333
 30
0.0
 41
0.0050000000000026
 42
0.0050000000000026
 43
0.0050000000000026
  0
INSERT
  5
177C
  8
11
  2
STDGX5
 10
55.999788894863222
 20
35.293397012275648
 30
0.0
 41
0.0499999999999972
 42
0.0499999999999972
 43
0.0499999999999972
  0
INSERT
  5
177D
  8
11
  2
STDGX5
 10
86.912382305902796
 20
48.562877491067333
 30
0.0
 41
0.0050000000000026
 42
0.0050000000000026
 43
0.0050000000000026
  0
INSERT
  5
17DB
  8
11
  2
STDGX5
 10
69.749788894863215
 20
35.293397012275648
 30
0.0
 41
0.0499999999999972
 42
0.0499999999999972
 43
0.0499999999999972
  0
INSERT
  5
187C
  8
11
  2
STDGX5
 10
68.332968272572558
 20
41.159487413020472
 30
0.0
 41
0.0005000000000024
 42
0.0005000000000024
 43
0.0005000000000024
  0
INSERT
  5
187D
  8
11
  2
STDGX5
 10
66.616708931468594
 20
39.832539365141308
 30
0.0
 41
0.0050000000000026
 42
0.0050000000000026
 43
0.0050000000000026
  0
INSERT
  5
187E
  8
11
  2
STDGX5
 10
67.612597355799153
 20
40.624860117486151
 30
0.0
 41
0.0000500000000017
 42
0.0000500000000017
 43
0.0000500000000017
  0
INSERT
  5
18E5
  8
11
  2
STDGX5
 10
73.066366553185205
 20
43.608251248582008
 30
0.0
 41
0.0005000000000024
 42
0.0005000000000024
 43
0.0005000000000024
  0
INSERT
  5
18E6
  8
11
  2
STDGX5
 10
71.350107212081255
 20
42.281303200702837
 30
0.0
 41
0.0050000000000026
 42
0.0050000000000026
 43
0.0050000000000026
  0
INSERT
  5
18E7
  8
11
  2
STDGX5
 10
72.3459956364118
 20
43.073623953047672
 30
0.0
 41
0.0000500000000017
 42
0.0000500000000017
 43
0.0000500000000017
  0
INSERT
  5
18E8
  8
11
  2
STDGX5
 10
71.926934514455425
 20
42.67382239167997
 30
0.0
 41
0.0000500000000017
 42
0.0000500000000017
 43
0.0000500000000017
  0
INSERT
  5
26EA
  8
0
  2
BATU
 10
0.0
 20
0.0
 30
0.0
 41
0.001
 42
0.001
 43
0.001
  0
LINE
  5
345F
  8
0
  6
CONTINUOUS
 62
     7
 10
75.5
 20
74.166666666666657
 30
0.0
 11
75.5
 21
75.0
 31
0.0
  0
LINE
  5
3460
  8
0
  6
CONTINUOUS
 62
     7
 10
69.5
 20
75.0
 30
0.0
 11
69.5
 21
74.166666666666657
 31
0.0
  0
LINE
  5
3461
  8
0
  6
CONTINUOUS
 62
     7
 10
77.560000000000002
 20
53.254034118443428
 30
0.0
 11
75.5
 21
74.166666666666686
 31
0.0
  0
LINE
  5
3462
  8
0
  6
CONTINUOUS
 62
     7
 10
69.5
 20
74.166666666666686
 30
0.0
 11
67.439999999999984
 21
53.254034118443428
 31
0.0
  0
LINE
  5
3465
  8
0
  6
HIDDEN
 62
     2
 10
74.958500000000015
 20
50.0
 30
0.0
 11
74.958500000000015
 21
59.449999999999989
 31
0.0
  0
LINE
  5
3466
  8
0
  6
HIDDEN
 62
     2
 10
70.041499999999985
 20
59.449999999999989
 30
0.0
 11
70.041499999999985
 21
50.0
 31
0.0
  0
LINE
  5
3467
  8
0
  6
HIDDEN
 62
     2
 10
74.958500000000015
 20
59.449999999999989
 30
0.0
 11
72.5
 21
61.908500000000011
 31
0.0
  0
LINE
  5
3468
  8
0
  6
HIDDEN
 62
     2
 10
72.5
 20
61.908500000000011
 30
0.0
 11
70.041499999999985
 21
59.449999999999989
 31
0.0
  0
LINE
  5
3469
  8
0
  6
CONTINUOUS
 62
     7
 10
69.5
 20
75.0
 30
0.0
 11
75.5
 21
75.0
 31
0.0
  0
LINE
  5
346A
  8
0
  6
CONTINUOUS
 62
     7
 10
69.5
 20
74.166666666666686
 30
0.0
 11
75.5
 21
74.166666666666686
 31
0.0
  0
LINE
  5
346C
  8
0
  6
HIDDEN
 62
     2
 10
70.041499999999985
 20
59.449999999999989
 30
0.0
 11
74.958500000000015
 21
59.449999999999989
 31
0.0
  0
LINE
  5
3471
  8
0
  6
HIDDEN
 62
     2
 10
75.5
 20
57.0
 30
0.0
 11
75.5
 21
50.0
 31
0.0
  0
LINE
  5
3472
  8
0
  6
HIDDEN
 62
     2
 10
75.5
 20
57.0
 30
0.0
 11
74.958500000000015
 21
57.937905512298549
 31
0.0
  0
LINE
  5
3473
  8
0
  6
HIDDEN
 62
     2
 10
69.5
 20
57.0
 30
0.0
 11
70.041499999999985
 21
57.937905512298549
 31
0.0
  0
LINE
  5
3474
  8
0
  6
HIDDEN
 62
     2
 10
69.5
 20
57.0
 30
0.0
 11
69.5
 21
50.0
 31
0.0
  0
LINE
  5
3475
  8
0
  6
CENTER
 62
     1
 10
72.5
 20
77.5
 30
0.0
 11
72.5
 21
47.5
 31
0.0
  0
LINE
  5
3476
  8
0
  6
CONTINUOUS
 62
     7
 10
52.999999999999993
 20
74.166666666666686
 30
0.0
 11
52.999999999999993
 21
75.0
 31
0.0
  0
LINE
  5
3477
  8
0
  6
CONTINUOUS
 62
     7
 10
46.999999999999993
 20
75.0
 30
0.0
 11
46.999999999999993
 21
74.166666666666657
 31
0.0
  0
LINE
  5
3478
  8
0
  6
CONTINUOUS
 62
     7
 10
55.060000000000002
 20
53.254034118443428
 30
0.0
 11
52.999999999999993
 21
74.166666666666686
 31
0.0
  0
LINE
  5
3479
  8
0
  6
CONTINUOUS
 62
     7
 10
46.999999999999993
 20
74.166666666666686
 30
0.0
 11
44.939999999999984
 21
53.254034118443428
 31
0.0
  0
LINE
  5
347C
  8
0
  6
HIDDEN
 62
     2
 10
52.458500000000001
 20
50.0
 30
0.0
 11
52.458500000000001
 21
59.449999999999989
 31
0.0
  0
LINE
  5
347D
  8
0
  6
HIDDEN
 62
     2
 10
47.541499999999978
 20
59.449999999999989
 30
0.0
 11
47.541499999999978
 21
50.0
 31
0.0
  0
LINE
  5
347E
  8
0
  6
HIDDEN
 62
     2
 10
52.458500000000001
 20
59.449999999999989
 30
0.0
 11
50.0
 21
61.908500000000011
 31
0.0
  0
LINE
  5
347F
  8
0
  6
HIDDEN
 62
     2
 10
50.0
 20
61.908500000000011
 30
0.0
 11
47.541499999999978
 21
59.449999999999989
 31
0.0
  0
LINE
  5
3482
  8
0
  6
CONTINUOUS
 62
     7
 10
46.999999999999993
 20
75.0
 30
0.0
 11
52.999999999999993
 21
75.0
 31
0.0
  0
LINE
  5
3483
  8
0
  6
CONTINUOUS
 62
     7
 10
46.999999999999993
 20
74.166666666666686
 30
0.0
 11
52.999999999999993
 21
74.166666666666686
 31
0.0
  0
LINE
  5
3485
  8
0
  6
HIDDEN
 62
     2
 10
47.541499999999978
 20
59.449999999999989
 30
0.0
 11
52.458500000000001
 21
59.449999999999989
 31
0.0
  0
LINE
  5
348B
  8
0
  6
HIDDEN
 62
     2
 10
52.999999999999993
 20
57.0
 30
0.0
 11
52.999999999999993
 21
50.0
 31
0.0
  0
LINE
  5
348C
  8
0
  6
HIDDEN
 62
     2
 10
52.999999999999993
 20
57.0
 30
0.0
 11
52.458500000000001
 21
57.937905512298549
 31
0.0
  0
LINE
  5
348D
  8
0
  6
HIDDEN
 62
     2
 10
46.999999999999993
 20
57.0
 30
0.0
 11
47.541499999999978
 21
57.937905512298549
 31
0.0
  0
LINE
  5
348E
  8
0
  6
HIDDEN
 62
     2
 10
46.999999999999993
 20
57.0
 30
0.0
 11
46.999999999999993
 21
50.0
 31
0.0
  0
LINE
  5
348F
  8
0
  6
CENTER
 62
     1
 10
50.0
 20
77.5
 30
0.0
 11
50.0
 21
47.5
 31
0.0
  0
LINE
  5
3562
  8
0
  6
CONTINUOUS
 62
     7
 10
56.35085296108587
 20
52.508759813876281
 30
0.0
 11
55.060000000000002
 21
53.254034118443428
 31
0.0
  0
LINE
  5
3563
  8
0
  6
CONTINUOUS
 62
     7
 10
44.939999999999984
 20
53.254034118443428
 30
0.0
 11
43.649147038914109
 21
52.508759813876281
 31
0.0
  0
LINE
  5
3564
  8
0
  6
CONTINUOUS
 62
     7
 10
43.649147038914109
 20
50.491240186123719
 30
0.0
 11
44.499999999999993
 21
50.0
 31
0.0
  0
LINE
  5
3565
  8
0
  6
CONTINUOUS
 62
     7
 10
55.499999999999993
 20
50.0
 30
0.0
 11
56.35085296108587
 21
50.491240186123719
 31
0.0
  0
LINE
  5
3566
  8
0
  6
CONTINUOUS
 62
     7
 10
44.939999999999984
 20
53.254034118443428
 30
0.0
 11
55.060000000000002
 21
53.254034118443428
 31
0.0
  0
LINE
  5
3567
  8
0
  6
CONTINUOUS
 62
     7
 10
44.499999999999993
 20
50.0
 30
0.0
 11
55.499999999999993
 21
50.0
 31
0.0
  0
POLYLINE
  5
3568
  8
0
  6
CONTINUOUS
 62
     7
 66
     1
 10
0.0
 20
0.0
 30
0.0
  0
VERTEX
  5
36C6
  8
0
  6
CONTINUOUS
 62
     7
 10
53.175426480542903
 20
52.508759813876281
 30
0.0
  0
VERTEX
  5
36C7
  8
0
  6
CONTINUOUS
 62
     7
 10
53.276058434701767
 20
52.565456812802147
 30
0.0
  0
VERTEX
  5
36C8
  8
0
  6
CONTINUOUS
 62
     7
 10
53.47059440962601
 20
52.66673757413264
 30
0.0
  0
VERTEX
  5
36C9
  8
0
  6
CONTINUOUS
 62
     7
 10
53.657375616498022
 20
52.752910007849259
 30
0.0
  0
VERTEX
  5
36CA
  8
0
  6
CONTINUOUS
 62
     7
 10
53.748275356079652
 20
52.790666581858147
 30
0.0
  0
VERTEX
  5
36CB
  8
0
  6
CONTINUOUS
 62
     7
 10
53.837719426754681
 20
52.825022978344521
 30
0.0
  0
VERTEX
  5
36CC
  8
0
  6
CONTINUOUS
 62
     7
 10
54.012811658858297
 20
52.88392384485433
 30
0.0
  0
VERTEX
  5
36CD
  8
0
  6
CONTINUOUS
 62
     7
 10
54.183734903927629
 20
52.930284482246293
 30
0.0
  0
VERTEX
  5
36CE
  8
0
  6
CONTINUOUS
 62
     7
 10
54.351492424807013
 20
52.96462107871406
 30
0.0
  0
VERTEX
  5
36CF
  8
0
  6
CONTINUOUS
 62
     7
 10
54.517028795267883
 20
52.987308835772289
 30
0.0
  0
VERTEX
  5
36D0
  8
0
  6
CONTINUOUS
 62
     7
 10
54.681248209713651
 20
52.998592371016002
 30
0.0
  0
VERTEX
  5
36D1
  8
0
  6
CONTINUOUS
 62
     7
 10
54.763139720814422
 20
53.0
 30
0.0
  0
VERTEX
  5
36D2
  8
0
  6
CONTINUOUS
 62
     7
 10
54.845031231915179
 20
52.998592371016002
 30
0.0
  0
VERTEX
  5
36D3
  8
0
  6
CONTINUOUS
 62
     7
 10
55.009250646360947
 20
52.987308835772289
 30
0.0
  0
VERTEX
  5
36D4
  8
0
  6
CONTINUOUS
 62
     7
 10
55.17478701682176
 20
52.96462107871406
 30
0.0
  0
VERTEX
  5
36D5
  8
0
  6
CONTINUOUS
 62
     7
 10
55.342544537701187
 20
52.930284482246293
 30
0.0
  0
VERTEX
  5
36D6
  8
0
  6
CONTINUOUS
 62
     7
 10
55.513467782770533
 20
52.88392384485433
 30
0.0
  0
VERTEX
  5
36D7
  8
0
  6
CONTINUOUS
 62
     7
 10
55.688560014874142
 20
52.825022978344521
 30
0.0
  0
VERTEX
  5
36D8
  8
0
  6
CONTINUOUS
 62
     7
 10
55.778004085549171
 20
52.790666581858147
 30
0.0
  0
VERTEX
  5
36D9
  8
0
  6
CONTINUOUS
 62
     7
 10
55.868903825130808
 20
52.752910007849259
 30
0.0
  0
VERTEX
  5
36DA
  8
0
  6
CONTINUOUS
 62
     7
 10
56.055685032002764
 20
52.66673757413264
 30
0.0
  0
VERTEX
  5
36DB
  8
0
  6
CONTINUOUS
 62
     7
 10
56.250221006927063
 20
52.565456812802147
 30
0.0
  0
VERTEX
  5
36DC
  8
0
  6
CONTINUOUS
 62
     7
 10
56.35085296108587
 20
52.508759813876281
 30
0.0
  0
SEQEND
  5
36DD
  8
0
  6
CONTINUOUS
 62
     7
  0
POLYLINE
  5
3569
  8
0
  6
CONTINUOUS
 62
     7
 66
     1
 10
0.0
 20
0.0
 30
0.0
  0
VERTEX
  5
36DE
  8
0
  6
CONTINUOUS
 62
     7
 10
56.35085296108587
 20
50.491240186123719
 30
0.0
  0
VERTEX
  5
36DF
  8
0
  6
CONTINUOUS
 62
     7
 10
56.303258717275
 20
50.464072848258461
 30
0.0
  0
VERTEX
  5
36E0
  8
0
  6
CONTINUOUS
 62
     7
 10
56.209169145142248
 20
50.412237772797653
 30
0.0
  0
VERTEX
  5
36E1
  8
0
  6
CONTINUOUS
 62
     7
 10
56.116436231578788
 20
50.363671605325692
 30
0.0
  0
VERTEX
  5
36E2
  8
0
  6
CONTINUOUS
 62
     7
 10
56.070538737494118
 20
50.340592516147751
 30
0.0
  0
VERTEX
  5
36E3
  8
0
  6
CONTINUOUS
 62
     7
 10
56.02493311004752
 20
50.318305536868593
 30
0.0
  0
VERTEX
  5
36E4
  8
0
  6
CONTINUOUS
 62
     7
 10
55.934536289548291
 20
50.276079455758747
 30
0.0
  0
VERTEX
  5
36E5
  8
0
  6
CONTINUOUS
 62
     7
 10
55.845125098538681
 20
50.236941682011597
 30
0.0
  0
VERTEX
  5
36E6
  8
0
  6
CONTINUOUS
 62
     7
 10
55.756581146774799
 20
50.200848758398593
 30
0.0
  0
VERTEX
  5
36E7
  8
0
  6
CONTINUOUS
 62
     7
 10
55.668787800019849
 20
50.167765296461262
 30
0.0
  0
VERTEX
  5
36E8
  8
0
  6
CONTINUOUS
 62
     7
 10
55.581629662695143
 20
50.137663876402307
 30
0.0
  0
VERTEX
  5
36E9
  8
0
  6
CONTINUOUS
 62
     7
 10
55.538252948601773
 20
50.123725029748471
 30
0.0
  0
VERTEX
  5
36EA
  8
0
  6
CONTINUOUS
 62
     7
 10
55.494992063603028
 20
50.110525000463781
 30
0.0
  0
VERTEX
  5
36EB
  8
0
  6
CONTINUOUS
 62
     7
 10
55.408760539818502
 20
50.086337100085132
 30
0.0
  0
VERTEX
  5
36EC
  8
0
  6
CONTINUOUS
 62
     7
 10
55.322820313739832
 20
50.065096597829672
 30
0.0
  0
VERTEX
  5
36ED
  8
0
  6
CONTINUOUS
 62
     7
 10
55.237055758088609
 20
50.04680802579724
 30
0.0
  0
VERTEX
  5
36EE
  8
0
  6
CONTINUOUS
 62
     7
 10
55.151349843364862
 20
50.031484203017733
 30
0.0
  0
VERTEX
  5
36EF
  8
0
  6
CONTINUOUS
 62
     7
 10
55.065583561871271
 20
50.019146475162579
 30
0.0
  0
VERTEX
  5
36F0
  8
0
  6
CONTINUOUS
 62
     7
 10
55.022639904407463
 20
50.014106472787432
 30
0.0
  0
VERTEX
  5
36F1
  8
0
  6
CONTINUOUS
 62
     7
 10
54.979635321919929
 20
50.009825020840367
 30
0.0
  0
VERTEX
  5
36F2
  8
0
  6
CONTINUOUS
 62
     7
 10
54.893380305203323
 20
50.00355922977878
 30
0.0
  0
VERTEX
  5
36F3
  8
0
  6
CONTINUOUS
 62
     7
 10
54.806689779533528
 20
50.00039815937123
 30
0.0
  0
VERTEX
  5
36F4
  8
0
  6
CONTINUOUS
 62
     7
 10
54.763139720814422
 20
50.0
 30
0.0
  0
SEQEND
  5
36F5
  8
0
  6
CONTINUOUS
 62
     7
  0
POLYLINE
  5
356A
  8
0
  6
CONTINUOUS
 62
     7
 66
     1
 10
0.0
 20
0.0
 30
0.0
  0
VERTEX
  5
36F6
  8
0
  6
CONTINUOUS
 62
     7
 10
54.763139720814422
 20
50.0
 30
0.0
  0
VERTEX
  5
36F7
  8
0
  6
CONTINUOUS
 62
     7
 10
54.719589662095231
 20
50.00039815937123
 30
0.0
  0
VERTEX
  5
36F8
  8
0
  6
CONTINUOUS
 62
     7
 10
54.632899136425507
 20
50.00355922977878
 30
0.0
  0
VERTEX
  5
36F9
  8
0
  6
CONTINUOUS
 62
     7
 10
54.546644119708837
 20
50.009825020840367
 30
0.0
  0
VERTEX
  5
36FA
  8
0
  6
CONTINUOUS
 62
     7
 10
54.503639537221311
 20
50.014106472787432
 30
0.0
  0
VERTEX
  5
36FB
  8
0
  6
CONTINUOUS
 62
     7
 10
54.460695879757502
 20
50.019146475162579
 30
0.0
  0
VERTEX
  5
36FC
  8
0
  6
CONTINUOUS
 62
     7
 10
54.374929598263961
 20
50.031484203017733
 30
0.0
  0
VERTEX
  5
36FD
  8
0
  6
CONTINUOUS
 62
     7
 10
54.289223683540158
 20
50.04680802579724
 30
0.0
  0
VERTEX
  5
36FE
  8
0
  6
CONTINUOUS
 62
     7
 10
54.203459127888991
 20
50.065096597829672
 30
0.0
  0
VERTEX
  5
36FF
  8
0
  6
CONTINUOUS
 62
     7
 10
54.117518901810278
 20
50.086337100085132
 30
0.0
  0
VERTEX
  5
3700
  8
0
  6
CONTINUOUS
 62
     7
 10
54.031287378025802
 20
50.110525000463781
 30
0.0
  0
VERTEX
  5
3701
  8
0
  6
CONTINUOUS
 62
     7
 10
53.98802649302705
 20
50.123725029748471
 30
0.0
  0
VERTEX
  5
3702
  8
0
  6
CONTINUOUS
 62
     7
 10
53.944649778933631
 20
50.137663876402307
 30
0.0
  0
VERTEX
  5
3703
  8
0
  6
CONTINUOUS
 62
     7
 10
53.857491641608917
 20
50.167765296461262
 30
0.0
  0
VERTEX
  5
3704
  8
0
  6
CONTINUOUS
 62
     7
 10
53.769698294854031
 20
50.200848758398593
 30
0.0
  0
VERTEX
  5
3705
  8
0
  6
CONTINUOUS
 62
     7
 10
53.681154343090142
 20
50.236941682011597
 30
0.0
  0
VERTEX
  5
3706
  8
0
  6
CONTINUOUS
 62
     7
 10
53.591743152080532
 20
50.276079455758747
 30
0.0
  0
VERTEX
  5
3707
  8
0
  6
CONTINUOUS
 62
     7
 10
53.501346331581303
 20
50.318305536868593
 30
0.0
  0
VERTEX
  5
3708
  8
0
  6
CONTINUOUS
 62
     7
 10
53.455740704134648
 20
50.340592516147751
 30
0.0
  0
VERTEX
  5
3709
  8
0
  6
CONTINUOUS
 62
     7
 10
53.409843210049978
 20
50.363671605325692
 30
0.0
  0
VERTEX
  5
370A
  8
0
  6
CONTINUOUS
 62
     7
 10
53.317110296486582
 20
50.412237772797653
 30
0.0
  0
VERTEX
  5
370B
  8
0
  6
CONTINUOUS
 62
     7
 10
53.223020724353773
 20
50.464072848258461
 30
0.0
  0
VERTEX
  5
370C
  8
0
  6
CONTINUOUS
 62
     7
 10
53.175426480542903
 20
50.491240186123719
 30
0.0
  0
SEQEND
  5
370D
  8
0
  6
CONTINUOUS
 62
     7
  0
LINE
  5
356B
  8
0
  6
CONTINUOUS
 62
     7
 10
56.35085296108587
 20
52.508759813876281
 30
0.0
 11
56.35085296108587
 21
50.491240186123719
 31
0.0
  0
POLYLINE
  5
356C
  8
0
  6
CONTINUOUS
 62
     7
 66
     1
 10
0.0
 20
0.0
 30
0.0
  0
VERTEX
  5
370E
  8
0
  6
CONTINUOUS
 62
     7
 10
45.236860279185557
 20
50.0
 30
0.0
  0
VERTEX
  5
370F
  8
0
  6
CONTINUOUS
 62
     7
 10
45.193310220466451
 20
50.00039815937123
 30
0.0
  0
VERTEX
  5
3710
  8
0
  6
CONTINUOUS
 62
     7
 10
45.10661969479667
 20
50.00355922977878
 30
0.0
  0
VERTEX
  5
3711
  8
0
  6
CONTINUOUS
 62
     7
 10
45.02036467808005
 20
50.009825020840367
 30
0.0
  0
VERTEX
  5
3712
  8
0
  6
CONTINUOUS
 62
     7
 10
44.977360095592523
 20
50.014106472787432
 30
0.0
  0
VERTEX
  5
3713
  8
0
  6
CONTINUOUS
 62
     7
 10
44.934416438128707
 20
50.019146475162579
 30
0.0
  0
VERTEX
  5
3714
  8
0
  6
CONTINUOUS
 62
     7
 10
44.848650156635117
 20
50.031484203017733
 30
0.0
  0
VERTEX
  5
3715
  8
0
  6
CONTINUOUS
 62
     7
 10
44.76294424191137
 20
50.04680802579724
 30
0.0
  0
VERTEX
  5
3716
  8
0
  6
CONTINUOUS
 62
     7
 10
44.677179686260153
 20
50.065096597829672
 30
0.0
  0
VERTEX
  5
3717
  8
0
  6
CONTINUOUS
 62
     7
 10
44.591239460181491
 20
50.086337100085132
 30
0.0
  0
VERTEX
  5
3718
  8
0
  6
CONTINUOUS
 62
     7
 10
44.505007936396957
 20
50.110525000463781
 30
0.0
  0
VERTEX
  5
3719
  8
0
  6
CONTINUOUS
 62
     7
 10
44.461747051398213
 20
50.123725029748471
 30
0.0
  0
VERTEX
  5
371A
  8
0
  6
CONTINUOUS
 62
     7
 10
44.418370337304843
 20
50.137663876402307
 30
0.0
  0
VERTEX
  5
371B
  8
0
  6
CONTINUOUS
 62
     7
 10
44.331212199980129
 20
50.167765296461262
 30
0.0
  0
VERTEX
  5
371C
  8
0
  6
CONTINUOUS
 62
     7
 10
44.24341885322518
 20
50.200848758398593
 30
0.0
  0
VERTEX
  5
371D
  8
0
  6
CONTINUOUS
 62
     7
 10
44.154874901461298
 20
50.236941682011597
 30
0.0
  0
VERTEX
  5
371E
  8
0
  6
CONTINUOUS
 62
     7
 10
44.065463710451688
 20
50.276079455758747
 30
0.0
  0
VERTEX
  5
371F
  8
0
  6
CONTINUOUS
 62
     7
 10
43.975066889952458
 20
50.318305536868593
 30
0.0
  0
VERTEX
  5
3720
  8
0
  6
CONTINUOUS
 62
     7
 10
43.92946126250586
 20
50.340592516147751
 30
0.0
  0
VERTEX
  5
3721
  8
0
  6
CONTINUOUS
 62
     7
 10
43.88356376842119
 20
50.363671605325692
 30
0.0
  0
VERTEX
  5
3722
  8
0
  6
CONTINUOUS
 62
     7
 10
43.790830854857731
 20
50.412237772797653
 30
0.0
  0
VERTEX
  5
3723
  8
0
  6
CONTINUOUS
 62
     7
 10
43.696741282724979
 20
50.464072848258461
 30
0.0
  0
VERTEX
  5
3724
  8
0
  6
CONTINUOUS
 62
     7
 10
43.649147038914109
 20
50.491240186123719
 30
0.0
  0
SEQEND
  5
3725
  8
0
  6
CONTINUOUS
 62
     7
  0
LINE
  5
356D
  8
0
  6
CONTINUOUS
 62
     7
 10
43.649147038914109
 20
52.508759813876281
 30
0.0
 11
43.649147038914109
 21
50.491240186123719
 31
0.0
  0
POLYLINE
  5
356E
  8
0
  6
CONTINUOUS
 62
     7
 66
     1
 10
0.0
 20
0.0
 30
0.0
  0
VERTEX
  5
3726
  8
0
  6
CONTINUOUS
 62
     7
 10
43.649147038914109
 20
52.508759813876281
 30
0.0
  0
VERTEX
  5
3727
  8
0
  6
CONTINUOUS
 62
     7
 10
43.749778993072923
 20
52.565456812802147
 30
0.0
  0
VERTEX
  5
3728
  8
0
  6
CONTINUOUS
 62
     7
 10
43.944314967997222
 20
52.66673757413264
 30
0.0
  0
VERTEX
  5
3729
  8
0
  6
CONTINUOUS
 62
     7
 10
44.131096174869171
 20
52.752910007849259
 30
0.0
  0
VERTEX
  5
372A
  8
0
  6
CONTINUOUS
 62
     7
 10
44.221995914450808
 20
52.790666581858147
 30
0.0
  0
VERTEX
  5
372B
  8
0
  6
CONTINUOUS
 62
     7
 10
44.311439985125837
 20
52.825022978344521
 30
0.0
  0
VERTEX
  5
372C
  8
0
  6
CONTINUOUS
 62
     7
 10
44.486532217229453
 20
52.88392384485433
 30
0.0
  0
VERTEX
  5
372D
  8
0
  6
CONTINUOUS
 62
     7
 10
44.657455462298792
 20
52.930284482246293
 30
0.0
  0
VERTEX
  5
372E
  8
0
  6
CONTINUOUS
 62
     7
 10
44.825212983178233
 20
52.96462107871406
 30
0.0
  0
VERTEX
  5
372F
  8
0
  6
CONTINUOUS
 62
     7
 10
44.990749353639032
 20
52.987308835772289
 30
0.0
  0
VERTEX
  5
3730
  8
0
  6
CONTINUOUS
 62
     7
 10
45.1549687680848
 20
52.998592371016002
 30
0.0
  0
VERTEX
  5
3731
  8
0
  6
CONTINUOUS
 62
     7
 10
45.236860279185557
 20
53.0
 30
0.0
  0
VERTEX
  5
3732
  8
0
  6
CONTINUOUS
 62
     7
 10
45.318751790286342
 20
52.998592371016002
 30
0.0
  0
VERTEX
  5
3733
  8
0
  6
CONTINUOUS
 62
     7
 10
45.482971204732102
 20
52.987308835772289
 30
0.0
  0
VERTEX
  5
3734
  8
0
  6
CONTINUOUS
 62
     7
 10
45.648507575192973
 20
52.96462107871406
 30
0.0
  0
VERTEX
  5
3735
  8
0
  6
CONTINUOUS
 62
     7
 10
45.81626509607235
 20
52.930284482246293
 30
0.0
  0
VERTEX
  5
3736
  8
0
  6
CONTINUOUS
 62
     7
 10
45.987188341141682
 20
52.88392384485433
 30
0.0
  0
VERTEX
  5
3737
  8
0
  6
CONTINUOUS
 62
     7
 10
46.162280573245297
 20
52.825022978344521
 30
0.0
  0
VERTEX
  5
3738
  8
0
  6
CONTINUOUS
 62
     7
 10
46.251724643920333
 20
52.790666581858147
 30
0.0
  0
VERTEX
  5
3739
  8
0
  6
CONTINUOUS
 62
     7
 10
46.342624383501963
 20
52.752910007849259
 30
0.0
  0
VERTEX
  5
373A
  8
0
  6
CONTINUOUS
 62
     7
 10
46.529405590373969
 20
52.66673757413264
 30
0.0
  0
VERTEX
  5
373B
  8
0
  6
CONTINUOUS
 62
     7
 10
46.723941565298212
 20
52.565456812802147
 30
0.0
  0
VERTEX
  5
373C
  8
0
  6
CONTINUOUS
 62
     7
 10
46.824573519457083
 20
52.508759813876281
 30
0.0
  0
SEQEND
  5
373D
  8
0
  6
CONTINUOUS
 62
     7
  0
POLYLINE
  5
356F
  8
0
  6
CONTINUOUS
 62
     7
 66
     1
 10
0.0
 20
0.0
 30
0.0
  0
VERTEX
  5
373E
  8
0
  6
CONTINUOUS
 62
     7
 10
46.824573519457083
 20
50.491240186123719
 30
0.0
  0
VERTEX
  5
373F
  8
0
  6
CONTINUOUS
 62
     7
 10
46.776979275646163
 20
50.464072848258461
 30
0.0
  0
VERTEX
  5
3740
  8
0
  6
CONTINUOUS
 62
     7
 10
46.682889703513403
 20
50.412237772797653
 30
0.0
  0
VERTEX
  5
3741
  8
0
  6
CONTINUOUS
 62
     7
 10
46.590156789949951
 20
50.363671605325692
 30
0.0
  0
VERTEX
  5
3742
  8
0
  6
CONTINUOUS
 62
     7
 10
46.544259295865331
 20
50.340592516147751
 30
0.0
  0
VERTEX
  5
3743
  8
0
  6
CONTINUOUS
 62
     7
 10
46.498653668418683
 20
50.318305536868593
 30
0.0
  0
VERTEX
  5
3744
  8
0
  6
CONTINUOUS
 62
     7
 10
46.408256847919453
 20
50.276079455758747
 30
0.0
  0
VERTEX
  5
3745
  8
0
  6
CONTINUOUS
 62
     7
 10
46.318845656909843
 20
50.236941682011597
 30
0.0
  0
VERTEX
  5
3746
  8
0
  6
CONTINUOUS
 62
     7
 10
46.230301705145948
 20
50.200848758398593
 30
0.0
  0
VERTEX
  5
3747
  8
0
  6
CONTINUOUS
 62
     7
 10
46.142508358391062
 20
50.167765296461262
 30
0.0
  0
VERTEX
  5
3748
  8
0
  6
CONTINUOUS
 62
     7
 10
46.055350221066348
 20
50.137663876402307
 30
0.0
  0
VERTEX
  5
3749
  8
0
  6
CONTINUOUS
 62
     7
 10
46.011973506972929
 20
50.123725029748471
 30
0.0
  0
VERTEX
  5
374A
  8
0
  6
CONTINUOUS
 62
     7
 10
45.968712621974177
 20
50.110525000463781
 30
0.0
  0
VERTEX
  5
374B
  8
0
  6
CONTINUOUS
 62
     7
 10
45.8824810981897
 20
50.086337100085132
 30
0.0
  0
VERTEX
  5
374C
  8
0
  6
CONTINUOUS
 62
     7
 10
45.796540872110988
 20
50.065096597829672
 30
0.0
  0
VERTEX
  5
374D
  8
0
  6
CONTINUOUS
 62
     7
 10
45.710776316459821
 20
50.04680802579724
 30
0.0
  0
VERTEX
  5
374E
  8
0
  6
CONTINUOUS
 62
     7
 10
45.625070401736018
 20
50.031484203017733
 30
0.0
  0
VERTEX
  5
374F
  8
0
  6
CONTINUOUS
 62
     7
 10
45.539304120242477
 20
50.019146475162579
 30
0.0
  0
VERTEX
  5
3750
  8
0
  6
CONTINUOUS
 62
     7
 10
45.496360462778668
 20
50.014106472787432
 30
0.0
  0
VERTEX
  5
3751
  8
0
  6
CONTINUOUS
 62
     7
 10
45.453355880291141
 20
50.009825020840367
 30
0.0
  0
VERTEX
  5
3752
  8
0
  6
CONTINUOUS
 62
     7
 10
45.367100863574471
 20
50.00355922977878
 30
0.0
  0
VERTEX
  5
3753
  8
0
  6
CONTINUOUS
 62
     7
 10
45.280410337904748
 20
50.00039815937123
 30
0.0
  0
VERTEX
  5
3754
  8
0
  6
CONTINUOUS
 62
     7
 10
45.236860279185557
 20
50.0
 30
0.0
  0
SEQEND
  5
3755
  8
0
  6
CONTINUOUS
 62
     7
  0
POLYLINE
  5
3570
  8
0
  6
CONTINUOUS
 62
     7
 66
     1
 10
0.0
 20
0.0
 30
0.0
  0
VERTEX
  5
3756
  8
0
  6
CONTINUOUS
 62
     7
 10
50.0
 20
50.0
 30
0.0
  0
VERTEX
  5
3757
  8
0
  6
CONTINUOUS
 62
     7
 10
49.912899882561703
 20
50.00039815937123
 30
0.0
  0
VERTEX
  5
3758
  8
0
  6
CONTINUOUS
 62
     7
 10
49.739518831222192
 20
50.00355922977878
 30
0.0
  0
VERTEX
  5
3759
  8
0
  6
CONTINUOUS
 62
     7
 10
49.567008797788951
 20
50.009825020840367
 30
0.0
  0
VERTEX
  5
375A
  8
0
  6
CONTINUOUS
 62
     7
 10
49.480999632813841
 20
50.014106472787432
 30
0.0
  0
VERTEX
  5
375B
  8
0
  6
CONTINUOUS
 62
     7
 10
49.39511231788628
 20
50.019146475162579
 30
0.0
  0
VERTEX
  5
375C
  8
0
  6
CONTINUOUS
 62
     7
 10
49.223579754899099
 20
50.031484203017733
 30
0.0
  0
VERTEX
  5
375D
  8
0
  6
CONTINUOUS
 62
     7
 10
49.052167925451549
 20
50.04680802579724
 30
0.0
  0
VERTEX
  5
375E
  8
0
  6
CONTINUOUS
 62
     7
 10
48.880638814149151
 20
50.065096597829672
 30
0.0
  0
VERTEX
  5
375F
  8
0
  6
CONTINUOUS
 62
     7
 10
48.708758361991833
 20
50.086337100085132
 30
0.0
  0
VERTEX
  5
3760
  8
0
  6
CONTINUOUS
 62
     7
 10
48.536295314422759
 20
50.110525000463781
 30
0.0
  0
VERTEX
  5
3761
  8
0
  6
CONTINUOUS
 62
     7
 10
48.44977354442527
 20
50.123725029748471
 30
0.0
  0
VERTEX
  5
3762
  8
0
  6
CONTINUOUS
 62
     7
 10
48.363020116238481
 20
50.137663876402307
 30
0.0
  0
VERTEX
  5
3763
  8
0
  6
CONTINUOUS
 62
     7
 10
48.188703841589131
 20
50.167765296461262
 30
0.0
  0
VERTEX
  5
3764
  8
0
  6
CONTINUOUS
 62
     7
 10
48.013117148079161
 20
50.200848758398593
 30
0.0
  0
VERTEX
  5
3765
  8
0
  6
CONTINUOUS
 62
     7
 10
47.836029244551511
 20
50.236941682011597
 30
0.0
  0
VERTEX
  5
3766
  8
0
  6
CONTINUOUS
 62
     7
 10
47.657206862532227
 20
50.276079455758747
 30
0.0
  0
VERTEX
  5
3767
  8
0
  6
CONTINUOUS
 62
     7
 10
47.476413221533782
 20
50.318305536868593
 30
0.0
  0
VERTEX
  5
3768
  8
0
  6
CONTINUOUS
 62
     7
 10
47.385201966640572
 20
50.340592516147751
 30
0.0
  0
VERTEX
  5
3769
  8
0
  6
CONTINUOUS
 62
     7
 10
47.293406978471232
 20
50.363671605325692
 30
0.0
  0
VERTEX
  5
376A
  8
0
  6
CONTINUOUS
 62
     7
 10
47.10794115134432
 20
50.412237772797653
 30
0.0
  0
VERTEX
  5
376B
  8
0
  6
CONTINUOUS
 62
     7
 10
46.919762007078802
 20
50.464072848258461
 30
0.0
  0
VERTEX
  5
376C
  8
0
  6
CONTINUOUS
 62
     7
 10
46.824573519457083
 20
50.491240186123719
 30
0.0
  0
SEQEND
  5
376D
  8
0
  6
CONTINUOUS
 62
     7
  0
LINE
  5
3571
  8
0
  6
CONTINUOUS
 62
     7
 10
46.824573519457083
 20
52.508759813876281
 30
0.0
 11
46.824573519457083
 21
50.491240186123719
 31
0.0
  0
POLYLINE
  5
3572
  8
0
  6
CONTINUOUS
 62
     7
 66
     1
 10
0.0
 20
0.0
 30
0.0
  0
VERTEX
  5
376E
  8
0
  6
CONTINUOUS
 62
     7
 10
46.824573519457083
 20
52.508759813876281
 30
0.0
  0
VERTEX
  5
376F
  8
0
  6
CONTINUOUS
 62
     7
 10
47.025837427774647
 20
52.565456812802147
 30
0.0
  0
VERTEX
  5
3770
  8
0
  6
CONTINUOUS
 62
     7
 10
47.414909377623239
 20
52.66673757413264
 30
0.0
  0
VERTEX
  5
3771
  8
0
  6
CONTINUOUS
 62
     7
 10
47.788471791367208
 20
52.752910007849259
 30
0.0
  0
VERTEX
  5
3772
  8
0
  6
CONTINUOUS
 62
     7
 10
47.970271270530468
 20
52.790666581858147
 30
0.0
  0
VERTEX
  5
3773
  8
0
  6
CONTINUOUS
 62
     7
 10
48.149159411880468
 20
52.825022978344521
 30
0.0
  0
VERTEX
  5
3774
  8
0
  6
CONTINUOUS
 62
     7
 10
48.499343876087771
 20
52.88392384485433
 30
0.0
  0
VERTEX
  5
3775
  8
0
  6
CONTINUOUS
 62
     7
 10
48.841190366226428
 20
52.930284482246293
 30
0.0
  0
VERTEX
  5
3776
  8
0
  6
CONTINUOUS
 62
     7
 10
49.176705407985303
 20
52.96462107871406
 30
0.0
  0
VERTEX
  5
3777
  8
0
  6
CONTINUOUS
 62
     7
 10
49.50777814890693
 20
52.987308835772289
 30
0.0
  0
VERTEX
  5
3778
  8
0
  6
CONTINUOUS
 62
     7
 10
49.836216977798458
 20
52.998592371016002
 30
0.0
  0
VERTEX
  5
3779
  8
0
  6
CONTINUOUS
 62
     7
 10
50.0
 20
53.0
 30
0.0
  0
VERTEX
  5
377A
  8
0
  6
CONTINUOUS
 62
     7
 10
50.163783022201521
 20
52.998592371016002
 30
0.0
  0
VERTEX
  5
377B
  8
0
  6
CONTINUOUS
 62
     7
 10
50.492221851093049
 20
52.987308835772289
 30
0.0
  0
VERTEX
  5
377C
  8
0
  6
CONTINUOUS
 62
     7
 10
50.823294592014683
 20
52.96462107871406
 30
0.0
  0
VERTEX
  5
377D
  8
0
  6
CONTINUOUS
 62
     7
 10
51.158809633773551
 20
52.930284482246293
 30
0.0
  0
VERTEX
  5
377E
  8
0
  6
CONTINUOUS
 62
     7
 10
51.500656123912208
 20
52.88392384485433
 30
0.0
  0
VERTEX
  5
377F
  8
0
  6
CONTINUOUS
 62
     7
 10
51.850840588119517
 20
52.825022978344521
 30
0.0
  0
VERTEX
  5
3780
  8
0
  6
CONTINUOUS
 62
     7
 10
52.029728729469511
 20
52.790666581858147
 30
0.0
  0
VERTEX
  5
3781
  8
0
  6
CONTINUOUS
 62
     7
 10
52.211528208632771
 20
52.752910007849259
 30
0.0
  0
VERTEX
  5
3782
  8
0
  6
CONTINUOUS
 62
     7
 10
52.58509062237674
 20
52.66673757413264
 30
0.0
  0
VERTEX
  5
3783
  8
0
  6
CONTINUOUS
 62
     7
 10
52.974162572225268
 20
52.565456812802147
 30
0.0
  0
VERTEX
  5
3784
  8
0
  6
CONTINUOUS
 62
     7
 10
53.175426480542903
 20
52.508759813876281
 30
0.0
  0
SEQEND
  5
3785
  8
0
  6
CONTINUOUS
 62
     7
  0
LINE
  5
3573
  8
0
  6
CONTINUOUS
 62
     7
 10
53.175426480542903
 20
52.508759813876281
 30
0.0
 11
53.175426480542903
 21
50.491240186123719
 31
0.0
  0
POLYLINE
  5
3574
  8
0
  6
CONTINUOUS
 62
     7
 66
     1
 10
0.0
 20
0.0
 30
0.0
  0
VERTEX
  5
3786
  8
0
  6
CONTINUOUS
 62
     7
 10
53.175426480542903
 20
50.491240186123719
 30
0.0
  0
VERTEX
  5
3787
  8
0
  6
CONTINUOUS
 62
     7
 10
53.080237992921177
 20
50.464072848258461
 30
0.0
  0
VERTEX
  5
3788
  8
0
  6
CONTINUOUS
 62
     7
 10
52.892058848655658
 20
50.412237772797653
 30
0.0
  0
VERTEX
  5
3789
  8
0
  6
CONTINUOUS
 62
     7
 10
52.706593021528747
 20
50.363671605325692
 30
0.0
  0
VERTEX
  5
378A
  8
0
  6
CONTINUOUS
 62
     7
 10
52.614798033359413
 20
50.340592516147751
 30
0.0
  0
VERTEX
  5
378B
  8
0
  6
CONTINUOUS
 62
     7
 10
52.523586778466203
 20
50.318305536868593
 30
0.0
  0
VERTEX
  5
378C
  8
0
  6
CONTINUOUS
 62
     7
 10
52.342793137467758
 20
50.276079455758747
 30
0.0
  0
VERTEX
  5
378D
  8
0
  6
CONTINUOUS
 62
     7
 10
52.163970755448467
 20
50.236941682011597
 30
0.0
  0
VERTEX
  5
378E
  8
0
  6
CONTINUOUS
 62
     7
 10
51.986882851920818
 20
50.200848758398593
 30
0.0
  0
VERTEX
  5
378F
  8
0
  6
CONTINUOUS
 62
     7
 10
51.811296158410862
 20
50.167765296461262
 30
0.0
  0
VERTEX
  5
3790
  8
0
  6
CONTINUOUS
 62
     7
 10
51.636979883761498
 20
50.137663876402307
 30
0.0
  0
VERTEX
  5
3791
  8
0
  6
CONTINUOUS
 62
     7
 10
51.550226455574709
 20
50.123725029748471
 30
0.0
  0
VERTEX
  5
3792
  8
0
  6
CONTINUOUS
 62
     7
 10
51.46370468557722
 20
50.110525000463781
 30
0.0
  0
VERTEX
  5
3793
  8
0
  6
CONTINUOUS
 62
     7
 10
51.291241638008152
 20
50.086337100085132
 30
0.0
  0
VERTEX
  5
3794
  8
0
  6
CONTINUOUS
 62
     7
 10
51.119361185850828
 20
50.065096597829672
 30
0.0
  0
VERTEX
  5
3795
  8
0
  6
CONTINUOUS
 62
     7
 10
50.947832074548437
 20
50.04680802579724
 30
0.0
  0
VERTEX
  5
3796
  8
0
  6
CONTINUOUS
 62
     7
 10
50.776420245100887
 20
50.031484203017733
 30
0.0
  0
VERTEX
  5
3797
  8
0
  6
CONTINUOUS
 62
     7
 10
50.604887682113713
 20
50.019146475162579
 30
0.0
  0
VERTEX
  5
3798
  8
0
  6
CONTINUOUS
 62
     7
 10
50.519000367186138
 20
50.014106472787432
 30
0.0
  0
VERTEX
  5
3799
  8
0
  6
CONTINUOUS
 62
     7
 10
50.432991202211028
 20
50.009825020840367
 30
0.0
  0
VERTEX
  5
379A
  8
0
  6
CONTINUOUS
 62
     7
 10
50.260481168777787
 20
50.00355922977878
 30
0.0
  0
VERTEX
  5
379B
  8
0
  6
CONTINUOUS
 62
     7
 10
50.08710011743829
 20
50.00039815937123
 30
0.0
  0
VERTEX
  5
379C
  8
0
  6
CONTINUOUS
 62
     7
 10
50.0
 20
50.0
 30
0.0
  0
SEQEND
  5
379D
  8
0
  6
CONTINUOUS
 62
     7
  0
LINE
  5
3575
  8
0
  6
CONTINUOUS
 62
     7
 10
78.0
 20
53.0
 30
0.0
 11
77.560000000000002
 21
53.254034118443428
 31
0.0
  0
LINE
  5
3576
  8
0
  6
CONTINUOUS
 62
     7
 10
67.439999999999984
 20
53.254034118443428
 30
0.0
 11
67.0
 21
53.0
 31
0.0
  0
LINE
  5
3577
  8
0
  6
CONTINUOUS
 62
     7
 10
67.439999999999984
 20
53.254034118443428
 30
0.0
 11
77.560000000000002
 21
53.254034118443428
 31
0.0
  0
LINE
  5
3578
  8
0
  6
CONTINUOUS
 62
     7
 10
67.0
 20
50.0
 30
0.0
 11
78.0
 21
50.0
 31
0.0
  0
POLYLINE
  5
3579
  8
0
  6
CONTINUOUS
 62
     7
 66
     1
 10
0.0
 20
0.0
 30
0.0
  0
VERTEX
  5
379E
  8
0
  6
CONTINUOUS
 62
     7
 10
67.0
 20
52.508759813876281
 30
0.0
  0
VERTEX
  5
379F
  8
0
  6
CONTINUOUS
 62
     7
 10
67.174299657467984
 20
52.565456812802147
 30
0.0
  0
VERTEX
  5
37A0
  8
0
  6
CONTINUOUS
 62
     7
 10
67.511245849936813
 20
52.66673757413264
 30
0.0
  0
VERTEX
  5
37A1
  8
0
  6
CONTINUOUS
 62
     7
 10
67.834760390138115
 20
52.752910007849259
 30
0.0
  0
VERTEX
  5
37A2
  8
0
  6
CONTINUOUS
 62
     7
 10
67.992203357488265
 20
52.790666581858147
 30
0.0
  0
VERTEX
  5
37A3
  8
0
  6
CONTINUOUS
 62
     7
 10
68.147125032333179
 20
52.825022978344521
 30
0.0
  0
VERTEX
  5
37A4
  8
0
  6
CONTINUOUS
 62
     7
 10
68.45039367434731
 20
52.88392384485433
 30
0.0
  0
VERTEX
  5
37A5
  8
0
  6
CONTINUOUS
 62
     7
 10
68.74644141900194
 20
52.930284482246293
 30
0.0
  0
VERTEX
  5
37A6
  8
0
  6
CONTINUOUS
 62
     7
 10
69.037005968516894
 20
52.96462107871406
 30
0.0
  0
VERTEX
  5
37A7
  8
0
  6
CONTINUOUS
 62
     7
 10
69.323723372655593
 20
52.987308835772289
 30
0.0
  0
VERTEX
  5
37A8
  8
0
  6
CONTINUOUS
 62
     7
 10
69.608159742064913
 20
52.998592371016002
 30
0.0
  0
VERTEX
  5
37A9
  8
0
  6
CONTINUOUS
 62
     7
 10
69.75
 20
53.0
 30
0.0
  0
VERTEX
  5
37AA
  8
0
  6
CONTINUOUS
 62
     7
 10
69.891840257935087
 20
52.998592371016002
 30
0.0
  0
VERTEX
  5
37AB
  8
0
  6
CONTINUOUS
 62
     7
 10
70.176276627344393
 20
52.987308835772289
 30
0.0
  0
VERTEX
  5
37AC
  8
0
  6
CONTINUOUS
 62
     7
 10
70.462994031483106
 20
52.96462107871406
 30
0.0
  0
VERTEX
  5
37AD
  8
0
  6
CONTINUOUS
 62
     7
 10
70.75355858099806
 20
52.930284482246293
 30
0.0
  0
VERTEX
  5
37AE
  8
0
  6
CONTINUOUS
 62
     7
 10
71.04960632565269
 20
52.88392384485433
 30
0.0
  0
VERTEX
  5
37AF
  8
0
  6
CONTINUOUS
 62
     7
 10
71.352874967666821
 20
52.825022978344521
 30
0.0
  0
VERTEX
  5
37B0
  8
0
  6
CONTINUOUS
 62
     7
 10
71.507796642511721
 20
52.790666581858147
 30
0.0
  0
VERTEX
  5
37B1
  8
0
  6
CONTINUOUS
 62
     7
 10
71.665239609861885
 20
52.752910007849259
 30
0.0
  0
VERTEX
  5
37B2
  8
0
  6
CONTINUOUS
 62
     7
 10
71.988754150063187
 20
52.66673757413264
 30
0.0
  0
VERTEX
  5
37B3
  8
0
  6
CONTINUOUS
 62
     7
 10
72.325700342532002
 20
52.565456812802147
 30
0.0
  0
VERTEX
  5
37B4
  8
0
  6
CONTINUOUS
 62
     7
 10
72.5
 20
52.508759813876281
 30
0.0
  0
SEQEND
  5
37B5
  8
0
  6
CONTINUOUS
 62
     7
  0
POLYLINE
  5
357A
  8
0
  6
CONTINUOUS
 62
     7
 66
     1
 10
0.0
 20
0.0
 30
0.0
  0
VERTEX
  5
37B6
  8
0
  6
CONTINUOUS
 62
     7
 10
72.5
 20
50.491240186123719
 30
0.0
  0
VERTEX
  5
37B7
  8
0
  6
CONTINUOUS
 62
     7
 10
72.417564351571741
 20
50.464072848258461
 30
0.0
  0
VERTEX
  5
37B8
  8
0
  6
CONTINUOUS
 62
     7
 10
72.25459643217539
 20
50.412237772797653
 30
0.0
  0
VERTEX
  5
37B9
  8
0
  6
CONTINUOUS
 62
     7
 10
72.093978314349613
 20
50.363671605325692
 30
0.0
  0
VERTEX
  5
37BA
  8
0
  6
CONTINUOUS
 62
     7
 10
72.014481522654876
 20
50.340592516147751
 30
0.0
  0
VERTEX
  5
37BB
  8
0
  6
CONTINUOUS
 62
     7
 10
71.935490258806226
 20
50.318305536868593
 30
0.0
  0
VERTEX
  5
37BC
  8
0
  6
CONTINUOUS
 62
     7
 10
71.778918372858925
 20
50.276079455758747
 30
0.0
  0
VERTEX
  5
37BD
  8
0
  6
CONTINUOUS
 62
     7
 10
71.624053647264986
 20
50.236941682011597
 30
0.0
  0
VERTEX
  5
37BE
  8
0
  6
CONTINUOUS
 62
     7
 10
71.470691024107111
 20
50.200848758398593
 30
0.0
  0
VERTEX
  5
37BF
  8
0
  6
CONTINUOUS
 62
     7
 10
71.318628486960961
 20
50.167765296461262
 30
0.0
  0
VERTEX
  5
37C0
  8
0
  6
CONTINUOUS
 62
     7
 10
71.167666164821583
 20
50.137663876402307
 30
0.0
  0
VERTEX
  5
37C1
  8
0
  6
CONTINUOUS
 62
     7
 10
71.092535492146453
 20
50.123725029748471
 30
0.0
  0
VERTEX
  5
37C2
  8
0
  6
CONTINUOUS
 62
     7
 10
71.017605441348167
 20
50.110525000463781
 30
0.0
  0
VERTEX
  5
37C3
  8
0
  6
CONTINUOUS
 62
     7
 10
70.868248060939322
 20
50.086337100085132
 30
0.0
  0
VERTEX
  5
37C4
  8
0
  6
CONTINUOUS
 62
     7
 10
70.719395222957132
 20
50.065096597829672
 30
0.0
  0
VERTEX
  5
37C5
  8
0
  6
CONTINUOUS
 62
     7
 10
70.570846655080686
 20
50.04680802579724
 30
0.0
  0
VERTEX
  5
37C6
  8
0
  6
CONTINUOUS
 62
     7
 10
70.422399656269931
 20
50.031484203017733
 30
0.0
  0
VERTEX
  5
37C7
  8
0
  6
CONTINUOUS
 62
     7
 10
70.273848099146775
 20
50.019146475162579
 30
0.0
  0
VERTEX
  5
37C8
  8
0
  6
CONTINUOUS
 62
     7
 10
70.199467502556672
 20
50.014106472787432
 30
0.0
  0
VERTEX
  5
37C9
  8
0
  6
CONTINUOUS
 62
     7
 10
70.124981380729992
 20
50.009825020840367
 30
0.0
  0
VERTEX
  5
37CA
  8
0
  6
CONTINUOUS
 62
     7
 10
69.975583309369085
 20
50.00355922977878
 30
0.0
  0
VERTEX
  5
37CB
  8
0
  6
CONTINUOUS
 62
     7
 10
69.825430914374124
 20
50.00039815937123
 30
0.0
  0
VERTEX
  5
37CC
  8
0
  6
CONTINUOUS
 62
     7
 10
69.75
 20
50.0
 30
0.0
  0
SEQEND
  5
37CD
  8
0
  6
CONTINUOUS
 62
     7
  0
POLYLINE
  5
357B
  8
0
  6
CONTINUOUS
 62
     7
 66
     1
 10
0.0
 20
0.0
 30
0.0
  0
VERTEX
  5
37CE
  8
0
  6
CONTINUOUS
 62
     7
 10
69.75
 20
50.0
 30
0.0
  0
VERTEX
  5
37CF
  8
0
  6
CONTINUOUS
 62
     7
 10
69.674569085625805
 20
50.00039815937123
 30
0.0
  0
VERTEX
  5
37D0
  8
0
  6
CONTINUOUS
 62
     7
 10
69.524416690630915
 20
50.00355922977878
 30
0.0
  0
VERTEX
  5
37D1
  8
0
  6
CONTINUOUS
 62
     7
 10
69.375018619270008
 20
50.009825020840367
 30
0.0
  0
VERTEX
  5
37D2
  8
0
  6
CONTINUOUS
 62
     7
 10
69.300532497443314
 20
50.014106472787432
 30
0.0
  0
VERTEX
  5
37D3
  8
0
  6
CONTINUOUS
 62
     7
 10
69.22615190085321
 20
50.019146475162579
 30
0.0
  0
VERTEX
  5
37D4
  8
0
  6
CONTINUOUS
 62
     7
 10
69.077600343730069
 20
50.031484203017733
 30
0.0
  0
VERTEX
  5
37D5
  8
0
  6
CONTINUOUS
 62
     7
 10
68.929153344919314
 20
50.04680802579724
 30
0.0
  0
VERTEX
  5
37D6
  8
0
  6
CONTINUOUS
 62
     7
 10
68.780604777042868
 20
50.065096597829672
 30
0.0
  0
VERTEX
  5
37D7
  8
0
  6
CONTINUOUS
 62
     7
 10
68.631751939060678
 20
50.086337100085132
 30
0.0
  0
VERTEX
  5
37D8
  8
0
  6
CONTINUOUS
 62
     7
 10
68.482394558651833
 20
50.110525000463781
 30
0.0
  0
VERTEX
  5
37D9
  8
0
  6
CONTINUOUS
 62
     7
 10
68.407464507853547
 20
50.123725029748471
 30
0.0
  0
VERTEX
  5
37DA
  8
0
  6
CONTINUOUS
 62
     7
 10
68.332333835178417
 20
50.137663876402307
 30
0.0
  0
VERTEX
  5
37DB
  8
0
  6
CONTINUOUS
 62
     7
 10
68.181371513039039
 20
50.167765296461262
 30
0.0
  0
VERTEX
  5
37DC
  8
0
  6
CONTINUOUS
 62
     7
 10
68.029308975892889
 20
50.200848758398593
 30
0.0
  0
VERTEX
  5
37DD
  8
0
  6
CONTINUOUS
 62
     7
 10
67.875946352735014
 20
50.236941682011597
 30
0.0
  0
VERTEX
  5
37DE
  8
0
  6
CONTINUOUS
 62
     7
 10
67.721081627141075
 20
50.276079455758747
 30
0.0
  0
VERTEX
  5
37DF
  8
0
  6
CONTINUOUS
 62
     7
 10
67.564509741193774
 20
50.318305536868593
 30
0.0
  0
VERTEX
  5
37E0
  8
0
  6
CONTINUOUS
 62
     7
 10
67.485518477345124
 20
50.340592516147751
 30
0.0
  0
VERTEX
  5
37E1
  8
0
  6
CONTINUOUS
 62
     7
 10
67.406021685650387
 20
50.363671605325692
 30
0.0
  0
VERTEX
  5
37E2
  8
0
  6
CONTINUOUS
 62
     7
 10
67.24540356782461
 20
50.412237772797653
 30
0.0
  0
VERTEX
  5
37E3
  8
0
  6
CONTINUOUS
 62
     7
 10
67.082435648428259
 20
50.464072848258461
 30
0.0
  0
VERTEX
  5
37E4
  8
0
  6
CONTINUOUS
 62
     7
 10
67.0
 20
50.491240186123719
 30
0.0
  0
SEQEND
  5
37E5
  8
0
  6
CONTINUOUS
 62
     7
  0
LINE
  5
357C
  8
0
  6
CONTINUOUS
 62
     7
 10
72.5
 20
52.508759813876281
 30
0.0
 11
72.5
 21
50.491240186123719
 31
0.0
  0
POLYLINE
  5
357D
  8
0
  6
CONTINUOUS
 62
     7
 66
     1
 10
0.0
 20
0.0
 30
0.0
  0
VERTEX
  5
37E6
  8
0
  6
CONTINUOUS
 62
     7
 10
72.5
 20
52.508759813876281
 30
0.0
  0
VERTEX
  5
37E7
  8
0
  6
CONTINUOUS
 62
     7
 10
72.674299657467984
 20
52.565456812802147
 30
0.0
  0
VERTEX
  5
37E8
  8
0
  6
CONTINUOUS
 62
     7
 10
73.011245849936813
 20
52.66673757413264
 30
0.0
  0
VERTEX
  5
37E9
  8
0
  6
CONTINUOUS
 62
     7
 10
73.334760390138115
 20
52.752910007849259
 30
0.0
  0
VERTEX
  5
37EA
  8
0
  6
CONTINUOUS
 62
     7
 10
73.492203357488279
 20
52.790666581858147
 30
0.0
  0
VERTEX
  5
37EB
  8
0
  6
CONTINUOUS
 62
     7
 10
73.647125032333179
 20
52.825022978344521
 30
0.0
  0
VERTEX
  5
37EC
  8
0
  6
CONTINUOUS
 62
     7
 10
73.95039367434731
 20
52.88392384485433
 30
0.0
  0
VERTEX
  5
37ED
  8
0
  6
CONTINUOUS
 62
     7
 10
74.24644141900194
 20
52.930284482246293
 30
0.0
  0
VERTEX
  5
37EE
  8
0
  6
CONTINUOUS
 62
     7
 10
74.537005968516894
 20
52.96462107871406
 30
0.0
  0
VERTEX
  5
37EF
  8
0
  6
CONTINUOUS
 62
     7
 10
74.823723372655593
 20
52.987308835772289
 30
0.0
  0
VERTEX
  5
37F0
  8
0
  6
CONTINUOUS
 62
     7
 10
75.108159742064913
 20
52.998592371016002
 30
0.0
  0
VERTEX
  5
37F1
  8
0
  6
CONTINUOUS
 62
     7
 10
75.25
 20
53.0
 30
0.0
  0
VERTEX
  5
37F2
  8
0
  6
CONTINUOUS
 62
     7
 10
75.391840257935087
 20
52.998592371016002
 30
0.0
  0
VERTEX
  5
37F3
  8
0
  6
CONTINUOUS
 62
     7
 10
75.676276627344407
 20
52.987308835772289
 30
0.0
  0
VERTEX
  5
37F4
  8
0
  6
CONTINUOUS
 62
     7
 10
75.962994031483106
 20
52.96462107871406
 30
0.0
  0
VERTEX
  5
37F5
  8
0
  6
CONTINUOUS
 62
     7
 10
76.25355858099806
 20
52.930284482246293
 30
0.0
  0
VERTEX
  5
37F6
  8
0
  6
CONTINUOUS
 62
     7
 10
76.54960632565269
 20
52.88392384485433
 30
0.0
  0
VERTEX
  5
37F7
  8
0
  6
CONTINUOUS
 62
     7
 10
76.852874967666821
 20
52.825022978344521
 30
0.0
  0
VERTEX
  5
37F8
  8
0
  6
CONTINUOUS
 62
     7
 10
77.007796642511721
 20
52.790666581858147
 30
0.0
  0
VERTEX
  5
37F9
  8
0
  6
CONTINUOUS
 62
     7
 10
77.165239609861885
 20
52.752910007849259
 30
0.0
  0
VERTEX
  5
37FA
  8
0
  6
CONTINUOUS
 62
     7
 10
77.488754150063187
 20
52.66673757413264
 30
0.0
  0
VERTEX
  5
37FB
  8
0
  6
CONTINUOUS
 62
     7
 10
77.825700342532002
 20
52.565456812802147
 30
0.0
  0
VERTEX
  5
37FC
  8
0
  6
CONTINUOUS
 62
     7
 10
78.0
 20
52.508759813876281
 30
0.0
  0
SEQEND
  5
37FD
  8
0
  6
CONTINUOUS
 62
     7
  0
POLYLINE
  5
357E
  8
0
  6
CONTINUOUS
 62
     7
 66
     1
 10
0.0
 20
0.0
 30
0.0
  0
VERTEX
  5
37FE
  8
0
  6
CONTINUOUS
 62
     7
 10
78.0
 20
50.491240186123719
 30
0.0
  0
VERTEX
  5
37FF
  8
0
  6
CONTINUOUS
 62
     7
 10
77.917564351571741
 20
50.464072848258461
 30
0.0
  0
VERTEX
  5
3800
  8
0
  6
CONTINUOUS
 62
     7
 10
77.75459643217539
 20
50.412237772797653
 30
0.0
  0
VERTEX
  5
3801
  8
0
  6
CONTINUOUS
 62
     7
 10
77.593978314349613
 20
50.363671605325692
 30
0.0
  0
VERTEX
  5
3802
  8
0
  6
CONTINUOUS
 62
     7
 10
77.514481522654876
 20
50.340592516147751
 30
0.0
  0
VERTEX
  5
3803
  8
0
  6
CONTINUOUS
 62
     7
 10
77.435490258806226
 20
50.318305536868593
 30
0.0
  0
VERTEX
  5
3804
  8
0
  6
CONTINUOUS
 62
     7
 10
77.278918372858925
 20
50.276079455758747
 30
0.0
  0
VERTEX
  5
3805
  8
0
  6
CONTINUOUS
 62
     7
 10
77.124053647264986
 20
50.236941682011597
 30
0.0
  0
VERTEX
  5
3806
  8
0
  6
CONTINUOUS
 62
     7
 10
76.970691024107111
 20
50.200848758398593
 30
0.0
  0
VERTEX
  5
3807
  8
0
  6
CONTINUOUS
 62
     7
 10
76.818628486960961
 20
50.167765296461262
 30
0.0
  0
VERTEX
  5
3808
  8
0
  6
CONTINUOUS
 62
     7
 10
76.667666164821583
 20
50.137663876402307
 30
0.0
  0
VERTEX
  5
3809
  8
0
  6
CONTINUOUS
 62
     7
 10
76.592535492146453
 20
50.123725029748471
 30
0.0
  0
VERTEX
  5
380A
  8
0
  6
CONTINUOUS
 62
     7
 10
76.517605441348167
 20
50.110525000463781
 30
0.0
  0
VERTEX
  5
380B
  8
0
  6
CONTINUOUS
 62
     7
 10
76.368248060939322
 20
50.086337100085132
 30
0.0
  0
VERTEX
  5
380C
  8
0
  6
CONTINUOUS
 62
     7
 10
76.219395222957132
 20
50.065096597829672
 30
0.0
  0
VERTEX
  5
380D
  8
0
  6
CONTINUOUS
 62
     7
 10
76.070846655080686
 20
50.04680802579724
 30
0.0
  0
VERTEX
  5
380E
  8
0
  6
CONTINUOUS
 62
     7
 10
75.922399656269931
 20
50.031484203017733
 30
0.0
  0
VERTEX
  5
380F
  8
0
  6
CONTINUOUS
 62
     7
 10
75.77384809914679
 20
50.019146475162579
 30
0.0
  0
VERTEX
  5
3810
  8
0
  6
CONTINUOUS
 62
     7
 10
75.699467502556672
 20
50.014106472787432
 30
0.0
  0
VERTEX
  5
3811
  8
0
  6
CONTINUOUS
 62
     7
 10
75.624981380729992
 20
50.009825020840367
 30
0.0
  0
VERTEX
  5
3812
  8
0
  6
CONTINUOUS
 62
     7
 10
75.475583309369085
 20
50.00355922977878
 30
0.0
  0
VERTEX
  5
3813
  8
0
  6
CONTINUOUS
 62
     7
 10
75.325430914374181
 20
50.00039815937123
 30
0.0
  0
VERTEX
  5
3814
  8
0
  6
CONTINUOUS
 62
     7
 10
75.25
 20
50.0
 30
0.0
  0
SEQEND
  5
3815
  8
0
  6
CONTINUOUS
 62
     7
  0
POLYLINE
  5
357F
  8
0
  6
CONTINUOUS
 62
     7
 66
     1
 10
0.0
 20
0.0
 30
0.0
  0
VERTEX
  5
3816
  8
0
  6
CONTINUOUS
 62
     7
 10
75.25
 20
50.0
 30
0.0
  0
VERTEX
  5
3817
  8
0
  6
CONTINUOUS
 62
     7
 10
75.174569085625876
 20
50.00039815937123
 30
0.0
  0
VERTEX
  5
3818
  8
0
  6
CONTINUOUS
 62
     7
 10
75.024416690630915
 20
50.00355922977878
 30
0.0
  0
VERTEX
  5
3819
  8
0
  6
CONTINUOUS
 62
     7
 10
74.875018619269994
 20
50.009825020840367
 30
0.0
  0
VERTEX
  5
381A
  8
0
  6
CONTINUOUS
 62
     7
 10
74.800532497443328
 20
50.014106472787432
 30
0.0
  0
VERTEX
  5
381B
  8
0
  6
CONTINUOUS
 62
     7
 10
74.72615190085321
 20
50.019146475162579
 30
0.0
  0
VERTEX
  5
381C
  8
0
  6
CONTINUOUS
 62
     7
 10
74.577600343730069
 20
50.031484203017733
 30
0.0
  0
VERTEX
  5
381D
  8
0
  6
CONTINUOUS
 62
     7
 10
74.429153344919314
 20
50.04680802579724
 30
0.0
  0
VERTEX
  5
381E
  8
0
  6
CONTINUOUS
 62
     7
 10
74.280604777042868
 20
50.065096597829672
 30
0.0
  0
VERTEX
  5
381F
  8
0
  6
CONTINUOUS
 62
     7
 10
74.131751939060663
 20
50.086337100085132
 30
0.0
  0
VERTEX
  5
3820
  8
0
  6
CONTINUOUS
 62
     7
 10
73.982394558651833
 20
50.110525000463781
 30
0.0
  0
VERTEX
  5
3821
  8
0
  6
CONTINUOUS
 62
     7
 10
73.907464507853547
 20
50.123725029748471
 30
0.0
  0
VERTEX
  5
3822
  8
0
  6
CONTINUOUS
 62
     7
 10
73.832333835178417
 20
50.137663876402307
 30
0.0
  0
VERTEX
  5
3823
  8
0
  6
CONTINUOUS
 62
     7
 10
73.681371513039039
 20
50.167765296461262
 30
0.0
  0
VERTEX
  5
3824
  8
0
  6
CONTINUOUS
 62
     7
 10
73.529308975892874
 20
50.200848758398593
 30
0.0
  0
VERTEX
  5
3825
  8
0
  6
CONTINUOUS
 62
     7
 10
73.375946352735014
 20
50.236941682011597
 30
0.0
  0
VERTEX
  5
3826
  8
0
  6
CONTINUOUS
 62
     7
 10
73.221081627141075
 20
50.276079455758747
 30
0.0
  0
VERTEX
  5
3827
  8
0
  6
CONTINUOUS
 62
     7
 10
73.064509741193774
 20
50.318305536868593
 30
0.0
  0
VERTEX
  5
3828
  8
0
  6
CONTINUOUS
 62
     7
 10
72.985518477345124
 20
50.340592516147751
 30
0.0
  0
VERTEX
  5
3829
  8
0
  6
CONTINUOUS
 62
     7
 10
72.906021685650387
 20
50.363671605325692
 30
0.0
  0
VERTEX
  5
382A
  8
0
  6
CONTINUOUS
 62
     7
 10
72.74540356782461
 20
50.412237772797653
 30
0.0
  0
VERTEX
  5
382B
  8
0
  6
CONTINUOUS
 62
     7
 10
72.582435648428259
 20
50.464072848258461
 30
0.0
  0
VERTEX
  5
382C
  8
0
  6
CONTINUOUS
 62
     7
 10
72.5
 20
50.491240186123719
 30
0.0
  0
SEQEND
  5
382D
  8
0
  6
CONTINUOUS
 62
     7
  0
LINE
  5
3580
  8
0
  6
CONTINUOUS
 62
     7
 10
78.0
 20
52.508759813876281
 30
0.0
 11
78.0
 21
50.491240186123719
 31
0.0
  0
POLYLINE
  5
3581
  8
0
  6
CONTINUOUS
 62
     7
 66
     1
 10
0.0
 20
0.0
 30
0.0
  0
VERTEX
  5
382E
  8
0
  6
CONTINUOUS
 62
     7
 10
78.0
 20
52.508759813876281
 30
0.0
  0
VERTEX
  5
382F
  8
0
  6
CONTINUOUS
 62
     7
 10
78.0
 20
52.53763120440243
 30
0.0
  0
VERTEX
  5
3830
  8
0
  6
CONTINUOUS
 62
     7
 10
78.0
 20
52.592259244407899
 30
0.0
  0
VERTEX
  5
3831
  8
0
  6
CONTINUOUS
 62
     7
 10
78.0
 20
52.642879633908883
 30
0.0
  0
VERTEX
  5
3832
  8
0
  6
CONTINUOUS
 62
     7
 10
78.0
 20
52.66673757413264
 30
0.0
  0
VERTEX
  5
3833
  8
0
  6
CONTINUOUS
 62
     7
 10
78.0
 20
52.689652386555672
 30
0.0
  0
VERTEX
  5
3834
  8
0
  6
CONTINUOUS
 62
     7
 10
78.0
 20
52.732722272142098
 30
0.0
  0
VERTEX
  5
3835
  8
0
  6
CONTINUOUS
 62
     7
 10
78.0
 20
52.772220006089981
 30
0.0
  0
VERTEX
  5
3836
  8
0
  6
CONTINUOUS
 62
     7
 10
78.0
 20
52.808263295433221
 30
0.0
  0
VERTEX
  5
3837
  8
0
  6
CONTINUOUS
 62
     7
 10
78.0
 20
52.840957757669003
 30
0.0
  0
VERTEX
  5
3838
  8
0
  6
CONTINUOUS
 62
     7
 10
78.0
 20
52.870397726434142
 30
0.0
  0
VERTEX
  5
3839
  8
0
  6
CONTINUOUS
 62
     7
 10
78.0
 20
52.88392384485433
 30
0.0
  0
VERTEX
  5
383A
  8
0
  6
CONTINUOUS
 62
     7
 10
78.0
 20
52.896666955909147
 30
0.0
  0
VERTEX
  5
383B
  8
0
  6
CONTINUOUS
 62
     7
 10
78.0
 20
52.919839234088158
 30
0.0
  0
VERTEX
  5
383C
  8
0
  6
CONTINUOUS
 62
     7
 10
78.0
 20
52.939978913529671
 30
0.0
  0
VERTEX
  5
383D
  8
0
  6
CONTINUOUS
 62
     7
 10
78.0
 20
52.957141366882183
 30
0.0
  0
VERTEX
  5
383E
  8
0
  6
CONTINUOUS
 62
     7
 10
78.0
 20
52.971373373317192
 30
0.0
  0
VERTEX
  5
383F
  8
0
  6
CONTINUOUS
 62
     7
 10
78.0
 20
52.982713440981293
 30
0.0
  0
VERTEX
  5
3840
  8
0
  6
CONTINUOUS
 62
     7
 10
78.0
 20
52.987308835772289
 30
0.0
  0
VERTEX
  5
3841
  8
0
  6
CONTINUOUS
 62
     7
 10
78.0
 20
52.991192069665367
 30
0.0
  0
VERTEX
  5
3842
  8
0
  6
CONTINUOUS
 62
     7
 10
78.0
 20
52.996831957063542
 30
0.0
  0
VERTEX
  5
3843
  8
0
  6
CONTINUOUS
 62
     7
 10
78.0
 20
52.999648151242923
 30
0.0
  0
VERTEX
  5
3844
  8
0
  6
CONTINUOUS
 62
     7
 10
78.0
 20
53.0
 30
0.0
  0
SEQEND
  5
3845
  8
0
  6
CONTINUOUS
 62
     7
  0
POLYLINE
  5
3582
  8
0
  6
CONTINUOUS
 62
     7
 66
     1
 10
0.0
 20
0.0
 30
0.0
  0
VERTEX
  5
3846
  8
0
  6
CONTINUOUS
 62
     7
 10
78.0
 20
50.0
 30
0.0
  0
VERTEX
  5
3847
  8
0
  6
CONTINUOUS
 62
     7
 10
78.0
 20
50.00039815937123
 30
0.0
  0
VERTEX
  5
3848
  8
0
  6
CONTINUOUS
 62
     7
 10
78.0
 20
50.00355922977878
 30
0.0
  0
VERTEX
  5
3849
  8
0
  6
CONTINUOUS
 62
     7
 10
78.0
 20
50.009825020840367
 30
0.0
  0
VERTEX
  5
384A
  8
0
  6
CONTINUOUS
 62
     7
 10
78.0
 20
50.014106472787432
 30
0.0
  0
VERTEX
  5
384B
  8
0
  6
CONTINUOUS
 62
     7
 10
78.0
 20
50.019146475162579
 30
0.0
  0
VERTEX
  5
384C
  8
0
  6
CONTINUOUS
 62
     7
 10
78.0
 20
50.031484203017733
 30
0.0
  0
VERTEX
  5
384D
  8
0
  6
CONTINUOUS
 62
     7
 10
78.0
 20
50.04680802579724
 30
0.0
  0
VERTEX
  5
384E
  8
0
  6
CONTINUOUS
 62
     7
 10
78.0
 20
50.065096597829672
 30
0.0
  0
VERTEX
  5
384F
  8
0
  6
CONTINUOUS
 62
     7
 10
78.0
 20
50.086337100085132
 30
0.0
  0
VERTEX
  5
3850
  8
0
  6
CONTINUOUS
 62
     7
 10
78.0
 20
50.110525000463781
 30
0.0
  0
VERTEX
  5
3851
  8
0
  6
CONTINUOUS
 62
     7
 10
78.0
 20
50.123725029748471
 30
0.0
  0
VERTEX
  5
3852
  8
0
  6
CONTINUOUS
 62
     7
 10
78.0
 20
50.137663876402307
 30
0.0
  0
VERTEX
  5
3853
  8
0
  6
CONTINUOUS
 62
     7
 10
78.0
 20
50.167765296461262
 30
0.0
  0
VERTEX
  5
3854
  8
0
  6
CONTINUOUS
 62
     7
 10
78.0
 20
50.200848758398593
 30
0.0
  0
VERTEX
  5
3855
  8
0
  6
CONTINUOUS
 62
     7
 10
78.0
 20
50.236941682011597
 30
0.0
  0
VERTEX
  5
3856
  8
0
  6
CONTINUOUS
 62
     7
 10
78.0
 20
50.276079455758747
 30
0.0
  0
VERTEX
  5
3857
  8
0
  6
CONTINUOUS
 62
     7
 10
78.0
 20
50.318305536868593
 30
0.0
  0
VERTEX
  5
3858
  8
0
  6
CONTINUOUS
 62
     7
 10
78.0
 20
50.340592516147751
 30
0.0
  0
VERTEX
  5
3859
  8
0
  6
CONTINUOUS
 62
     7
 10
78.0
 20
50.363671605325692
 30
0.0
  0
VERTEX
  5
385A
  8
0
  6
CONTINUOUS
 62
     7
 10
78.0
 20
50.412237772797653
 30
0.0
  0
VERTEX
  5
385B
  8
0
  6
CONTINUOUS
 62
     7
 10
78.0
 20
50.464072848258461
 30
0.0
  0
VERTEX
  5
385C
  8
0
  6
CONTINUOUS
 62
     7
 10
78.0
 20
50.491240186123719
 30
0.0
  0
SEQEND
  5
385D
  8
0
  6
CONTINUOUS
 62
     7
  0
POLYLINE
  5
3583
  8
0
  6
CONTINUOUS
 62
     7
 66
     1
 10
0.0
 20
0.0
 30
0.0
  0
VERTEX
  5
385E
  8
0
  6
CONTINUOUS
 62
     7
 10
67.0
 20
53.0
 30
0.0
  0
VERTEX
  5
385F
  8
0
  6
CONTINUOUS
 62
     7
 10
67.0
 20
52.999648151242923
 30
0.0
  0
VERTEX
  5
3860
  8
0
  6
CONTINUOUS
 62
     7
 10
67.0
 20
52.996831957063542
 30
0.0
  0
VERTEX
  5
3861
  8
0
  6
CONTINUOUS
 62
     7
 10
67.0
 20
52.991192069665367
 30
0.0
  0
VERTEX
  5
3862
  8
0
  6
CONTINUOUS
 62
     7
 10
67.0
 20
52.987308835772289
 30
0.0
  0
VERTEX
  5
3863
  8
0
  6
CONTINUOUS
 62
     7
 10
67.0
 20
52.982713440981293
 30
0.0
  0
VERTEX
  5
3864
  8
0
  6
CONTINUOUS
 62
     7
 10
67.0
 20
52.971373373317192
 30
0.0
  0
VERTEX
  5
3865
  8
0
  6
CONTINUOUS
 62
     7
 10
67.0
 20
52.957141366882183
 30
0.0
  0
VERTEX
  5
3866
  8
0
  6
CONTINUOUS
 62
     7
 10
67.0
 20
52.939978913529671
 30
0.0
  0
VERTEX
  5
3867
  8
0
  6
CONTINUOUS
 62
     7
 10
67.0
 20
52.919839234088158
 30
0.0
  0
VERTEX
  5
3868
  8
0
  6
CONTINUOUS
 62
     7
 10
67.0
 20
52.896666955909147
 30
0.0
  0
VERTEX
  5
3869
  8
0
  6
CONTINUOUS
 62
     7
 10
67.0
 20
52.88392384485433
 30
0.0
  0
VERTEX
  5
386A
  8
0
  6
CONTINUOUS
 62
     7
 10
67.0
 20
52.870397726434142
 30
0.0
  0
VERTEX
  5
386B
  8
0
  6
CONTINUOUS
 62
     7
 10
67.0
 20
52.840957757669003
 30
0.0
  0
VERTEX
  5
386C
  8
0
  6
CONTINUOUS
 62
     7
 10
67.0
 20
52.808263295433221
 30
0.0
  0
VERTEX
  5
386D
  8
0
  6
CONTINUOUS
 62
     7
 10
67.0
 20
52.772220006089981
 30
0.0
  0
VERTEX
  5
386E
  8
0
  6
CONTINUOUS
 62
     7
 10
67.0
 20
52.732722272142098
 30
0.0
  0
VERTEX
  5
386F
  8
0
  6
CONTINUOUS
 62
     7
 10
67.0
 20
52.689652386555672
 30
0.0
  0
VERTEX
  5
3870
  8
0
  6
CONTINUOUS
 62
     7
 10
67.0
 20
52.66673757413264
 30
0.0
  0
VERTEX
  5
3871
  8
0
  6
CONTINUOUS
 62
     7
 10
67.0
 20
52.642879633908883
 30
0.0
  0
VERTEX
  5
3872
  8
0
  6
CONTINUOUS
 62
     7
 10
67.0
 20
52.592259244407899
 30
0.0
  0
VERTEX
  5
3873
  8
0
  6
CONTINUOUS
 62
     7
 10
67.0
 20
52.53763120440243
 30
0.0
  0
VERTEX
  5
3874
  8
0
  6
CONTINUOUS
 62
     7
 10
67.0
 20
52.508759813876281
 30
0.0
  0
SEQEND
  5
3875
  8
0
  6
CONTINUOUS
 62
     7
  0
LINE
  5
3584
  8
0
  6
CONTINUOUS
 62
     7
 10
67.0
 20
52.508759813876281
 30
0.0
 11
67.0
 21
50.491240186123719
 31
0.0
  0
POLYLINE
  5
3585
  8
0
  6
CONTINUOUS
 62
     7
 66
     1
 10
0.0
 20
0.0
 30
0.0
  0
VERTEX
  5
3876
  8
0
  6
CONTINUOUS
 62
     7
 10
67.0
 20
50.491240186123719
 30
0.0
  0
VERTEX
  5
3877
  8
0
  6
CONTINUOUS
 62
     7
 10
67.0
 20
50.464072848258461
 30
0.0
  0
VERTEX
  5
3878
  8
0
  6
CONTINUOUS
 62
     7
 10
67.0
 20
50.412237772797653
 30
0.0
  0
VERTEX
  5
3879
  8
0
  6
CONTINUOUS
 62
     7
 10
67.0
 20
50.363671605325692
 30
0.0
  0
VERTEX
  5
387A
  8
0
  6
CONTINUOUS
 62
     7
 10
67.0
 20
50.340592516147751
 30
0.0
  0
VERTEX
  5
387B
  8
0
  6
CONTINUOUS
 62
     7
 10
67.0
 20
50.318305536868593
 30
0.0
  0
VERTEX
  5
387C
  8
0
  6
CONTINUOUS
 62
     7
 10
67.0
 20
50.276079455758747
 30
0.0
  0
VERTEX
  5
387D
  8
0
  6
CONTINUOUS
 62
     7
 10
67.0
 20
50.236941682011597
 30
0.0
  0
VERTEX
  5
387E
  8
0
  6
CONTINUOUS
 62
     7
 10
67.0
 20
50.200848758398593
 30
0.0
  0
VERTEX
  5
387F
  8
0
  6
CONTINUOUS
 62
     7
 10
67.0
 20
50.167765296461262
 30
0.0
  0
VERTEX
  5
3880
  8
0
  6
CONTINUOUS
 62
     7
 10
67.0
 20
50.137663876402307
 30
0.0
  0
VERTEX
  5
3881
  8
0
  6
CONTINUOUS
 62
     7
 10
67.0
 20
50.123725029748471
 30
0.0
  0
VERTEX
  5
3882
  8
0
  6
CONTINUOUS
 62
     7
 10
67.0
 20
50.110525000463781
 30
0.0
  0
VERTEX
  5
3883
  8
0
  6
CONTINUOUS
 62
     7
 10
67.0
 20
50.086337100085132
 30
0.0
  0
VERTEX
  5
3884
  8
0
  6
CONTINUOUS
 62
     7
 10
67.0
 20
50.065096597829672
 30
0.0
  0
VERTEX
  5
3885
  8
0
  6
CONTINUOUS
 62
     7
 10
67.0
 20
50.04680802579724
 30
0.0
  0
VERTEX
  5
3886
  8
0
  6
CONTINUOUS
 62
     7
 10
67.0
 20
50.031484203017733
 30
0.0
  0
VERTEX
  5
3887
  8
0
  6
CONTINUOUS
 62
     7
 10
67.0
 20
50.019146475162579
 30
0.0
  0
VERTEX
  5
3888
  8
0
  6
CONTINUOUS
 62
     7
 10
67.0
 20
50.014106472787432
 30
0.0
  0
VERTEX
  5
3889
  8
0
  6
CONTINUOUS
 62
     7
 10
67.0
 20
50.009825020840367
 30
0.0
  0
VERTEX
  5
388A
  8
0
  6
CONTINUOUS
 62
     7
 10
67.0
 20
50.00355922977878
 30
0.0
  0
VERTEX
  5
388B
  8
0
  6
CONTINUOUS
 62
     7
 10
67.0
 20
50.00039815937123
 30
0.0
  0
VERTEX
  5
388C
  8
0
  6
CONTINUOUS
 62
     7
 10
67.0
 20
50.0
 30
0.0
  0
SEQEND
  5
388D
  8
0
  6
CONTINUOUS
 62
     7
  0
POLYLINE
  5
358D
  8
0
 66
     1
 10
0.0
 20
0.0
 30
0.0
 70
     1
  0
VERTEX
  5
388E
  8
0
 10
46.82457351945709
 20
105.5
 30
0.0
  0
VERTEX
  5
388F
  8
0
 10
43.649147038914123
 20
100.0
 30
0.0
  0
VERTEX
  5
3890
  8
0
 10
46.82457351945709
 20
94.500000000000014
 30
0.0
  0
VERTEX
  5
3891
  8
0
 10
53.17542648054291
 20
94.500000000000014
 30
0.0
  0
VERTEX
  5
3892
  8
0
 10
56.350852961085877
 20
100.0
 30
0.0
  0
VERTEX
  5
3893
  8
0
 10
53.17542648054296
 20
105.5
 30
0.0
  0
SEQEND
  5
3894
  8
0
  0
LINE
  5
358E
  8
0
  6
CENTER
 62
     1
 10
50.0
 20
92.0
 30
0.0
 11
50.0
 21
108.0
 31
0.0
  0
LINE
  5
358F
  8
0
  6
CENTER
 62
     1
 10
40.762395692965981
 20
100.0
 30
0.0
 11
59.237604307034019
 21
100.0
 31
0.0
  0
CIRCLE
  5
3590
  8
0
  6
CONTINUOUS
 62
     7
 10
50.0
 20
100.0
 30
0.0
 40
5.0599999999999987
  0
CIRCLE
  5
3591
  8
0
  6
CONTINUOUS
 62
     7
 10
50.0
 20
100.0
 30
0.0
 40
3.0
  0
TEXT
  5
366E
  8
0
 62
     3
 10
0.0
 20
0.0
 30
0.0
 40
5.0
  1
BJ810-06025-F
  7
STANDARD1
  0
ENDSEC
  0
EOF
