  0
SECTION
  2
HEADER
  9
$ACADVER
  1
AC1009
  9
$INSBASE
 10
0.0
 20
0.0
 30
0.0
  9
$EXTMIN
 10
-0.0005
 20
-1.4802182810368341
 30
0.0
  9
$EXTMAX
 10
79.0
 20
109.0
 30
0.0
  9
$LIMMIN
 10
0.0
 20
0.0
  9
$LIMMAX
 10
275.0
 20
175.0
  9
$ORTHOMODE
 70
     1
  9
$REGENMODE
 70
     1
  9
$FILLMODE
 70
     1
  9
$QTEXTMODE
 70
     0
  9
$MIRRTEXT
 70
     0
  9
$DRAGMODE
 70
     2
  9
$LTSCALE
 40
5.0
  9
$OSMODE
 70
  3071
  9
$ATTMODE
 70
     1
  9
$TEXTSIZE
 40
3.0
  9
$TRACEWID
 40
0.05
  9
$TEXTSTYLE
  7
STANDARD
  9
$CLAYER
  8
0
  9
$CELTYPE
  6
BYLAYER
  9
$CECOLOR
 62
   256
  9
$DIMSCALE
 40
1.0
  9
$DIMASZ
 40
3.0
  9
$DIMEXO
 40
2.0
  9
$DIMDLI
 40
10.0
  9
$DIMRND
 40
0.0
  9
$DIMDLE
 40
0.0
  9
$DIMEXE
 40
2.0
  9
$DIMTP
 40
0.0
  9
$DIMTM
 40
0.0
  9
$DIMTXT
 40
3.0
  9
$DIMCEN
 40
0.0
  9
$DIMTSZ
 40
0.0
  9
$DIMTOL
 70
     0
  9
$DIMLIM
 70
     0
  9
$DIMTIH
 70
     0
  9
$DIMTOH
 70
     0
  9
$DIMSE1
 70
     0
  9
$DIMSE2
 70
     0
  9
$DIMTAD
 70
     1
  9
$DIMZIN
 70
     0
  9
$DIMBLK
  1

  9
$DIMASO
 70
     0
  9
$DIMSHO
 70
     0
  9
$DIMPOST
  1

  9
$DIMAPOST
  1

  9
$DIMALT
 70
     0
  9
$DIMALTD
 70
     2
  9
$DIMALTF
 40
25.399999999999999
  9
$DIMLFAC
 40
1.0
  9
$DIMTOFL
 70
     1
  9
$DIMTVP
 40
1.6000000000000001
  9
$DIMTIX
 70
     1
  9
$DIMSOXD
 70
     0
  9
$DIMSAH
 70
     0
  9
$DIMBLK1
  1
ARROW1
  9
$DIMBLK2
  1
ARROW1
  9
$DIMSTYLE
  2
STANDARD
  9
$DIMCLRD
 70
     0
  9
$DIMCLRE
 70
     0
  9
$DIMCLRT
 70
     0
  9
$DIMTFAC
 40
1.0
  9
$DIMGAP
 40
0.09
  9
$LUNITS
 70
     2
  9
$LUPREC
 70
     2
  9
$SKETCHINC
 40
0.1
  9
$FILLETRAD
 40
0.0
  9
$AUNITS
 70
     0
  9
$AUPREC
 70
     2
  9
$MENU
  1
ME
  9
$ELEVATION
 40
0.0
  9
$PELEVATION
 40
0.0
  9
$THICKNESS
 40
0.0
  9
$LIMCHECK
 70
     0
  9
$BLIPMODE
 70
     0
  9
$CHAMFERA
 40
0.5
  9
$CHAMFERB
 40
0.5
  9
$SKPOLY
 70
     0
  9
$TDCREATE
 40
2452016.3857584959
  9
$TDUPDATE
 40
2456598.4296529982
  9
$TDINDWG
 40
0.9276009028
  9
$TDUSRTIMER
 40
0.927600787
  9
$USRTIMER
 70
     1
  9
$ANGBASE
 50
0.0
  9
$ANGDIR
 70
     0
  9
$PDMODE
 70
     0
  9
$PDSIZE
 40
0.0
  9
$PLINEWID
 40
0.0
  9
$COORDS
 70
     1
  9
$SPLFRAME
 70
     0
  9
$SPLINETYPE
 70
     6
  9
$SPLINESEGS
 70
     8
  9
$ATTDIA
 70
     0
  9
$ATTREQ
 70
     1
  9
$HANDLING
 70
     1
  9
$HANDSEED
  5
3A06
  9
$SURFTAB1
 70
     6
  9
$SURFTAB2
 70
     6
  9
$SURFTYPE
 70
     6
  9
$SURFU
 70
     6
  9
$SURFV
 70
     6
  9
$UCSNAME
  2

  9
$UCSORG
 10
0.0
 20
0.0
 30
0.0
  9
$UCSXDIR
 10
1.0
 20
0.0
 30
0.0
  9
$UCSYDIR
 10
0.0
 20
1.0
 30
0.0
  9
$PUCSNAME
  2

  9
$PUCSORG
 10
0.0
 20
0.0
 30
0.0
  9
$PUCSXDIR
 10
1.0
 20
0.0
 30
0.0
  9
$PUCSYDIR
 10
0.0
 20
1.0
 30
0.0
  9
$USERI1
 70
     4
  9
$USERI2
 70
     1
  9
$USERI3
 70
     1
  9
$USERI4
 70
     1
  9
$USERI5
 70
     0
  9
$USERR1
 40
1.0
  9
$USERR2
 40
3.0
  9
$USERR3
 40
3.0
  9
$USERR4
 40
3.0
  9
$USERR5
 40
10.0
  9
$WORLDVIEW
 70
     1
  9
$SHADEDGE
 70
     3
  9
$SHADEDIF
 70
    70
  9
$TILEMODE
 70
     1
  9
$MAXACTVP
 70
    16
  9
$PLIMCHECK
 70
     0
  9
$PEXTMIN
 10
1.0000000000000000E+020
 20
1.0000000000000000E+020
 30
1.0000000000000000E+020
  9
$PEXTMAX
 10
-1.0000000000000000E+020
 20
-1.0000000000000000E+020
 30
-1.0000000000000000E+020
  9
$PLIMMIN
 10
0.0
 20
0.0
  9
$PLIMMAX
 10
12.0
 20
9.0
  9
$UNITMODE
 70
     0
  9
$VISRETAIN
 70
     0
  9
$PLINEGEN
 70
     0
  9
$PSLTSCALE
 70
     0
  0
ENDSEC
  0
SECTION
  2
TABLES
  0
TABLE
  2
VPORT
 70
     1
  0
VPORT
  2
*ACTIVE
 70
     0
 10
0.0
 20
0.0
 11
1.0
 21
1.0
 12
142.38584200527569
 22
86.756072846141691
 13
0.0
 23
0.0
 14
5.0
 24
5.0
 15
10.0
 25
10.0
 16
0.0
 26
0.0
 36
1.0
 17
0.0
 27
0.0
 37
0.0
 40
178.07070501899651
 41
1.831871345029239
 42
50.0
 43
0.0
 44
0.0
 50
0.0
 51
0.0
 71
     0
 72
   500
 73
     1
 74
     0
 75
     0
 76
     0
 77
     0
 78
     1
  0
ENDTAB
  0
TABLE
  2
LTYPE
 70
     5
  0
LTYPE
  2
CONTINUOUS
 70
     0
  3
Solid Line
 72
    65
 73
     0
 40
0.0
  0
LTYPE
  2
CENTER
 70
     0
  3
____ _ ____ _ ____ _ ____ _ ____ _ ____ _ ____
 72
    65
 73
     4
 40
2.0
 49
1.25
 49
-0.25
 49
0.25
 49
-0.25
  0
LTYPE
  2
HIDDEN
 70
     0
  3
_ _ _ _ _ _ _ _ _ _ _ _ _ _ _ _ _ _ _ _ _ _ _
 72
    65
 73
     2
 40
0.375
 49
0.25
 49
-0.125
  0
LTYPE
  2
GESTRICHELT
 70
     0
  3
__ __ __ __  __ __
 72
    65
 73
     2
 40
1.75
 49
1.0
 49
-1.0
  0
LTYPE
  2
PHANTOM2
 70
     0
  3
___ _ _ ___ _ _ ___ _ _ ___ _ _
 72
    65
 73
     6
 40
1.25
 49
0.625
 49
-0.125
 49
0.125
 49
-0.125
 49
0.125
 49
-0.125
  0
ENDTAB
  0
TABLE
  2
LAYER
 70
     8
  0
LAYER
  2
0
 70
     0
 62
     7
  6
CONTINUOUS
  0
LAYER
  2
1
 70
     0
 62
     1
  6
CENTER
  0
LAYER
  2
2
 70
     0
 62
     2
  6
HIDDEN
  0
LAYER
  2
3
 70
     0
 62
     3
  6
CONTINUOUS
  0
LAYER
  2
10
 70
     0
 62
     7
  6
CONTINUOUS
  0
LAYER
  2
11
 70
     0
 62
     3
  6
CONTINUOUS
  0
LAYER
  2
WAKU
 70
     0
 62
     5
  6
CONTINUOUS
  0
LAYER
  2
ITTEN
 70
     0
 62
     1
  6
CENTER
  0
ENDTAB
  0
TABLE
  2
STYLE
 70
     3
  0
STYLE
  2
STANDARD
 70
     0
 40
0.0
 41
1.0
 50
0.0
 71
     0
 42
3.0
  3
simplex.shx
  4
bigfont.shx
  0
STYLE
  2
07500
 70
     0
 40
0.0
 41
0.75
 50
0.0
 71
     0
 42
6.0
  3
ROMANS
  4
EXTFONT
  0
STYLE
  2
STANDARD1
 70
     0
 40
0.0
 41
1.0
 50
0.0
 71
     0
 42
3.0
  3
txt
  4

  0
ENDTAB
  0
TABLE
  2
VIEW
 70
     0
  0
ENDTAB
  0
TABLE
  2
UCS
 70
     0
  0
ENDTAB
  0
TABLE
  2
APPID
 70
     4
  0
APPID
  2
ACAD
 70
     0
  0
APPID
  2
DCO15
 70
     0
  0
APPID
  2
ACAD_MLEADERVER
 70
     0
  0
APPID
  2
ACAD_NAV_VCDISPLAY
 70
     0
  0
ENDTAB
  0
TABLE
  2
DIMSTYLE
 70
     2
  0
DIMSTYLE
  2
STANDARD
 70
     0
  3

  4

  5

  6

  7

 40
1.0
 41
0.18
 42
0.0625
 43
0.38
 44
0.18
 45
0.0
 46
0.0
 47
0.0
 48
0.0
140
0.18
141
0.09
142
0.0
143
25.399999999999999
144
1.0
145
0.0
146
1.0
147
0.09
 71
     0
 72
     0
 73
     1
 74
     1
 75
     0
 76
     0
 77
     0
 78
     0
170
     0
171
     2
172
     0
173
     0
174
     0
175
     0
176
     0
177
     0
178
     0
  0
DIMSTYLE
  2
ISO-25
 70
     0
  3

  4

  5

  6

  7

 40
1.0
 41
2.5
 42
1.0
 43
3.75
 44
1.25
 45
0.0
 46
0.0
 47
0.0
 48
0.0
140
2.5
141
2.5
142
0.0
143
0.03937007874016
144
1.0
145
0.0
146
1.0
147
1.0
 71
     0
 72
     0
 73
     0
 74
     0
 75
     0
 76
     0
 77
     1
 78
     8
170
     0
171
     3
172
     1
173
     0
174
     0
175
     0
176
     4
177
     4
178
     4
  0
ENDTAB
  0
ENDSEC
  0
SECTION
  2
BLOCKS
  0
BLOCK
  8
0
  2
$MODEL_SPACE
 70
     0
 10
0.0
 20
0.0
 30
0.0
  3
$MODEL_SPACE
  1

  0
ENDBLK
  5
33
  8
0
  0
BLOCK
 67
     1
  8
0
  2
$PAPER_SPACE
 70
     0
 10
0.0
 20
0.0
 30
0.0
  3
$PAPER_SPACE
  1

  0
ENDBLK
  5
31
 67
     1
  8
0
  0
BLOCK
  8
0
  2
ARROW1
 70
     0
 10
0.0
 20
0.0
 30
0.0
  3
ARROW1
  1

  0
SOLID
  5
D5
  8
WAKU
  6
CONTINUOUS
 62
     4
 10
-1.0
 20
0.1666666666666714
 30
0.0
 11
-1.0
 21
-0.1666666666666714
 31
0.0
 12
0.0
 22
0.0
 32
0.0
 13
0.0
 23
0.0
 33
0.0
  0
ENDBLK
  5
D7
  8
0
  0
BLOCK
  8
0
  2
STDGX5
 70
     0
 10
0.0
 20
0.0
 30
0.0
  3
STDGX5
  1

  0
ENDBLK
  5
21A
  8
0
  0
BLOCK
  8
0
  2
BATU
 70
     0
 10
0.0
 20
0.0
 30
0.0
  3
BATU
  1

  0
LINE
  5
26E6
  8
ITTEN
 10
0.5
 20
0.0
 30
0.0
 11
-0.5
 21
0.0
 31
0.0
  0
LINE
  5
26E7
  8
ITTEN
 10
0.0
 20
0.5
 30
0.0
 11
0.0
 21
-0.5
 31
0.0
  0
ENDBLK
  5
26E9
  8
0
  0
ENDSEC
  0
SECTION
  2
ENTITIES
  0
INSERT
  5
765
  8
11
  2
STDGX5
 10
171.6259341103956
 20
132.69480478791689
 30
0.0
 41
0.0499999999999972
 42
0.0499999999999972
 43
0.0499999999999972
  0
INSERT
  5
AA6
  8
11
  2
STDGX5
 10
0.0
 20
0.0
 30
0.0
 41
0.5
 42
0.5
 43
0.5
  0
INSERT
  5
177B
  8
11
  2
STDGX5
 10
73.162382305902796
 20
48.562877491067333
 30
0.0
 41
0.0050000000000026
 42
0.0050000000000026
 43
0.0050000000000026
  0
INSERT
  5
177C
  8
11
  2
STDGX5
 10
55.999788894863222
 20
35.293397012275648
 30
0.0
 41
0.0499999999999972
 42
0.0499999999999972
 43
0.0499999999999972
  0
INSERT
  5
177D
  8
11
  2
STDGX5
 10
86.912382305902796
 20
48.562877491067333
 30
0.0
 41
0.0050000000000026
 42
0.0050000000000026
 43
0.0050000000000026
  0
INSERT
  5
17DB
  8
11
  2
STDGX5
 10
69.749788894863215
 20
35.293397012275648
 30
0.0
 41
0.0499999999999972
 42
0.0499999999999972
 43
0.0499999999999972
  0
INSERT
  5
187C
  8
11
  2
STDGX5
 10
68.332968272572558
 20
41.159487413020472
 30
0.0
 41
0.0005000000000024
 42
0.0005000000000024
 43
0.0005000000000024
  0
INSERT
  5
187D
  8
11
  2
STDGX5
 10
66.616708931468594
 20
39.832539365141308
 30
0.0
 41
0.0050000000000026
 42
0.0050000000000026
 43
0.0050000000000026
  0
INSERT
  5
187E
  8
11
  2
STDGX5
 10
67.612597355799153
 20
40.624860117486151
 30
0.0
 41
0.0000500000000017
 42
0.0000500000000017
 43
0.0000500000000017
  0
INSERT
  5
18E5
  8
11
  2
STDGX5
 10
73.066366553185205
 20
43.608251248582008
 30
0.0
 41
0.0005000000000024
 42
0.0005000000000024
 43
0.0005000000000024
  0
INSERT
  5
18E6
  8
11
  2
STDGX5
 10
71.350107212081255
 20
42.281303200702837
 30
0.0
 41
0.0050000000000026
 42
0.0050000000000026
 43
0.0050000000000026
  0
INSERT
  5
18E7
  8
11
  2
STDGX5
 10
72.3459956364118
 20
43.073623953047672
 30
0.0
 41
0.0000500000000017
 42
0.0000500000000017
 43
0.0000500000000017
  0
INSERT
  5
18E8
  8
11
  2
STDGX5
 10
71.926934514455425
 20
42.67382239167997
 30
0.0
 41
0.0000500000000017
 42
0.0000500000000017
 43
0.0000500000000017
  0
INSERT
  5
26EA
  8
0
  2
BATU
 10
0.0
 20
0.0
 30
0.0
 41
0.001
 42
0.001
 43
0.001
  0
POLYLINE
  5
3643
  8
0
 66
     1
 10
0.0
 20
0.0
 30
0.0
 70
     1
  0
VERTEX
  5
37FF
  8
0
 10
46.247223250267439
 20
106.5
 30
0.0
  0
VERTEX
  5
3800
  8
0
 10
42.494446500534863
 20
100.0
 30
0.0
  0
VERTEX
  5
3801
  8
0
 10
46.247223250267417
 20
93.499999999999986
 30
0.0
  0
VERTEX
  5
3802
  8
0
 10
53.752776749732561
 20
93.499999999999986
 30
0.0
  0
VERTEX
  5
3803
  8
0
 10
57.50555349946513
 20
100.0
 30
0.0
  0
VERTEX
  5
3804
  8
0
 10
53.752776749732583
 20
106.5
 30
0.0
  0
SEQEND
  5
3805
  8
0
  0
LINE
  5
3644
  8
0
  6
CENTER
 62
     1
 10
50.0
 20
91.0
 30
0.0
 11
50.0
 21
109.0
 31
0.0
  0
LINE
  5
3645
  8
0
  6
CENTER
 62
     1
 10
39.607695154586743
 20
100.0
 30
0.0
 11
60.392304845413257
 21
100.0
 31
0.0
  0
CIRCLE
  5
3646
  8
0
  6
CONTINUOUS
 62
     7
 10
50.0
 20
100.0
 30
0.0
 40
5.9799999999999986
  0
CIRCLE
  5
3647
  8
0
  6
CONTINUOUS
 62
     7
 10
50.0
 20
100.0
 30
0.0
 40
4.0
  0
POLYLINE
  5
369C
  8
0
  6
CONTINUOUS
 62
     7
 66
     1
 10
0.0
 20
0.0
 30
0.0
  0
VERTEX
  5
3806
  8
0
  6
CONTINUOUS
 62
     7
 10
53.752776749732547
 20
50.58055658360076
 30
0.0
  0
VERTEX
  5
3807
  8
0
  6
CONTINUOUS
 62
     7
 10
53.640677946764221
 20
50.548561643219678
 30
0.0
  0
VERTEX
  5
3808
  8
0
  6
CONTINUOUS
 62
     7
 10
53.418993202107814
 20
50.487487177432797
 30
0.0
  0
VERTEX
  5
3809
  8
0
  6
CONTINUOUS
 62
     7
 10
53.200408049663629
 20
50.430229015039629
 30
0.0
  0
VERTEX
  5
380A
  8
0
  6
CONTINUOUS
 62
     7
 10
53.092185731362868
 20
50.403006874617347
 30
0.0
  0
VERTEX
  5
380B
  8
0
  6
CONTINUOUS
 62
     7
 10
52.984628751894029
 20
50.376711063004507
 30
0.0
  0
VERTEX
  5
380C
  8
0
  6
CONTINUOUS
 62
     7
 10
52.77136876713584
 20
50.326867223436977
 30
0.0
  0
VERTEX
  5
380D
  8
0
  6
CONTINUOUS
 62
     7
 10
52.560347478702738
 20
50.280641123143141
 30
0.0
  0
VERTEX
  5
380E
  8
0
  6
CONTINUOUS
 62
     7
 10
52.351288958206077
 20
50.237985907746243
 30
0.0
  0
VERTEX
  5
380F
  8
0
  6
CONTINUOUS
 62
     7
 10
52.143920751587132
 20
50.198864098872207
 30
0.0
  0
VERTEX
  5
3810
  8
0
  6
CONTINUOUS
 62
     7
 10
51.937972676529853
 20
50.163247513682911
 30
0.0
  0
VERTEX
  5
3811
  8
0
  6
CONTINUOUS
 62
     7
 10
51.835447081787471
 20
50.146747408847212
 30
0.0
  0
VERTEX
  5
3812
  8
0
  6
CONTINUOUS
 62
     7
 10
51.733175619914071
 20
50.13111724682404
 30
0.0
  0
VERTEX
  5
3813
  8
0
  6
CONTINUOUS
 62
     7
 10
51.52926032377551
 20
50.102463715654501
 30
0.0
  0
VERTEX
  5
3814
  8
0
  6
CONTINUOUS
 62
     7
 10
51.325956147848828
 20
50.077286770455153
 30
0.0
  0
VERTEX
  5
3815
  8
0
  6
CONTINUOUS
 62
     7
 10
51.122989796173329
 20
50.055595872193592
 30
0.0
  0
VERTEX
  5
3816
  8
0
  6
CONTINUOUS
 62
     7
 10
50.920083994416807
 20
50.037410341374432
 30
0.0
  0
VERTEX
  5
3817
  8
0
  6
CONTINUOUS
 62
     7
 10
50.716956103496933
 20
50.022759682543949
 30
0.0
  0
VERTEX
  5
3818
  8
0
  6
CONTINUOUS
 62
     7
 10
50.615218724129683
 20
50.016772033102491
 30
0.0
  0
VERTEX
  5
3819
  8
0
  6
CONTINUOUS
 62
     7
 10
50.513316653718618
 20
50.011683990178028
 30
0.0
  0
VERTEX
  5
381A
  8
0
  6
CONTINUOUS
 62
     7
 10
50.308867781956941
 20
50.004234442990139
 30
0.0
  0
VERTEX
  5
381B
  8
0
  6
CONTINUOUS
 62
     7
 10
50.103301552347517
 20
50.000473895184783
 30
0.0
  0
VERTEX
  5
381C
  8
0
  6
CONTINUOUS
 62
     7
 10
50.0
 20
50.0
 30
0.0
  0
SEQEND
  5
381D
  8
0
  6
CONTINUOUS
 62
     7
  0
LINE
  5
369D
  8
0
  6
CONTINUOUS
 62
     7
 10
53.752776749732561
 20
53.419443416399247
 30
0.0
 11
53.752776749732561
 21
50.58055658360076
 31
0.0
  0
POLYLINE
  5
369E
  8
0
  6
CONTINUOUS
 62
     7
 66
     1
 10
0.0
 20
0.0
 30
0.0
  0
VERTEX
  5
381E
  8
0
  6
CONTINUOUS
 62
     7
 10
46.247223250267432
 20
53.419443416399247
 30
0.0
  0
VERTEX
  5
381F
  8
0
  6
CONTINUOUS
 62
     7
 10
46.485080596460982
 20
53.486448960584383
 30
0.0
  0
VERTEX
  5
3820
  8
0
  6
CONTINUOUS
 62
     7
 10
46.944892900827448
 20
53.606144405793088
 30
0.0
  0
VERTEX
  5
3821
  8
0
  6
CONTINUOUS
 62
     7
 10
47.386375753433953
 20
53.707984554730963
 30
0.0
  0
VERTEX
  5
3822
  8
0
  6
CONTINUOUS
 62
     7
 10
47.601229683354177
 20
53.752605960377828
 30
0.0
  0
VERTEX
  5
3823
  8
0
  6
CONTINUOUS
 62
     7
 10
47.812642941313293
 20
53.793208974407158
 30
0.0
  0
VERTEX
  5
3824
  8
0
  6
CONTINUOUS
 62
     7
 10
48.226497308103738
 20
53.862819089373318
 30
0.0
  0
VERTEX
  5
3825
  8
0
  6
CONTINUOUS
 62
     7
 10
48.630497705540328
 20
53.91760893356377
 30
0.0
  0
VERTEX
  5
3826
  8
0
  6
CONTINUOUS
 62
     7
 10
49.027015482164423
 20
53.958188547571133
 30
0.0
  0
VERTEX
  5
3827
  8
0
  6
CONTINUOUS
 62
     7
 10
49.418283266890008
 20
53.985001351367259
 30
0.0
  0
VERTEX
  5
3828
  8
0
  6
CONTINUOUS
 62
     7
 10
49.806438246489101
 20
53.998336438473473
 30
0.0
  0
VERTEX
  5
3829
  8
0
  6
CONTINUOUS
 62
     7
 10
50.0
 20
54.0
 30
0.0
  0
VERTEX
  5
382A
  8
0
  6
CONTINUOUS
 62
     7
 10
50.193561753510878
 20
53.998336438473473
 30
0.0
  0
VERTEX
  5
382B
  8
0
  6
CONTINUOUS
 62
     7
 10
50.581716733109971
 20
53.985001351367259
 30
0.0
  0
VERTEX
  5
382C
  8
0
  6
CONTINUOUS
 62
     7
 10
50.972984517835563
 20
53.958188547571133
 30
0.0
  0
VERTEX
  5
382D
  8
0
  6
CONTINUOUS
 62
     7
 10
51.36950229445965
 20
53.91760893356377
 30
0.0
  0
VERTEX
  5
382E
  8
0
  6
CONTINUOUS
 62
     7
 10
51.77350269189624
 20
53.862819089373318
 30
0.0
  0
VERTEX
  5
382F
  8
0
  6
CONTINUOUS
 62
     7
 10
52.187357058686693
 20
53.793208974407158
 30
0.0
  0
VERTEX
  5
3830
  8
0
  6
CONTINUOUS
 62
     7
 10
52.398770316645802
 20
53.752605960377828
 30
0.0
  0
VERTEX
  5
3831
  8
0
  6
CONTINUOUS
 62
     7
 10
52.613624246566033
 20
53.707984554730963
 30
0.0
  0
VERTEX
  5
3832
  8
0
  6
CONTINUOUS
 62
     7
 10
53.055107099172531
 20
53.606144405793088
 30
0.0
  0
VERTEX
  5
3833
  8
0
  6
CONTINUOUS
 62
     7
 10
53.514919403538997
 20
53.486448960584383
 30
0.0
  0
VERTEX
  5
3834
  8
0
  6
CONTINUOUS
 62
     7
 10
53.752776749732547
 20
53.419443416399247
 30
0.0
  0
SEQEND
  5
3835
  8
0
  6
CONTINUOUS
 62
     7
  0
LINE
  5
369F
  8
0
  6
CONTINUOUS
 62
     7
 10
46.247223250267439
 20
53.419443416399247
 30
0.0
 11
46.247223250267439
 21
50.58055658360076
 31
0.0
  0
POLYLINE
  5
36A0
  8
0
  6
CONTINUOUS
 62
     7
 66
     1
 10
0.0
 20
0.0
 30
0.0
  0
VERTEX
  5
3836
  8
0
  6
CONTINUOUS
 62
     7
 10
50.0
 20
50.0
 30
0.0
  0
VERTEX
  5
3837
  8
0
  6
CONTINUOUS
 62
     7
 10
49.896698447652462
 20
50.000473895184783
 30
0.0
  0
VERTEX
  5
3838
  8
0
  6
CONTINUOUS
 62
     7
 10
49.691132218043037
 20
50.004234442990139
 30
0.0
  0
VERTEX
  5
3839
  8
0
  6
CONTINUOUS
 62
     7
 10
49.48668334628136
 20
50.011683990178028
 30
0.0
  0
VERTEX
  5
383A
  8
0
  6
CONTINUOUS
 62
     7
 10
49.384781275870303
 20
50.016772033102491
 30
0.0
  0
VERTEX
  5
383B
  8
0
  6
CONTINUOUS
 62
     7
 10
49.283043896503052
 20
50.022759682543949
 30
0.0
  0
VERTEX
  5
383C
  8
0
  6
CONTINUOUS
 62
     7
 10
49.079916005583179
 20
50.037410341374432
 30
0.0
  0
VERTEX
  5
383D
  8
0
  6
CONTINUOUS
 62
     7
 10
48.87701020382665
 20
50.055595872193592
 30
0.0
  0
VERTEX
  5
383E
  8
0
  6
CONTINUOUS
 62
     7
 10
48.674043852151151
 20
50.077286770455153
 30
0.0
  0
VERTEX
  5
383F
  8
0
  6
CONTINUOUS
 62
     7
 10
48.470739676224461
 20
50.102463715654501
 30
0.0
  0
VERTEX
  5
3840
  8
0
  6
CONTINUOUS
 62
     7
 10
48.266824380085907
 20
50.13111724682404
 30
0.0
  0
VERTEX
  5
3841
  8
0
  6
CONTINUOUS
 62
     7
 10
48.164552918212507
 20
50.146747408847212
 30
0.0
  0
VERTEX
  5
3842
  8
0
  6
CONTINUOUS
 62
     7
 10
48.06202732347014
 20
50.163247513682911
 30
0.0
  0
VERTEX
  5
3843
  8
0
  6
CONTINUOUS
 62
     7
 10
47.856079248412847
 20
50.198864098872207
 30
0.0
  0
VERTEX
  5
3844
  8
0
  6
CONTINUOUS
 62
     7
 10
47.648711041793902
 20
50.237985907746243
 30
0.0
  0
VERTEX
  5
3845
  8
0
  6
CONTINUOUS
 62
     7
 10
47.439652521297241
 20
50.280641123143141
 30
0.0
  0
VERTEX
  5
3846
  8
0
  6
CONTINUOUS
 62
     7
 10
47.228631232864139
 20
50.326867223436977
 30
0.0
  0
VERTEX
  5
3847
  8
0
  6
CONTINUOUS
 62
     7
 10
47.015371248105943
 20
50.376711063004507
 30
0.0
  0
VERTEX
  5
3848
  8
0
  6
CONTINUOUS
 62
     7
 10
46.907814268637111
 20
50.403006874617347
 30
0.0
  0
VERTEX
  5
3849
  8
0
  6
CONTINUOUS
 62
     7
 10
46.79959195033635
 20
50.430229015039629
 30
0.0
  0
VERTEX
  5
384A
  8
0
  6
CONTINUOUS
 62
     7
 10
46.581006797892172
 20
50.487487177432797
 30
0.0
  0
VERTEX
  5
384B
  8
0
  6
CONTINUOUS
 62
     7
 10
46.359322053235758
 20
50.548561643219678
 30
0.0
  0
VERTEX
  5
384C
  8
0
  6
CONTINUOUS
 62
     7
 10
46.247223250267432
 20
50.58055658360076
 30
0.0
  0
SEQEND
  5
384D
  8
0
  6
CONTINUOUS
 62
     7
  0
POLYLINE
  5
36A1
  8
0
  6
CONTINUOUS
 62
     7
 66
     1
 10
0.0
 20
0.0
 30
0.0
  0
VERTEX
  5
384E
  8
0
  6
CONTINUOUS
 62
     7
 10
46.24722325026741
 20
50.58055658360076
 30
0.0
  0
VERTEX
  5
384F
  8
0
  6
CONTINUOUS
 62
     7
 10
46.191173848783251
 20
50.548561643219678
 30
0.0
  0
VERTEX
  5
3850
  8
0
  6
CONTINUOUS
 62
     7
 10
46.080331476455051
 20
50.487487177432797
 30
0.0
  0
VERTEX
  5
3851
  8
0
  6
CONTINUOUS
 62
     7
 10
45.971038900232962
 20
50.430229015039629
 30
0.0
  0
VERTEX
  5
3852
  8
0
  6
CONTINUOUS
 62
     7
 10
45.916927741082581
 20
50.403006874617347
 30
0.0
  0
VERTEX
  5
3853
  8
0
  6
CONTINUOUS
 62
     7
 10
45.863149251348148
 20
50.376711063004507
 30
0.0
  0
VERTEX
  5
3854
  8
0
  6
CONTINUOUS
 62
     7
 10
45.75651925896905
 20
50.326867223436977
 30
0.0
  0
VERTEX
  5
3855
  8
0
  6
CONTINUOUS
 62
     7
 10
45.65100861475252
 20
50.280641123143141
 30
0.0
  0
VERTEX
  5
3856
  8
0
  6
CONTINUOUS
 62
     7
 10
45.546479354504172
 20
50.237985907746243
 30
0.0
  0
VERTEX
  5
3857
  8
0
  6
CONTINUOUS
 62
     7
 10
45.442795251194703
 20
50.198864098872207
 30
0.0
  0
VERTEX
  5
3858
  8
0
  6
CONTINUOUS
 62
     7
 10
45.339821213666077
 20
50.163247513682911
 30
0.0
  0
VERTEX
  5
3859
  8
0
  6
CONTINUOUS
 62
     7
 10
45.288558416294883
 20
50.146747408847212
 30
0.0
  0
VERTEX
  5
385A
  8
0
  6
CONTINUOUS
 62
     7
 10
45.237422685358169
 20
50.13111724682404
 30
0.0
  0
VERTEX
  5
385B
  8
0
  6
CONTINUOUS
 62
     7
 10
45.135465037288903
 20
50.102463715654501
 30
0.0
  0
VERTEX
  5
385C
  8
0
  6
CONTINUOUS
 62
     7
 10
45.033812949325551
 20
50.077286770455153
 30
0.0
  0
VERTEX
  5
385D
  8
0
  6
CONTINUOUS
 62
     7
 10
44.932329773487808
 20
50.055595872193592
 30
0.0
  0
VERTEX
  5
385E
  8
0
  6
CONTINUOUS
 62
     7
 10
44.830876872609537
 20
50.037410341374432
 30
0.0
  0
VERTEX
  5
385F
  8
0
  6
CONTINUOUS
 62
     7
 10
44.729312927149607
 20
50.022759682543949
 30
0.0
  0
VERTEX
  5
3860
  8
0
  6
CONTINUOUS
 62
     7
 10
44.678444237465989
 20
50.016772033102491
 30
0.0
  0
VERTEX
  5
3861
  8
0
  6
CONTINUOUS
 62
     7
 10
44.62749320226046
 20
50.011683990178028
 30
0.0
  0
VERTEX
  5
3862
  8
0
  6
CONTINUOUS
 62
     7
 10
44.525268766379611
 20
50.004234442990139
 30
0.0
  0
VERTEX
  5
3863
  8
0
  6
CONTINUOUS
 62
     7
 10
44.422485651574902
 20
50.000473895184783
 30
0.0
  0
VERTEX
  5
3864
  8
0
  6
CONTINUOUS
 62
     7
 10
44.37083487540113
 20
50.0
 30
0.0
  0
SEQEND
  5
3865
  8
0
  6
CONTINUOUS
 62
     7
  0
POLYLINE
  5
36A2
  8
0
  6
CONTINUOUS
 62
     7
 66
     1
 10
0.0
 20
0.0
 30
0.0
  0
VERTEX
  5
3866
  8
0
  6
CONTINUOUS
 62
     7
 10
42.494446500534863
 20
53.419443416399247
 30
0.0
  0
VERTEX
  5
3867
  8
0
  6
CONTINUOUS
 62
     7
 10
42.613375173631631
 20
53.486448960584319
 30
0.0
  0
VERTEX
  5
3868
  8
0
  6
CONTINUOUS
 62
     7
 10
42.843281325814857
 20
53.606144405793088
 30
0.0
  0
VERTEX
  5
3869
  8
0
  6
CONTINUOUS
 62
     7
 10
43.06402275211812
 20
53.707984554730963
 30
0.0
  0
VERTEX
  5
386A
  8
0
  6
CONTINUOUS
 62
     7
 10
43.171449717078239
 20
53.752605960377828
 30
0.0
  0
VERTEX
  5
386B
  8
0
  6
CONTINUOUS
 62
     7
 10
43.277156346057787
 20
53.793208974407158
 30
0.0
  0
VERTEX
  5
386C
  8
0
  6
CONTINUOUS
 62
     7
 10
43.484083529453009
 20
53.862819089373318
 30
0.0
  0
VERTEX
  5
386D
  8
0
  6
CONTINUOUS
 62
     7
 10
43.686083728171297
 20
53.91760893356377
 30
0.0
  0
VERTEX
  5
386E
  8
0
  6
CONTINUOUS
 62
     7
 10
43.884342616483359
 20
53.958188547571133
 30
0.0
  0
VERTEX
  5
386F
  8
0
  6
CONTINUOUS
 62
     7
 10
44.079976508846151
 20
53.985001351367259
 30
0.0
  0
VERTEX
  5
3870
  8
0
  6
CONTINUOUS
 62
     7
 10
44.274053998645691
 20
53.998336438473473
 30
0.0
  0
VERTEX
  5
3871
  8
0
  6
CONTINUOUS
 62
     7
 10
44.37083487540113
 20
54.0
 30
0.0
  0
VERTEX
  5
3872
  8
0
  6
CONTINUOUS
 62
     7
 10
44.467615752156583
 20
53.998336438473473
 30
0.0
  0
VERTEX
  5
3873
  8
0
  6
CONTINUOUS
 62
     7
 10
44.661693241956137
 20
53.985001351367259
 30
0.0
  0
VERTEX
  5
3874
  8
0
  6
CONTINUOUS
 62
     7
 10
44.857327134318922
 20
53.958188547571133
 30
0.0
  0
VERTEX
  5
3875
  8
0
  6
CONTINUOUS
 62
     7
 10
45.055586022630962
 20
53.91760893356377
 30
0.0
  0
VERTEX
  5
3876
  8
0
  6
CONTINUOUS
 62
     7
 10
45.257586221349257
 20
53.862819089373318
 30
0.0
  0
VERTEX
  5
3877
  8
0
  6
CONTINUOUS
 62
     7
 10
45.46451340474448
 20
53.793208974407158
 30
0.0
  0
VERTEX
  5
3878
  8
0
  6
CONTINUOUS
 62
     7
 10
45.570220033724027
 20
53.752605960377828
 30
0.0
  0
VERTEX
  5
3879
  8
0
  6
CONTINUOUS
 62
     7
 10
45.67764699868416
 20
53.707984554730963
 30
0.0
  0
VERTEX
  5
387A
  8
0
  6
CONTINUOUS
 62
     7
 10
45.898388424987409
 20
53.606144405793088
 30
0.0
  0
VERTEX
  5
387B
  8
0
  6
CONTINUOUS
 62
     7
 10
46.128294577170642
 20
53.486448960584383
 30
0.0
  0
VERTEX
  5
387C
  8
0
  6
CONTINUOUS
 62
     7
 10
46.247223250267432
 20
53.419443416399247
 30
0.0
  0
SEQEND
  5
387D
  8
0
  6
CONTINUOUS
 62
     7
  0
LINE
  5
36A3
  8
0
  6
CONTINUOUS
 62
     7
 10
42.494446500534849
 20
53.419443416399247
 30
0.0
 11
42.494446500534849
 21
50.58055658360076
 31
0.0
  0
POLYLINE
  5
36A4
  8
0
  6
CONTINUOUS
 62
     7
 66
     1
 10
0.0
 20
0.0
 30
0.0
  0
VERTEX
  5
387E
  8
0
  6
CONTINUOUS
 62
     7
 10
44.37083487540113
 20
50.0
 30
0.0
  0
VERTEX
  5
387F
  8
0
  6
CONTINUOUS
 62
     7
 10
44.319184099227378
 20
50.000473895184783
 30
0.0
  0
VERTEX
  5
3880
  8
0
  6
CONTINUOUS
 62
     7
 10
44.216400984422663
 20
50.004234442990139
 30
0.0
  0
VERTEX
  5
3881
  8
0
  6
CONTINUOUS
 62
     7
 10
44.11417654854182
 20
50.011683990178028
 30
0.0
  0
VERTEX
  5
3882
  8
0
  6
CONTINUOUS
 62
     7
 10
44.063225513336292
 20
50.016772033102491
 30
0.0
  0
VERTEX
  5
3883
  8
0
  6
CONTINUOUS
 62
     7
 10
44.012356823652667
 20
50.022759682543949
 30
0.0
  0
VERTEX
  5
3884
  8
0
  6
CONTINUOUS
 62
     7
 10
43.910792878192737
 20
50.037410341374432
 30
0.0
  0
VERTEX
  5
3885
  8
0
  6
CONTINUOUS
 62
     7
 10
43.809339977314472
 20
50.055595872193592
 30
0.0
  0
VERTEX
  5
3886
  8
0
  6
CONTINUOUS
 62
     7
 10
43.707856801476723
 20
50.077286770455153
 30
0.0
  0
VERTEX
  5
3887
  8
0
  6
CONTINUOUS
 62
     7
 10
43.606204713513378
 20
50.102463715654501
 30
0.0
  0
VERTEX
  5
3888
  8
0
  6
CONTINUOUS
 62
     7
 10
43.50424706544409
 20
50.13111724682404
 30
0.0
  0
VERTEX
  5
3889
  8
0
  6
CONTINUOUS
 62
     7
 10
43.453111334507398
 20
50.146747408847212
 30
0.0
  0
VERTEX
  5
388A
  8
0
  6
CONTINUOUS
 62
     7
 10
43.40184853713621
 20
50.163247513682911
 30
0.0
  0
VERTEX
  5
388B
  8
0
  6
CONTINUOUS
 62
     7
 10
43.298874499607557
 20
50.198864098872207
 30
0.0
  0
VERTEX
  5
388C
  8
0
  6
CONTINUOUS
 62
     7
 10
43.195190396298088
 20
50.237985907746243
 30
0.0
  0
VERTEX
  5
388D
  8
0
  6
CONTINUOUS
 62
     7
 10
43.090661136049761
 20
50.280641123143141
 30
0.0
  0
VERTEX
  5
388E
  8
0
  6
CONTINUOUS
 62
     7
 10
42.98515049183321
 20
50.326867223436977
 30
0.0
  0
VERTEX
  5
388F
  8
0
  6
CONTINUOUS
 62
     7
 10
42.878520499454119
 20
50.376711063004507
 30
0.0
  0
VERTEX
  5
3890
  8
0
  6
CONTINUOUS
 62
     7
 10
42.824742009719706
 20
50.403006874617347
 30
0.0
  0
VERTEX
  5
3891
  8
0
  6
CONTINUOUS
 62
     7
 10
42.770630850569333
 20
50.430229015039629
 30
0.0
  0
VERTEX
  5
3892
  8
0
  6
CONTINUOUS
 62
     7
 10
42.661338274347237
 20
50.487487177432797
 30
0.0
  0
VERTEX
  5
3893
  8
0
  6
CONTINUOUS
 62
     7
 10
42.550495902019023
 20
50.548561643219678
 30
0.0
  0
VERTEX
  5
3894
  8
0
  6
CONTINUOUS
 62
     7
 10
42.494446500534863
 20
50.58055658360076
 30
0.0
  0
SEQEND
  5
3895
  8
0
  6
CONTINUOUS
 62
     7
  0
LINE
  5
36A5
  8
0
  6
CONTINUOUS
 62
     7
 10
57.505553499465123
 20
53.419443416399247
 30
0.0
 11
57.505553499465123
 21
50.58055658360076
 31
0.0
  0
POLYLINE
  5
36A6
  8
0
  6
CONTINUOUS
 62
     7
 66
     1
 10
0.0
 20
0.0
 30
0.0
  0
VERTEX
  5
3896
  8
0
  6
CONTINUOUS
 62
     7
 10
55.629165124598849
 20
50.0
 30
0.0
  0
VERTEX
  5
3897
  8
0
  6
CONTINUOUS
 62
     7
 10
55.577514348425083
 20
50.000473895184783
 30
0.0
  0
VERTEX
  5
3898
  8
0
  6
CONTINUOUS
 62
     7
 10
55.474731233620368
 20
50.004234442990139
 30
0.0
  0
VERTEX
  5
3899
  8
0
  6
CONTINUOUS
 62
     7
 10
55.372506797739518
 20
50.011683990178028
 30
0.0
  0
VERTEX
  5
389A
  8
0
  6
CONTINUOUS
 62
     7
 10
55.321555762533997
 20
50.016772033102491
 30
0.0
  0
VERTEX
  5
389B
  8
0
  6
CONTINUOUS
 62
     7
 10
55.270687072850372
 20
50.022759682543949
 30
0.0
  0
VERTEX
  5
389C
  8
0
  6
CONTINUOUS
 62
     7
 10
55.169123127390442
 20
50.037410341374432
 30
0.0
  0
VERTEX
  5
389D
  8
0
  6
CONTINUOUS
 62
     7
 10
55.06767022651217
 20
50.055595872193592
 30
0.0
  0
VERTEX
  5
389E
  8
0
  6
CONTINUOUS
 62
     7
 10
54.966187050674428
 20
50.077286770455153
 30
0.0
  0
VERTEX
  5
389F
  8
0
  6
CONTINUOUS
 62
     7
 10
54.864534962711083
 20
50.102463715654501
 30
0.0
  0
VERTEX
  5
38A0
  8
0
  6
CONTINUOUS
 62
     7
 10
54.762577314641803
 20
50.13111724682404
 30
0.0
  0
VERTEX
  5
38A1
  8
0
  6
CONTINUOUS
 62
     7
 10
54.711441583705103
 20
50.146747408847212
 30
0.0
  0
VERTEX
  5
38A2
  8
0
  6
CONTINUOUS
 62
     7
 10
54.660178786333901
 20
50.163247513682911
 30
0.0
  0
VERTEX
  5
38A3
  8
0
  6
CONTINUOUS
 62
     7
 10
54.557204748805269
 20
50.198864098872207
 30
0.0
  0
VERTEX
  5
38A4
  8
0
  6
CONTINUOUS
 62
     7
 10
54.453520645495807
 20
50.237985907746243
 30
0.0
  0
VERTEX
  5
38A5
  8
0
  6
CONTINUOUS
 62
     7
 10
54.348991385247459
 20
50.280641123143141
 30
0.0
  0
VERTEX
  5
38A6
  8
0
  6
CONTINUOUS
 62
     7
 10
54.243480741030908
 20
50.326867223436977
 30
0.0
  0
VERTEX
  5
38A7
  8
0
  6
CONTINUOUS
 62
     7
 10
54.13685074865181
 20
50.376711063004507
 30
0.0
  0
VERTEX
  5
38A8
  8
0
  6
CONTINUOUS
 62
     7
 10
54.083072258917397
 20
50.403006874617347
 30
0.0
  0
VERTEX
  5
38A9
  8
0
  6
CONTINUOUS
 62
     7
 10
54.028961099767017
 20
50.430229015039629
 30
0.0
  0
VERTEX
  5
38AA
  8
0
  6
CONTINUOUS
 62
     7
 10
53.919668523544928
 20
50.487487177432797
 30
0.0
  0
VERTEX
  5
38AB
  8
0
  6
CONTINUOUS
 62
     7
 10
53.808826151216728
 20
50.548561643219678
 30
0.0
  0
VERTEX
  5
38AC
  8
0
  6
CONTINUOUS
 62
     7
 10
53.752776749732547
 20
50.58055658360076
 30
0.0
  0
SEQEND
  5
38AD
  8
0
  6
CONTINUOUS
 62
     7
  0
POLYLINE
  5
36A7
  8
0
  6
CONTINUOUS
 62
     7
 66
     1
 10
0.0
 20
0.0
 30
0.0
  0
VERTEX
  5
38AE
  8
0
  6
CONTINUOUS
 62
     7
 10
57.505553499465123
 20
50.58055658360076
 30
0.0
  0
VERTEX
  5
38AF
  8
0
  6
CONTINUOUS
 62
     7
 10
57.449504097980963
 20
50.548561643219678
 30
0.0
  0
VERTEX
  5
38B0
  8
0
  6
CONTINUOUS
 62
     7
 10
57.338661725652742
 20
50.487487177432797
 30
0.0
  0
VERTEX
  5
38B1
  8
0
  6
CONTINUOUS
 62
     7
 10
57.22936914943066
 20
50.430229015039629
 30
0.0
  0
VERTEX
  5
38B2
  8
0
  6
CONTINUOUS
 62
     7
 10
57.175257990280272
 20
50.403006874617347
 30
0.0
  0
VERTEX
  5
38B3
  8
0
  6
CONTINUOUS
 62
     7
 10
57.12147950054586
 20
50.376711063004507
 30
0.0
  0
VERTEX
  5
38B4
  8
0
  6
CONTINUOUS
 62
     7
 10
57.014849508166769
 20
50.326867223436977
 30
0.0
  0
VERTEX
  5
38B5
  8
0
  6
CONTINUOUS
 62
     7
 10
56.909338863950218
 20
50.280641123143141
 30
0.0
  0
VERTEX
  5
38B6
  8
0
  6
CONTINUOUS
 62
     7
 10
56.804809603701891
 20
50.237985907746243
 30
0.0
  0
VERTEX
  5
38B7
  8
0
  6
CONTINUOUS
 62
     7
 10
56.701125500392422
 20
50.198864098872207
 30
0.0
  0
VERTEX
  5
38B8
  8
0
  6
CONTINUOUS
 62
     7
 10
56.598151462863768
 20
50.163247513682911
 30
0.0
  0
VERTEX
  5
38B9
  8
0
  6
CONTINUOUS
 62
     7
 10
56.546888665492581
 20
50.146747408847212
 30
0.0
  0
VERTEX
  5
38BA
  8
0
  6
CONTINUOUS
 62
     7
 10
56.495752934555888
 20
50.13111724682404
 30
0.0
  0
VERTEX
  5
38BB
  8
0
  6
CONTINUOUS
 62
     7
 10
56.393795286486601
 20
50.102463715654501
 30
0.0
  0
VERTEX
  5
38BC
  8
0
  6
CONTINUOUS
 62
     7
 10
56.292143198523263
 20
50.077286770455153
 30
0.0
  0
VERTEX
  5
38BD
  8
0
  6
CONTINUOUS
 62
     7
 10
56.190660022685513
 20
50.055595872193592
 30
0.0
  0
VERTEX
  5
38BE
  8
0
  6
CONTINUOUS
 62
     7
 10
56.089207121807263
 20
50.037410341374432
 30
0.0
  0
VERTEX
  5
38BF
  8
0
  6
CONTINUOUS
 62
     7
 10
55.987643176347312
 20
50.022759682543949
 30
0.0
  0
VERTEX
  5
38C0
  8
0
  6
CONTINUOUS
 62
     7
 10
55.936774486663687
 20
50.016772033102491
 30
0.0
  0
VERTEX
  5
38C1
  8
0
  6
CONTINUOUS
 62
     7
 10
55.885823451458158
 20
50.011683990178028
 30
0.0
  0
VERTEX
  5
38C2
  8
0
  6
CONTINUOUS
 62
     7
 10
55.783599015577323
 20
50.004234442990139
 30
0.0
  0
VERTEX
  5
38C3
  8
0
  6
CONTINUOUS
 62
     7
 10
55.680815900772608
 20
50.000473895184783
 30
0.0
  0
VERTEX
  5
38C4
  8
0
  6
CONTINUOUS
 62
     7
 10
55.629165124598849
 20
50.0
 30
0.0
  0
SEQEND
  5
38C5
  8
0
  6
CONTINUOUS
 62
     7
  0
POLYLINE
  5
36A8
  8
0
  6
CONTINUOUS
 62
     7
 66
     1
 10
0.0
 20
0.0
 30
0.0
  0
VERTEX
  5
38C6
  8
0
  6
CONTINUOUS
 62
     7
 10
53.752776749732547
 20
53.419443416399247
 30
0.0
  0
VERTEX
  5
38C7
  8
0
  6
CONTINUOUS
 62
     7
 10
53.871705422829329
 20
53.486448960584383
 30
0.0
  0
VERTEX
  5
38C8
  8
0
  6
CONTINUOUS
 62
     7
 10
54.101611575012569
 20
53.606144405793088
 30
0.0
  0
VERTEX
  5
38C9
  8
0
  6
CONTINUOUS
 62
     7
 10
54.322353001315832
 20
53.707984554730963
 30
0.0
  0
VERTEX
  5
38CA
  8
0
  6
CONTINUOUS
 62
     7
 10
54.42977996627593
 20
53.752605960377828
 30
0.0
  0
VERTEX
  5
38CB
  8
0
  6
CONTINUOUS
 62
     7
 10
54.535486595255499
 20
53.793208974407158
 30
0.0
  0
VERTEX
  5
38CC
  8
0
  6
CONTINUOUS
 62
     7
 10
54.742413778650722
 20
53.862819089373318
 30
0.0
  0
VERTEX
  5
38CD
  8
0
  6
CONTINUOUS
 62
     7
 10
54.944413977369017
 20
53.91760893356377
 30
0.0
  0
VERTEX
  5
38CE
  8
0
  6
CONTINUOUS
 62
     7
 10
55.142672865681057
 20
53.95818854757119
 30
0.0
  0
VERTEX
  5
38CF
  8
0
  6
CONTINUOUS
 62
     7
 10
55.338306758043842
 20
53.985001351367259
 30
0.0
  0
VERTEX
  5
38D0
  8
0
  6
CONTINUOUS
 62
     7
 10
55.532384247843403
 20
53.998336438473473
 30
0.0
  0
VERTEX
  5
38D1
  8
0
  6
CONTINUOUS
 62
     7
 10
55.629165124598849
 20
54.0
 30
0.0
  0
VERTEX
  5
38D2
  8
0
  6
CONTINUOUS
 62
     7
 10
55.725946001354281
 20
53.998336438473473
 30
0.0
  0
VERTEX
  5
38D3
  8
0
  6
CONTINUOUS
 62
     7
 10
55.920023491153827
 20
53.985001351367259
 30
0.0
  0
VERTEX
  5
38D4
  8
0
  6
CONTINUOUS
 62
     7
 10
56.115657383516627
 20
53.95818854757119
 30
0.0
  0
VERTEX
  5
38D5
  8
0
  6
CONTINUOUS
 62
     7
 10
56.313916271828667
 20
53.91760893356377
 30
0.0
  0
VERTEX
  5
38D6
  8
0
  6
CONTINUOUS
 62
     7
 10
56.515916470546969
 20
53.862819089373318
 30
0.0
  0
VERTEX
  5
38D7
  8
0
  6
CONTINUOUS
 62
     7
 10
56.722843653942199
 20
53.793208974407158
 30
0.0
  0
VERTEX
  5
38D8
  8
0
  6
CONTINUOUS
 62
     7
 10
56.828550282921739
 20
53.752605960377828
 30
0.0
  0
VERTEX
  5
38D9
  8
0
  6
CONTINUOUS
 62
     7
 10
56.935977247881858
 20
53.707984554730963
 30
0.0
  0
VERTEX
  5
38DA
  8
0
  6
CONTINUOUS
 62
     7
 10
57.156718674185122
 20
53.606144405793088
 30
0.0
  0
VERTEX
  5
38DB
  8
0
  6
CONTINUOUS
 62
     7
 10
57.386624826368347
 20
53.486448960584383
 30
0.0
  0
VERTEX
  5
38DC
  8
0
  6
CONTINUOUS
 62
     7
 10
57.505553499465123
 20
53.419443416399247
 30
0.0
  0
SEQEND
  5
38DD
  8
0
  6
CONTINUOUS
 62
     7
  0
LINE
  5
36A9
  8
0
  6
CONTINUOUS
 62
     7
 10
43.5
 20
50.0
 30
0.0
 11
56.5
 21
50.0
 31
0.0
  0
LINE
  5
36AA
  8
0
  6
CONTINUOUS
 62
     7
 10
44.019999999999982
 20
54.30022213997858
 30
0.0
 11
55.979999999999983
 21
54.30022213997858
 31
0.0
  0
LINE
  5
36AB
  8
0
  6
CONTINUOUS
 62
     7
 10
56.5
 20
50.0
 30
0.0
 11
57.505553499465123
 21
50.58055658360076
 31
0.0
  0
LINE
  5
36AC
  8
0
  6
CONTINUOUS
 62
     7
 10
42.494446500534849
 20
50.58055658360076
 30
0.0
 11
43.5
 21
50.0
 31
0.0
  0
LINE
  5
36AD
  8
0
  6
CONTINUOUS
 62
     7
 10
44.02000000000001
 20
54.30022213997858
 30
0.0
 11
42.494446500534849
 21
53.419443416399247
 31
0.0
  0
LINE
  5
36AE
  8
0
  6
CONTINUOUS
 62
     7
 10
57.505553499465123
 20
53.419443416399247
 30
0.0
 11
55.979999999999983
 21
54.30022213997858
 31
0.0
  0
POLYLINE
  5
36AF
  8
0
  6
CONTINUOUS
 62
     7
 66
     1
 10
0.0
 20
0.0
 30
0.0
  0
VERTEX
  5
38DE
  8
0
  6
CONTINUOUS
 62
     7
 10
66.0
 20
50.58055658360076
 30
0.0
  0
VERTEX
  5
38DF
  8
0
  6
CONTINUOUS
 62
     7
 10
66.0
 20
50.548561643219678
 30
0.0
  0
VERTEX
  5
38E0
  8
0
  6
CONTINUOUS
 62
     7
 10
66.0
 20
50.487487177432797
 30
0.0
  0
VERTEX
  5
38E1
  8
0
  6
CONTINUOUS
 62
     7
 10
66.0
 20
50.430229015039629
 30
0.0
  0
VERTEX
  5
38E2
  8
0
  6
CONTINUOUS
 62
     7
 10
66.0
 20
50.403006874617347
 30
0.0
  0
VERTEX
  5
38E3
  8
0
  6
CONTINUOUS
 62
     7
 10
66.0
 20
50.376711063004507
 30
0.0
  0
VERTEX
  5
38E4
  8
0
  6
CONTINUOUS
 62
     7
 10
66.0
 20
50.326867223436977
 30
0.0
  0
VERTEX
  5
38E5
  8
0
  6
CONTINUOUS
 62
     7
 10
66.0
 20
50.280641123143141
 30
0.0
  0
VERTEX
  5
38E6
  8
0
  6
CONTINUOUS
 62
     7
 10
66.0
 20
50.237985907746243
 30
0.0
  0
VERTEX
  5
38E7
  8
0
  6
CONTINUOUS
 62
     7
 10
66.0
 20
50.198864098872207
 30
0.0
  0
VERTEX
  5
38E8
  8
0
  6
CONTINUOUS
 62
     7
 10
66.0
 20
50.163247513682911
 30
0.0
  0
VERTEX
  5
38E9
  8
0
  6
CONTINUOUS
 62
     7
 10
66.0
 20
50.146747408847212
 30
0.0
  0
VERTEX
  5
38EA
  8
0
  6
CONTINUOUS
 62
     7
 10
66.0
 20
50.13111724682404
 30
0.0
  0
VERTEX
  5
38EB
  8
0
  6
CONTINUOUS
 62
     7
 10
66.0
 20
50.102463715654501
 30
0.0
  0
VERTEX
  5
38EC
  8
0
  6
CONTINUOUS
 62
     7
 10
66.0
 20
50.077286770455153
 30
0.0
  0
VERTEX
  5
38ED
  8
0
  6
CONTINUOUS
 62
     7
 10
66.0
 20
50.055595872193592
 30
0.0
  0
VERTEX
  5
38EE
  8
0
  6
CONTINUOUS
 62
     7
 10
66.0
 20
50.037410341374432
 30
0.0
  0
VERTEX
  5
38EF
  8
0
  6
CONTINUOUS
 62
     7
 10
66.0
 20
50.022759682543949
 30
0.0
  0
VERTEX
  5
38F0
  8
0
  6
CONTINUOUS
 62
     7
 10
66.0
 20
50.016772033102491
 30
0.0
  0
VERTEX
  5
38F1
  8
0
  6
CONTINUOUS
 62
     7
 10
66.0
 20
50.011683990178028
 30
0.0
  0
VERTEX
  5
38F2
  8
0
  6
CONTINUOUS
 62
     7
 10
66.0
 20
50.004234442990139
 30
0.0
  0
VERTEX
  5
38F3
  8
0
  6
CONTINUOUS
 62
     7
 10
66.0
 20
50.000473895184783
 30
0.0
  0
VERTEX
  5
38F4
  8
0
  6
CONTINUOUS
 62
     7
 10
66.0
 20
50.0
 30
0.0
  0
SEQEND
  5
38F5
  8
0
  6
CONTINUOUS
 62
     7
  0
LINE
  5
36B0
  8
0
  6
CONTINUOUS
 62
     7
 10
66.0
 20
53.419443416399247
 30
0.0
 11
66.0
 21
50.58055658360076
 31
0.0
  0
POLYLINE
  5
36B1
  8
0
  6
CONTINUOUS
 62
     7
 66
     1
 10
0.0
 20
0.0
 30
0.0
  0
VERTEX
  5
38F6
  8
0
  6
CONTINUOUS
 62
     7
 10
66.0
 20
54.0
 30
0.0
  0
VERTEX
  5
38F7
  8
0
  6
CONTINUOUS
 62
     7
 10
66.0
 20
53.9995841787416
 30
0.0
  0
VERTEX
  5
38F8
  8
0
  6
CONTINUOUS
 62
     7
 10
66.0
 20
53.996255949256927
 30
0.0
  0
VERTEX
  5
38F9
  8
0
  6
CONTINUOUS
 62
     7
 10
66.0
 20
53.98959062778637
 30
0.0
  0
VERTEX
  5
38FA
  8
0
  6
CONTINUOUS
 62
     7
 10
66.0
 20
53.985001351367259
 30
0.0
  0
VERTEX
  5
38FB
  8
0
  6
CONTINUOUS
 62
     7
 10
66.0
 20
53.979570430250661
 30
0.0
  0
VERTEX
  5
38FC
  8
0
  6
CONTINUOUS
 62
     7
 10
66.0
 20
53.966168532102138
 30
0.0
  0
VERTEX
  5
38FD
  8
0
  6
CONTINUOUS
 62
     7
 10
66.0
 20
53.949348888133507
 30
0.0
  0
VERTEX
  5
38FE
  8
0
  6
CONTINUOUS
 62
     7
 10
66.0
 20
53.9290659887169
 30
0.0
  0
VERTEX
  5
38FF
  8
0
  6
CONTINUOUS
 62
     7
 10
66.0
 20
53.905264549376923
 30
0.0
  0
VERTEX
  5
3900
  8
0
  6
CONTINUOUS
 62
     7
 10
66.0
 20
53.877879129710841
 30
0.0
  0
VERTEX
  5
3901
  8
0
  6
CONTINUOUS
 62
     7
 10
66.0
 20
53.862819089373318
 30
0.0
  0
VERTEX
  5
3902
  8
0
  6
CONTINUOUS
 62
     7
 10
66.0
 20
53.846833676694878
 30
0.0
  0
VERTEX
  5
3903
  8
0
  6
CONTINUOUS
 62
     7
 10
66.0
 20
53.812040986336122
 30
0.0
  0
VERTEX
  5
3904
  8
0
  6
CONTINUOUS
 62
     7
 10
66.0
 20
53.773402076421128
 30
0.0
  0
VERTEX
  5
3905
  8
0
  6
CONTINUOUS
 62
     7
 10
66.0
 20
53.730805461742712
 30
0.0
  0
VERTEX
  5
3906
  8
0
  6
CONTINUOUS
 62
     7
 10
66.0
 20
53.6841263216225
 30
0.0
  0
VERTEX
  5
3907
  8
0
  6
CONTINUOUS
 62
     7
 10
66.0
 20
53.633225547747656
 30
0.0
  0
VERTEX
  5
3908
  8
0
  6
CONTINUOUS
 62
     7
 10
66.0
 20
53.606144405793088
 30
0.0
  0
VERTEX
  5
3909
  8
0
  6
CONTINUOUS
 62
     7
 10
66.0
 20
53.577948658255991
 30
0.0
  0
VERTEX
  5
390A
  8
0
  6
CONTINUOUS
 62
     7
 10
66.0
 20
53.518124561572968
 30
0.0
  0
VERTEX
  5
390B
  8
0
  6
CONTINUOUS
 62
     7
 10
66.0
 20
53.453564150657442
 30
0.0
  0
VERTEX
  5
390C
  8
0
  6
CONTINUOUS
 62
     7
 10
66.0
 20
53.419443416399247
 30
0.0
  0
SEQEND
  5
390D
  8
0
  6
CONTINUOUS
 62
     7
  0
POLYLINE
  5
36B2
  8
0
  6
CONTINUOUS
 62
     7
 66
     1
 10
0.0
 20
0.0
 30
0.0
  0
VERTEX
  5
390E
  8
0
  6
CONTINUOUS
 62
     7
 10
79.0
 20
50.0
 30
0.0
  0
VERTEX
  5
390F
  8
0
  6
CONTINUOUS
 62
     7
 10
79.0
 20
50.000473895184783
 30
0.0
  0
VERTEX
  5
3910
  8
0
  6
CONTINUOUS
 62
     7
 10
79.0
 20
50.004234442990139
 30
0.0
  0
VERTEX
  5
3911
  8
0
  6
CONTINUOUS
 62
     7
 10
79.0
 20
50.011683990178028
 30
0.0
  0
VERTEX
  5
3912
  8
0
  6
CONTINUOUS
 62
     7
 10
79.0
 20
50.016772033102491
 30
0.0
  0
VERTEX
  5
3913
  8
0
  6
CONTINUOUS
 62
     7
 10
79.0
 20
50.022759682543949
 30
0.0
  0
VERTEX
  5
3914
  8
0
  6
CONTINUOUS
 62
     7
 10
79.0
 20
50.037410341374432
 30
0.0
  0
VERTEX
  5
3915
  8
0
  6
CONTINUOUS
 62
     7
 10
79.0
 20
50.055595872193592
 30
0.0
  0
VERTEX
  5
3916
  8
0
  6
CONTINUOUS
 62
     7
 10
79.0
 20
50.077286770455153
 30
0.0
  0
VERTEX
  5
3917
  8
0
  6
CONTINUOUS
 62
     7
 10
79.0
 20
50.102463715654501
 30
0.0
  0
VERTEX
  5
3918
  8
0
  6
CONTINUOUS
 62
     7
 10
79.0
 20
50.13111724682404
 30
0.0
  0
VERTEX
  5
3919
  8
0
  6
CONTINUOUS
 62
     7
 10
79.0
 20
50.146747408847212
 30
0.0
  0
VERTEX
  5
391A
  8
0
  6
CONTINUOUS
 62
     7
 10
79.0
 20
50.163247513682911
 30
0.0
  0
VERTEX
  5
391B
  8
0
  6
CONTINUOUS
 62
     7
 10
79.0
 20
50.198864098872207
 30
0.0
  0
VERTEX
  5
391C
  8
0
  6
CONTINUOUS
 62
     7
 10
79.0
 20
50.237985907746243
 30
0.0
  0
VERTEX
  5
391D
  8
0
  6
CONTINUOUS
 62
     7
 10
79.0
 20
50.280641123143141
 30
0.0
  0
VERTEX
  5
391E
  8
0
  6
CONTINUOUS
 62
     7
 10
79.0
 20
50.326867223436977
 30
0.0
  0
VERTEX
  5
391F
  8
0
  6
CONTINUOUS
 62
     7
 10
79.0
 20
50.376711063004507
 30
0.0
  0
VERTEX
  5
3920
  8
0
  6
CONTINUOUS
 62
     7
 10
79.0
 20
50.403006874617347
 30
0.0
  0
VERTEX
  5
3921
  8
0
  6
CONTINUOUS
 62
     7
 10
79.0
 20
50.430229015039629
 30
0.0
  0
VERTEX
  5
3922
  8
0
  6
CONTINUOUS
 62
     7
 10
79.0
 20
50.487487177432797
 30
0.0
  0
VERTEX
  5
3923
  8
0
  6
CONTINUOUS
 62
     7
 10
79.0
 20
50.548561643219678
 30
0.0
  0
VERTEX
  5
3924
  8
0
  6
CONTINUOUS
 62
     7
 10
79.0
 20
50.58055658360076
 30
0.0
  0
SEQEND
  5
3925
  8
0
  6
CONTINUOUS
 62
     7
  0
POLYLINE
  5
36B3
  8
0
  6
CONTINUOUS
 62
     7
 66
     1
 10
0.0
 20
0.0
 30
0.0
  0
VERTEX
  5
3926
  8
0
  6
CONTINUOUS
 62
     7
 10
79.0
 20
53.419443416399247
 30
0.0
  0
VERTEX
  5
3927
  8
0
  6
CONTINUOUS
 62
     7
 10
79.0
 20
53.453564150657442
 30
0.0
  0
VERTEX
  5
3928
  8
0
  6
CONTINUOUS
 62
     7
 10
79.0
 20
53.518124561572968
 30
0.0
  0
VERTEX
  5
3929
  8
0
  6
CONTINUOUS
 62
     7
 10
79.0
 20
53.577948658255991
 30
0.0
  0
VERTEX
  5
392A
  8
0
  6
CONTINUOUS
 62
     7
 10
79.0
 20
53.606144405793088
 30
0.0
  0
VERTEX
  5
392B
  8
0
  6
CONTINUOUS
 62
     7
 10
79.0
 20
53.633225547747656
 30
0.0
  0
VERTEX
  5
392C
  8
0
  6
CONTINUOUS
 62
     7
 10
79.0
 20
53.6841263216225
 30
0.0
  0
VERTEX
  5
392D
  8
0
  6
CONTINUOUS
 62
     7
 10
79.0
 20
53.730805461742712
 30
0.0
  0
VERTEX
  5
392E
  8
0
  6
CONTINUOUS
 62
     7
 10
79.0
 20
53.773402076421128
 30
0.0
  0
VERTEX
  5
392F
  8
0
  6
CONTINUOUS
 62
     7
 10
79.0
 20
53.812040986336122
 30
0.0
  0
VERTEX
  5
3930
  8
0
  6
CONTINUOUS
 62
     7
 10
79.0
 20
53.846833676694878
 30
0.0
  0
VERTEX
  5
3931
  8
0
  6
CONTINUOUS
 62
     7
 10
79.0
 20
53.862819089373318
 30
0.0
  0
VERTEX
  5
3932
  8
0
  6
CONTINUOUS
 62
     7
 10
79.0
 20
53.877879129710841
 30
0.0
  0
VERTEX
  5
3933
  8
0
  6
CONTINUOUS
 62
     7
 10
79.0
 20
53.905264549376923
 30
0.0
  0
VERTEX
  5
3934
  8
0
  6
CONTINUOUS
 62
     7
 10
79.0
 20
53.9290659887169
 30
0.0
  0
VERTEX
  5
3935
  8
0
  6
CONTINUOUS
 62
     7
 10
79.0
 20
53.949348888133507
 30
0.0
  0
VERTEX
  5
3936
  8
0
  6
CONTINUOUS
 62
     7
 10
79.0
 20
53.966168532102138
 30
0.0
  0
VERTEX
  5
3937
  8
0
  6
CONTINUOUS
 62
     7
 10
79.0
 20
53.979570430250661
 30
0.0
  0
VERTEX
  5
3938
  8
0
  6
CONTINUOUS
 62
     7
 10
79.0
 20
53.985001351367259
 30
0.0
  0
VERTEX
  5
3939
  8
0
  6
CONTINUOUS
 62
     7
 10
79.0
 20
53.98959062778637
 30
0.0
  0
VERTEX
  5
393A
  8
0
  6
CONTINUOUS
 62
     7
 10
79.0
 20
53.996255949256927
 30
0.0
  0
VERTEX
  5
393B
  8
0
  6
CONTINUOUS
 62
     7
 10
79.0
 20
53.9995841787416
 30
0.0
  0
VERTEX
  5
393C
  8
0
  6
CONTINUOUS
 62
     7
 10
79.0
 20
54.0
 30
0.0
  0
SEQEND
  5
393D
  8
0
  6
CONTINUOUS
 62
     7
  0
LINE
  5
36B4
  8
0
  6
CONTINUOUS
 62
     7
 10
79.0
 20
53.419443416399247
 30
0.0
 11
79.0
 21
50.58055658360076
 31
0.0
  0
POLYLINE
  5
36B5
  8
0
  6
CONTINUOUS
 62
     7
 66
     1
 10
0.0
 20
0.0
 30
0.0
  0
VERTEX
  5
393E
  8
0
  6
CONTINUOUS
 62
     7
 10
75.75
 20
50.0
 30
0.0
  0
VERTEX
  5
393F
  8
0
  6
CONTINUOUS
 62
     7
 10
75.660538231416666
 20
50.000473895184783
 30
0.0
  0
VERTEX
  5
3940
  8
0
  6
CONTINUOUS
 62
     7
 10
75.482512654414734
 20
50.004234442990139
 30
0.0
  0
VERTEX
  5
3941
  8
0
  6
CONTINUOUS
 62
     7
 10
75.305454737694049
 20
50.011683990178028
 30
0.0
  0
VERTEX
  5
3942
  8
0
  6
CONTINUOUS
 62
     7
 10
75.217204956019813
 20
50.016772033102491
 30
0.0
  0
VERTEX
  5
3943
  8
0
  6
CONTINUOUS
 62
     7
 10
75.129097800973341
 20
50.022759682543949
 30
0.0
  0
VERTEX
  5
3944
  8
0
  6
CONTINUOUS
 62
     7
 10
74.953183887219581
 20
50.037410341374432
 30
0.0
  0
VERTEX
  5
3945
  8
0
  6
CONTINUOUS
 62
     7
 10
74.77746230832318
 20
50.055595872193592
 30
0.0
  0
VERTEX
  5
3946
  8
0
  6
CONTINUOUS
 62
     7
 10
74.601688291658746
 20
50.077286770455153
 30
0.0
  0
VERTEX
  5
3947
  8
0
  6
CONTINUOUS
 62
     7
 10
74.425621710610756
 20
50.102463715654501
 30
0.0
  0
VERTEX
  5
3948
  8
0
  6
CONTINUOUS
 62
     7
 10
74.249025883934564
 20
50.13111724682404
 30
0.0
  0
VERTEX
  5
3949
  8
0
  6
CONTINUOUS
 62
     7
 10
74.160456199870026
 20
50.146747408847212
 30
0.0
  0
VERTEX
  5
394A
  8
0
  6
CONTINUOUS
 62
     7
 10
74.071666430285006
 20
50.163247513682911
 30
0.0
  0
VERTEX
  5
394B
  8
0
  6
CONTINUOUS
 62
     7
 10
73.893310165424907
 20
50.198864098872207
 30
0.0
  0
VERTEX
  5
394C
  8
0
  6
CONTINUOUS
 62
     7
 10
73.713724030555682
 20
50.237985907746243
 30
0.0
  0
VERTEX
  5
394D
  8
0
  6
CONTINUOUS
 62
     7
 10
73.532674040927986
 20
50.280641123143141
 30
0.0
  0
VERTEX
  5
394E
  8
0
  6
CONTINUOUS
 62
     7
 10
73.349924244405599
 20
50.326867223436977
 30
0.0
  0
VERTEX
  5
394F
  8
0
  6
CONTINUOUS
 62
     7
 10
73.165235679994311
 20
50.376711063004507
 30
0.0
  0
VERTEX
  5
3950
  8
0
  6
CONTINUOUS
 62
     7
 10
73.072088603419985
 20
50.403006874617347
 30
0.0
  0
VERTEX
  5
3951
  8
0
  6
CONTINUOUS
 62
     7
 10
72.978365326515075
 20
50.430229015039629
 30
0.0
  0
VERTEX
  5
3952
  8
0
  6
CONTINUOUS
 62
     7
 10
72.789065031608345
 20
50.487487177432797
 30
0.0
  0
VERTEX
  5
3953
  8
0
  6
CONTINUOUS
 62
     7
 10
72.5970804111044
 20
50.548561643219678
 30
0.0
  0
VERTEX
  5
3954
  8
0
  6
CONTINUOUS
 62
     7
 10
72.5
 20
50.58055658360076
 30
0.0
  0
SEQEND
  5
3955
  8
0
  6
CONTINUOUS
 62
     7
  0
POLYLINE
  5
36B6
  8
0
  6
CONTINUOUS
 62
     7
 66
     1
 10
0.0
 20
0.0
 30
0.0
  0
VERTEX
  5
3956
  8
0
  6
CONTINUOUS
 62
     7
 10
79.0
 20
50.58055658360076
 30
0.0
  0
VERTEX
  5
3957
  8
0
  6
CONTINUOUS
 62
     7
 10
78.9029195888956
 20
50.548561643219678
 30
0.0
  0
VERTEX
  5
3958
  8
0
  6
CONTINUOUS
 62
     7
 10
78.710934968391655
 20
50.487487177432797
 30
0.0
  0
VERTEX
  5
3959
  8
0
  6
CONTINUOUS
 62
     7
 10
78.521634673484925
 20
50.430229015039629
 30
0.0
  0
VERTEX
  5
395A
  8
0
  6
CONTINUOUS
 62
     7
 10
78.427911396580015
 20
50.403006874617347
 30
0.0
  0
VERTEX
  5
395B
  8
0
  6
CONTINUOUS
 62
     7
 10
78.334764320005689
 20
50.376711063004507
 30
0.0
  0
VERTEX
  5
395C
  8
0
  6
CONTINUOUS
 62
     7
 10
78.150075755594401
 20
50.326867223436977
 30
0.0
  0
VERTEX
  5
395D
  8
0
  6
CONTINUOUS
 62
     7
 10
77.967325959072014
 20
50.280641123143141
 30
0.0
  0
VERTEX
  5
395E
  8
0
  6
CONTINUOUS
 62
     7
 10
77.786275969444304
 20
50.237985907746243
 30
0.0
  0
VERTEX
  5
395F
  8
0
  6
CONTINUOUS
 62
     7
 10
77.606689834575093
 20
50.198864098872207
 30
0.0
  0
VERTEX
  5
3960
  8
0
  6
CONTINUOUS
 62
     7
 10
77.428333569714994
 20
50.163247513682911
 30
0.0
  0
VERTEX
  5
3961
  8
0
  6
CONTINUOUS
 62
     7
 10
77.339543800129945
 20
50.146747408847212
 30
0.0
  0
VERTEX
  5
3962
  8
0
  6
CONTINUOUS
 62
     7
 10
77.250974116065436
 20
50.13111724682404
 30
0.0
  0
VERTEX
  5
3963
  8
0
  6
CONTINUOUS
 62
     7
 10
77.074378289389216
 20
50.102463715654501
 30
0.0
  0
VERTEX
  5
3964
  8
0
  6
CONTINUOUS
 62
     7
 10
76.898311708341254
 20
50.077286770455153
 30
0.0
  0
VERTEX
  5
3965
  8
0
  6
CONTINUOUS
 62
     7
 10
76.722537691676806
 20
50.055595872193592
 30
0.0
  0
VERTEX
  5
3966
  8
0
  6
CONTINUOUS
 62
     7
 10
76.546816112780419
 20
50.037410341374432
 30
0.0
  0
VERTEX
  5
3967
  8
0
  6
CONTINUOUS
 62
     7
 10
76.370902199026659
 20
50.022759682543949
 30
0.0
  0
VERTEX
  5
3968
  8
0
  6
CONTINUOUS
 62
     7
 10
76.282795043980173
 20
50.016772033102491
 30
0.0
  0
VERTEX
  5
3969
  8
0
  6
CONTINUOUS
 62
     7
 10
76.194545262305951
 20
50.011683990178028
 30
0.0
  0
VERTEX
  5
396A
  8
0
  6
CONTINUOUS
 62
     7
 10
76.017487345585266
 20
50.004234442990139
 30
0.0
  0
VERTEX
  5
396B
  8
0
  6
CONTINUOUS
 62
     7
 10
75.839461768583334
 20
50.000473895184783
 30
0.0
  0
VERTEX
  5
396C
  8
0
  6
CONTINUOUS
 62
     7
 10
75.75
 20
50.0
 30
0.0
  0
SEQEND
  5
396D
  8
0
  6
CONTINUOUS
 62
     7
  0
POLYLINE
  5
36B7
  8
0
  6
CONTINUOUS
 62
     7
 66
     1
 10
0.0
 20
0.0
 30
0.0
  0
VERTEX
  5
396E
  8
0
  6
CONTINUOUS
 62
     7
 10
72.5
 20
53.419443416399247
 30
0.0
  0
VERTEX
  5
396F
  8
0
  6
CONTINUOUS
 62
     7
 10
72.705990504280351
 20
53.486448960584383
 30
0.0
  0
VERTEX
  5
3970
  8
0
  6
CONTINUOUS
 62
     7
 10
73.104199640834395
 20
53.606144405793088
 30
0.0
  0
VERTEX
  5
3971
  8
0
  6
CONTINUOUS
 62
     7
 10
73.48653500652685
 20
53.707984554730963
 30
0.0
  0
VERTEX
  5
3972
  8
0
  6
CONTINUOUS
 62
     7
 10
73.672603967940688
 20
53.752605960377828
 30
0.0
  0
VERTEX
  5
3973
  8
0
  6
CONTINUOUS
 62
     7
 10
73.855693220030105
 20
53.793208974407158
 30
0.0
  0
VERTEX
  5
3974
  8
0
  6
CONTINUOUS
 62
     7
 10
74.214101615137736
 20
53.862819089373318
 30
0.0
  0
VERTEX
  5
3975
  8
0
  6
CONTINUOUS
 62
     7
 10
74.563976222456859
 20
53.91760893356377
 30
0.0
  0
VERTEX
  5
3976
  8
0
  6
CONTINUOUS
 62
     7
 10
74.90737069006542
 20
53.958188547571133
 30
0.0
  0
VERTEX
  5
3977
  8
0
  6
CONTINUOUS
 62
     7
 10
75.246218531320267
 20
53.985001351367259
 30
0.0
  0
VERTEX
  5
3978
  8
0
  6
CONTINUOUS
 62
     7
 10
75.582370604258514
 20
53.998336438473473
 30
0.0
  0
VERTEX
  5
3979
  8
0
  6
CONTINUOUS
 62
     7
 10
75.75
 20
54.0
 30
0.0
  0
VERTEX
  5
397A
  8
0
  6
CONTINUOUS
 62
     7
 10
75.917629395741471
 20
53.998336438473473
 30
0.0
  0
VERTEX
  5
397B
  8
0
  6
CONTINUOUS
 62
     7
 10
76.253781468679733
 20
53.985001351367259
 30
0.0
  0
VERTEX
  5
397C
  8
0
  6
CONTINUOUS
 62
     7
 10
76.59262930993458
 20
53.958188547571133
 30
0.0
  0
VERTEX
  5
397D
  8
0
  6
CONTINUOUS
 62
     7
 10
76.936023777543141
 20
53.91760893356377
 30
0.0
  0
VERTEX
  5
397E
  8
0
  6
CONTINUOUS
 62
     7
 10
77.285898384862264
 20
53.862819089373318
 30
0.0
  0
VERTEX
  5
397F
  8
0
  6
CONTINUOUS
 62
     7
 10
77.644306779969895
 20
53.793208974407158
 30
0.0
  0
VERTEX
  5
3980
  8
0
  6
CONTINUOUS
 62
     7
 10
77.827396032059312
 20
53.752605960377828
 30
0.0
  0
VERTEX
  5
3981
  8
0
  6
CONTINUOUS
 62
     7
 10
78.01346499347315
 20
53.707984554730963
 30
0.0
  0
VERTEX
  5
3982
  8
0
  6
CONTINUOUS
 62
     7
 10
78.395800359165605
 20
53.606144405793088
 30
0.0
  0
VERTEX
  5
3983
  8
0
  6
CONTINUOUS
 62
     7
 10
78.794009495719649
 20
53.486448960584383
 30
0.0
  0
VERTEX
  5
3984
  8
0
  6
CONTINUOUS
 62
     7
 10
79.0
 20
53.419443416399247
 30
0.0
  0
SEQEND
  5
3985
  8
0
  6
CONTINUOUS
 62
     7
  0
LINE
  5
36B8
  8
0
  6
CONTINUOUS
 62
     7
 10
72.5
 20
53.419443416399247
 30
0.0
 11
72.5
 21
50.58055658360076
 31
0.0
  0
POLYLINE
  5
36B9
  8
0
  6
CONTINUOUS
 62
     7
 66
     1
 10
0.0
 20
0.0
 30
0.0
  0
VERTEX
  5
3986
  8
0
  6
CONTINUOUS
 62
     7
 10
69.25
 20
50.0
 30
0.0
  0
VERTEX
  5
3987
  8
0
  6
CONTINUOUS
 62
     7
 10
69.160538231416666
 20
50.000473895184783
 30
0.0
  0
VERTEX
  5
3988
  8
0
  6
CONTINUOUS
 62
     7
 10
68.982512654414734
 20
50.004234442990139
 30
0.0
  0
VERTEX
  5
3989
  8
0
  6
CONTINUOUS
 62
     7
 10
68.805454737694049
 20
50.011683990178028
 30
0.0
  0
VERTEX
  5
398A
  8
0
  6
CONTINUOUS
 62
     7
 10
68.717204956019827
 20
50.016772033102491
 30
0.0
  0
VERTEX
  5
398B
  8
0
  6
CONTINUOUS
 62
     7
 10
68.629097800973341
 20
50.022759682543949
 30
0.0
  0
VERTEX
  5
398C
  8
0
  6
CONTINUOUS
 62
     7
 10
68.453183887219581
 20
50.037410341374432
 30
0.0
  0
VERTEX
  5
398D
  8
0
  6
CONTINUOUS
 62
     7
 10
68.27746230832318
 20
50.055595872193592
 30
0.0
  0
VERTEX
  5
398E
  8
0
  6
CONTINUOUS
 62
     7
 10
68.101688291658746
 20
50.077286770455153
 30
0.0
  0
VERTEX
  5
398F
  8
0
  6
CONTINUOUS
 62
     7
 10
67.925621710610784
 20
50.102463715654501
 30
0.0
  0
VERTEX
  5
3990
  8
0
  6
CONTINUOUS
 62
     7
 10
67.749025883934564
 20
50.13111724682404
 30
0.0
  0
VERTEX
  5
3991
  8
0
  6
CONTINUOUS
 62
     7
 10
67.660456199870055
 20
50.146747408847212
 30
0.0
  0
VERTEX
  5
3992
  8
0
  6
CONTINUOUS
 62
     7
 10
67.571666430285006
 20
50.163247513682911
 30
0.0
  0
VERTEX
  5
3993
  8
0
  6
CONTINUOUS
 62
     7
 10
67.393310165424893
 20
50.198864098872207
 30
0.0
  0
VERTEX
  5
3994
  8
0
  6
CONTINUOUS
 62
     7
 10
67.213724030555682
 20
50.237985907746243
 30
0.0
  0
VERTEX
  5
3995
  8
0
  6
CONTINUOUS
 62
     7
 10
67.032674040927986
 20
50.280641123143141
 30
0.0
  0
VERTEX
  5
3996
  8
0
  6
CONTINUOUS
 62
     7
 10
66.849924244405599
 20
50.326867223436977
 30
0.0
  0
VERTEX
  5
3997
  8
0
  6
CONTINUOUS
 62
     7
 10
66.665235679994311
 20
50.376711063004507
 30
0.0
  0
VERTEX
  5
3998
  8
0
  6
CONTINUOUS
 62
     7
 10
66.572088603419985
 20
50.403006874617347
 30
0.0
  0
VERTEX
  5
3999
  8
0
  6
CONTINUOUS
 62
     7
 10
66.478365326515075
 20
50.430229015039629
 30
0.0
  0
VERTEX
  5
399A
  8
0
  6
CONTINUOUS
 62
     7
 10
66.289065031608317
 20
50.487487177432797
 30
0.0
  0
VERTEX
  5
399B
  8
0
  6
CONTINUOUS
 62
     7
 10
66.0970804111044
 20
50.548561643219678
 30
0.0
  0
VERTEX
  5
399C
  8
0
  6
CONTINUOUS
 62
     7
 10
66.0
 20
50.58055658360076
 30
0.0
  0
SEQEND
  5
399D
  8
0
  6
CONTINUOUS
 62
     7
  0
POLYLINE
  5
36BA
  8
0
  6
CONTINUOUS
 62
     7
 66
     1
 10
0.0
 20
0.0
 30
0.0
  0
VERTEX
  5
399E
  8
0
  6
CONTINUOUS
 62
     7
 10
72.5
 20
50.58055658360076
 30
0.0
  0
VERTEX
  5
399F
  8
0
  6
CONTINUOUS
 62
     7
 10
72.4029195888956
 20
50.548561643219678
 30
0.0
  0
VERTEX
  5
39A0
  8
0
  6
CONTINUOUS
 62
     7
 10
72.210934968391655
 20
50.487487177432797
 30
0.0
  0
VERTEX
  5
39A1
  8
0
  6
CONTINUOUS
 62
     7
 10
72.021634673484925
 20
50.430229015039629
 30
0.0
  0
VERTEX
  5
39A2
  8
0
  6
CONTINUOUS
 62
     7
 10
71.927911396580015
 20
50.403006874617347
 30
0.0
  0
VERTEX
  5
39A3
  8
0
  6
CONTINUOUS
 62
     7
 10
71.834764320005689
 20
50.376711063004507
 30
0.0
  0
VERTEX
  5
39A4
  8
0
  6
CONTINUOUS
 62
     7
 10
71.650075755594401
 20
50.326867223436977
 30
0.0
  0
VERTEX
  5
39A5
  8
0
  6
CONTINUOUS
 62
     7
 10
71.467325959072014
 20
50.280641123143141
 30
0.0
  0
VERTEX
  5
39A6
  8
0
  6
CONTINUOUS
 62
     7
 10
71.286275969444318
 20
50.237985907746243
 30
0.0
  0
VERTEX
  5
39A7
  8
0
  6
CONTINUOUS
 62
     7
 10
71.106689834575093
 20
50.198864098872207
 30
0.0
  0
VERTEX
  5
39A8
  8
0
  6
CONTINUOUS
 62
     7
 10
70.928333569714994
 20
50.163247513682911
 30
0.0
  0
VERTEX
  5
39A9
  8
0
  6
CONTINUOUS
 62
     7
 10
70.839543800129945
 20
50.146747408847212
 30
0.0
  0
VERTEX
  5
39AA
  8
0
  6
CONTINUOUS
 62
     7
 10
70.750974116065436
 20
50.13111724682404
 30
0.0
  0
VERTEX
  5
39AB
  8
0
  6
CONTINUOUS
 62
     7
 10
70.574378289389216
 20
50.102463715654501
 30
0.0
  0
VERTEX
  5
39AC
  8
0
  6
CONTINUOUS
 62
     7
 10
70.398311708341254
 20
50.077286770455153
 30
0.0
  0
VERTEX
  5
39AD
  8
0
  6
CONTINUOUS
 62
     7
 10
70.22253769167682
 20
50.055595872193592
 30
0.0
  0
VERTEX
  5
39AE
  8
0
  6
CONTINUOUS
 62
     7
 10
70.046816112780419
 20
50.037410341374432
 30
0.0
  0
VERTEX
  5
39AF
  8
0
  6
CONTINUOUS
 62
     7
 10
69.870902199026659
 20
50.022759682543949
 30
0.0
  0
VERTEX
  5
39B0
  8
0
  6
CONTINUOUS
 62
     7
 10
69.782795043980173
 20
50.016772033102491
 30
0.0
  0
VERTEX
  5
39B1
  8
0
  6
CONTINUOUS
 62
     7
 10
69.694545262305951
 20
50.011683990178028
 30
0.0
  0
VERTEX
  5
39B2
  8
0
  6
CONTINUOUS
 62
     7
 10
69.517487345585266
 20
50.004234442990139
 30
0.0
  0
VERTEX
  5
39B3
  8
0
  6
CONTINUOUS
 62
     7
 10
69.339461768583334
 20
50.000473895184783
 30
0.0
  0
VERTEX
  5
39B4
  8
0
  6
CONTINUOUS
 62
     7
 10
69.25
 20
50.0
 30
0.0
  0
SEQEND
  5
39B5
  8
0
  6
CONTINUOUS
 62
     7
  0
POLYLINE
  5
36BB
  8
0
  6
CONTINUOUS
 62
     7
 66
     1
 10
0.0
 20
0.0
 30
0.0
  0
VERTEX
  5
39B6
  8
0
  6
CONTINUOUS
 62
     7
 10
66.0
 20
53.419443416399247
 30
0.0
  0
VERTEX
  5
39B7
  8
0
  6
CONTINUOUS
 62
     7
 10
66.205990504280351
 20
53.486448960584383
 30
0.0
  0
VERTEX
  5
39B8
  8
0
  6
CONTINUOUS
 62
     7
 10
66.604199640834395
 20
53.606144405793088
 30
0.0
  0
VERTEX
  5
39B9
  8
0
  6
CONTINUOUS
 62
     7
 10
66.98653500652685
 20
53.707984554730963
 30
0.0
  0
VERTEX
  5
39BA
  8
0
  6
CONTINUOUS
 62
     7
 10
67.172603967940688
 20
53.752605960377828
 30
0.0
  0
VERTEX
  5
39BB
  8
0
  6
CONTINUOUS
 62
     7
 10
67.355693220030105
 20
53.793208974407158
 30
0.0
  0
VERTEX
  5
39BC
  8
0
  6
CONTINUOUS
 62
     7
 10
67.714101615137736
 20
53.862819089373318
 30
0.0
  0
VERTEX
  5
39BD
  8
0
  6
CONTINUOUS
 62
     7
 10
68.063976222456859
 20
53.91760893356377
 30
0.0
  0
VERTEX
  5
39BE
  8
0
  6
CONTINUOUS
 62
     7
 10
68.40737069006542
 20
53.95818854757119
 30
0.0
  0
VERTEX
  5
39BF
  8
0
  6
CONTINUOUS
 62
     7
 10
68.746218531320267
 20
53.985001351367259
 30
0.0
  0
VERTEX
  5
39C0
  8
0
  6
CONTINUOUS
 62
     7
 10
69.082370604258529
 20
53.998336438473473
 30
0.0
  0
VERTEX
  5
39C1
  8
0
  6
CONTINUOUS
 62
     7
 10
69.25
 20
54.0
 30
0.0
  0
VERTEX
  5
39C2
  8
0
  6
CONTINUOUS
 62
     7
 10
69.417629395741471
 20
53.998336438473473
 30
0.0
  0
VERTEX
  5
39C3
  8
0
  6
CONTINUOUS
 62
     7
 10
69.753781468679733
 20
53.985001351367259
 30
0.0
  0
VERTEX
  5
39C4
  8
0
  6
CONTINUOUS
 62
     7
 10
70.092629309934566
 20
53.95818854757119
 30
0.0
  0
VERTEX
  5
39C5
  8
0
  6
CONTINUOUS
 62
     7
 10
70.436023777543141
 20
53.91760893356377
 30
0.0
  0
VERTEX
  5
39C6
  8
0
  6
CONTINUOUS
 62
     7
 10
70.785898384862264
 20
53.862819089373318
 30
0.0
  0
VERTEX
  5
39C7
  8
0
  6
CONTINUOUS
 62
     7
 10
71.144306779969895
 20
53.793208974407158
 30
0.0
  0
VERTEX
  5
39C8
  8
0
  6
CONTINUOUS
 62
     7
 10
71.327396032059312
 20
53.752605960377828
 30
0.0
  0
VERTEX
  5
39C9
  8
0
  6
CONTINUOUS
 62
     7
 10
71.51346499347315
 20
53.707984554730963
 30
0.0
  0
VERTEX
  5
39CA
  8
0
  6
CONTINUOUS
 62
     7
 10
71.895800359165605
 20
53.606144405793088
 30
0.0
  0
VERTEX
  5
39CB
  8
0
  6
CONTINUOUS
 62
     7
 10
72.294009495719649
 20
53.486448960584383
 30
0.0
  0
VERTEX
  5
39CC
  8
0
  6
CONTINUOUS
 62
     7
 10
72.5
 20
53.419443416399247
 30
0.0
  0
SEQEND
  5
39CD
  8
0
  6
CONTINUOUS
 62
     7
  0
LINE
  5
36BC
  8
0
  6
CONTINUOUS
 62
     7
 10
66.0
 20
50.0
 30
0.0
 11
79.0
 21
50.0
 31
0.0
  0
LINE
  5
36BD
  8
0
  6
CONTINUOUS
 62
     7
 10
66.519999999999982
 20
54.30022213997858
 30
0.0
 11
78.480000000000018
 21
54.30022213997858
 31
0.0
  0
LINE
  5
36BE
  8
0
  6
CONTINUOUS
 62
     7
 10
66.519999999999982
 20
54.30022213997858
 30
0.0
 11
66.0
 21
54.0
 31
0.0
  0
LINE
  5
36BF
  8
0
  6
CONTINUOUS
 62
     7
 10
79.0
 20
54.0
 30
0.0
 11
78.480000000000018
 21
54.30022213997858
 31
0.0
  0
LINE
  5
36C0
  8
0
  6
CENTER
 62
     1
 10
50.0
 20
82.5
 30
0.0
 11
50.0
 21
47.5
 31
0.0
  0
LINE
  5
36C1
  8
0
  6
HIDDEN
 62
     2
 10
46.0
 20
59.0
 30
0.0
 11
46.0
 21
50.0
 31
0.0
  0
LINE
  5
36C2
  8
0
  6
HIDDEN
 62
     2
 10
46.0
 20
59.0
 30
0.0
 11
46.676499999999997
 21
60.171732371320338
 31
0.0
  0
LINE
  5
36C3
  8
0
  6
HIDDEN
 62
     2
 10
54.0
 20
59.0
 30
0.0
 11
53.323499999999989
 21
60.171732371320338
 31
0.0
  0
LINE
  5
36C4
  8
0
  6
HIDDEN
 62
     2
 10
54.0
 20
59.0
 30
0.0
 11
54.0
 21
50.0
 31
0.0
  0
LINE
  5
36C5
  8
0
  6
HIDDEN
 62
     2
 10
46.676499999999997
 20
62.149999999999999
 30
0.0
 11
53.323499999999989
 21
62.149999999999999
 31
0.0
  0
LINE
  5
36C6
  8
0
  6
CONTINUOUS
 62
     7
 10
46.0
 20
79.0
 30
0.0
 11
54.0
 21
79.0
 31
0.0
  0
LINE
  5
36C7
  8
0
  6
CONTINUOUS
 62
     7
 10
46.0
 20
80.0
 30
0.0
 11
54.0
 21
80.0
 31
0.0
  0
LINE
  5
36C8
  8
0
  6
HIDDEN
 62
     2
 10
50.0
 20
65.473500000000001
 30
0.0
 11
46.676499999999997
 21
62.149999999999999
 31
0.0
  0
LINE
  5
36C9
  8
0
  6
HIDDEN
 62
     2
 10
53.323499999999989
 20
62.149999999999999
 30
0.0
 11
50.0
 21
65.473500000000001
 31
0.0
  0
LINE
  5
36CA
  8
0
  6
HIDDEN
 62
     2
 10
46.676499999999997
 20
62.149999999999999
 30
0.0
 11
46.676499999999997
 21
50.0
 31
0.0
  0
LINE
  5
36CB
  8
0
  6
HIDDEN
 62
     2
 10
53.323499999999989
 20
50.0
 30
0.0
 11
53.323499999999989
 21
62.149999999999999
 31
0.0
  0
LINE
  5
36CC
  8
0
  6
CONTINUOUS
 62
     7
 10
46.0
 20
79.0
 30
0.0
 11
44.019999999999982
 21
54.300222139978601
 31
0.0
  0
LINE
  5
36CD
  8
0
  6
CONTINUOUS
 62
     7
 10
55.979999999999983
 20
54.300222139978601
 30
0.0
 11
54.0
 21
79.0
 31
0.0
  0
LINE
  5
36CE
  8
0
  6
CONTINUOUS
 62
     7
 10
46.0
 20
80.0
 30
0.0
 11
46.0
 21
79.0
 31
0.0
  0
LINE
  5
36CF
  8
0
  6
CONTINUOUS
 62
     7
 10
54.0
 20
79.0
 30
0.0
 11
54.0
 21
80.0
 31
0.0
  0
LINE
  5
36D0
  8
0
  6
CENTER
 62
     1
 10
72.5
 20
82.5
 30
0.0
 11
72.5
 21
47.5
 31
0.0
  0
LINE
  5
36D1
  8
0
  6
HIDDEN
 62
     2
 10
68.5
 20
59.0
 30
0.0
 11
68.5
 21
50.0
 31
0.0
  0
LINE
  5
36D2
  8
0
  6
HIDDEN
 62
     2
 10
68.5
 20
59.0
 30
0.0
 11
69.176500000000004
 21
60.171732371320338
 31
0.0
  0
LINE
  5
36D3
  8
0
  6
HIDDEN
 62
     2
 10
76.5
 20
59.0
 30
0.0
 11
75.823499999999996
 21
60.171732371320338
 31
0.0
  0
LINE
  5
36D4
  8
0
  6
HIDDEN
 62
     2
 10
76.5
 20
59.0
 30
0.0
 11
76.5
 21
50.0
 31
0.0
  0
LINE
  5
36D5
  8
0
  6
HIDDEN
 62
     2
 10
69.176500000000004
 20
62.149999999999999
 30
0.0
 11
75.823499999999996
 21
62.149999999999999
 31
0.0
  0
LINE
  5
36D6
  8
0
  6
CONTINUOUS
 62
     7
 10
68.5
 20
79.0
 30
0.0
 11
76.5
 21
79.0
 31
0.0
  0
LINE
  5
36D7
  8
0
  6
CONTINUOUS
 62
     7
 10
68.5
 20
80.0
 30
0.0
 11
76.5
 21
80.0
 31
0.0
  0
LINE
  5
36D8
  8
0
  6
HIDDEN
 62
     2
 10
72.5
 20
65.473500000000001
 30
0.0
 11
69.176500000000004
 21
62.149999999999999
 31
0.0
  0
LINE
  5
36D9
  8
0
  6
HIDDEN
 62
     2
 10
75.823499999999996
 20
62.149999999999999
 30
0.0
 11
72.5
 21
65.473500000000001
 31
0.0
  0
LINE
  5
36DA
  8
0
  6
HIDDEN
 62
     2
 10
69.176500000000004
 20
62.149999999999999
 30
0.0
 11
69.176500000000004
 21
50.0
 31
0.0
  0
LINE
  5
36DB
  8
0
  6
HIDDEN
 62
     2
 10
75.823499999999996
 20
50.0
 30
0.0
 11
75.823499999999996
 21
62.149999999999999
 31
0.0
  0
LINE
  5
36DC
  8
0
  6
CONTINUOUS
 62
     7
 10
68.5
 20
79.0
 30
0.0
 11
66.519999999999982
 21
54.300222139978601
 31
0.0
  0
LINE
  5
36DD
  8
0
  6
CONTINUOUS
 62
     7
 10
78.480000000000018
 20
54.300222139978601
 30
0.0
 11
76.5
 21
79.0
 31
0.0
  0
LINE
  5
36DE
  8
0
  6
CONTINUOUS
 62
     7
 10
68.5
 20
80.0
 30
0.0
 11
68.5
 21
79.0
 31
0.0
  0
LINE
  5
36DF
  8
0
  6
CONTINUOUS
 62
     7
 10
76.5
 20
79.0
 30
0.0
 11
76.5
 21
80.0
 31
0.0
  0
TEXT
  5
37A7
  8
0
 62
     3
 10
0.0
 20
0.0
 30
0.0
 40
5.0
  1
BJ810-08030-F
  7
STANDARD1
  0
ENDSEC
  0
EOF
