  0
SECTION
  2
HEADER
  9
$ACADVER
  1
AC1009
  9
$INSBASE
 10
0.0
 20
0.0
 30
0.0
  9
$EXTMIN
 10
-0.0005
 20
-1.4802182810368341
 30
0.0
  9
$EXTMAX
 10
80.999999999999986
 20
111.0
 30
0.0
  9
$LIMMIN
 10
0.0
 20
0.0
  9
$LIMMAX
 10
275.0
 20
175.0
  9
$ORTHOMODE
 70
     1
  9
$REGENMODE
 70
     1
  9
$FILLMODE
 70
     1
  9
$QTEXTMODE
 70
     0
  9
$MIRRTEXT
 70
     0
  9
$DRAGMODE
 70
     2
  9
$LTSCALE
 40
5.0
  9
$OSMODE
 70
  3071
  9
$ATTMODE
 70
     1
  9
$TEXTSIZE
 40
3.0
  9
$TRACEWID
 40
0.05
  9
$TEXTSTYLE
  7
STANDARD
  9
$CLAYER
  8
0
  9
$CELTYPE
  6
BYLAYER
  9
$CECOLOR
 62
   256
  9
$DIMSCALE
 40
1.0
  9
$DIMASZ
 40
3.0
  9
$DIMEXO
 40
2.0
  9
$DIMDLI
 40
10.0
  9
$DIMRND
 40
0.0
  9
$DIMDLE
 40
0.0
  9
$DIMEXE
 40
2.0
  9
$DIMTP
 40
0.0
  9
$DIMTM
 40
0.0
  9
$DIMTXT
 40
3.0
  9
$DIMCEN
 40
0.0
  9
$DIMTSZ
 40
0.0
  9
$DIMTOL
 70
     0
  9
$DIMLIM
 70
     0
  9
$DIMTIH
 70
     0
  9
$DIMTOH
 70
     0
  9
$DIMSE1
 70
     0
  9
$DIMSE2
 70
     0
  9
$DIMTAD
 70
     1
  9
$DIMZIN
 70
     0
  9
$DIMBLK
  1

  9
$DIMASO
 70
     0
  9
$DIMSHO
 70
     0
  9
$DIMPOST
  1

  9
$DIMAPOST
  1

  9
$DIMALT
 70
     0
  9
$DIMALTD
 70
     2
  9
$DIMALTF
 40
25.399999999999999
  9
$DIMLFAC
 40
1.0
  9
$DIMTOFL
 70
     1
  9
$DIMTVP
 40
1.6000000000000001
  9
$DIMTIX
 70
     1
  9
$DIMSOXD
 70
     0
  9
$DIMSAH
 70
     0
  9
$DIMBLK1
  1
ARROW1
  9
$DIMBLK2
  1
ARROW1
  9
$DIMSTYLE
  2
STANDARD
  9
$DIMCLRD
 70
     0
  9
$DIMCLRE
 70
     0
  9
$DIMCLRT
 70
     0
  9
$DIMTFAC
 40
1.0
  9
$DIMGAP
 40
0.09
  9
$LUNITS
 70
     2
  9
$LUPREC
 70
     2
  9
$SKETCHINC
 40
0.1
  9
$FILLETRAD
 40
0.0
  9
$AUNITS
 70
     0
  9
$AUPREC
 70
     2
  9
$MENU
  1
ME
  9
$ELEVATION
 40
0.0
  9
$PELEVATION
 40
0.0
  9
$THICKNESS
 40
0.0
  9
$LIMCHECK
 70
     0
  9
$BLIPMODE
 70
     0
  9
$CHAMFERA
 40
0.5
  9
$CHAMFERB
 40
0.5
  9
$SKPOLY
 70
     0
  9
$TDCREATE
 40
2452016.3857584959
  9
$TDUPDATE
 40
2456598.429839341
  9
$TDINDWG
 40
0.9294101157
  9
$TDUSRTIMER
 40
0.92941
  9
$USRTIMER
 70
     1
  9
$ANGBASE
 50
0.0
  9
$ANGDIR
 70
     0
  9
$PDMODE
 70
     0
  9
$PDSIZE
 40
0.0
  9
$PLINEWID
 40
0.0
  9
$COORDS
 70
     1
  9
$SPLFRAME
 70
     0
  9
$SPLINETYPE
 70
     6
  9
$SPLINESEGS
 70
     8
  9
$ATTDIA
 70
     0
  9
$ATTREQ
 70
     1
  9
$HANDLING
 70
     1
  9
$HANDSEED
  5
3B3F
  9
$SURFTAB1
 70
     6
  9
$SURFTAB2
 70
     6
  9
$SURFTYPE
 70
     6
  9
$SURFU
 70
     6
  9
$SURFV
 70
     6
  9
$UCSNAME
  2

  9
$UCSORG
 10
0.0
 20
0.0
 30
0.0
  9
$UCSXDIR
 10
1.0
 20
0.0
 30
0.0
  9
$UCSYDIR
 10
0.0
 20
1.0
 30
0.0
  9
$PUCSNAME
  2

  9
$PUCSORG
 10
0.0
 20
0.0
 30
0.0
  9
$PUCSXDIR
 10
1.0
 20
0.0
 30
0.0
  9
$PUCSYDIR
 10
0.0
 20
1.0
 30
0.0
  9
$USERI1
 70
     4
  9
$USERI2
 70
     1
  9
$USERI3
 70
     1
  9
$USERI4
 70
     1
  9
$USERI5
 70
     0
  9
$USERR1
 40
1.0
  9
$USERR2
 40
3.0
  9
$USERR3
 40
3.0
  9
$USERR4
 40
3.0
  9
$USERR5
 40
10.0
  9
$WORLDVIEW
 70
     1
  9
$SHADEDGE
 70
     3
  9
$SHADEDIF
 70
    70
  9
$TILEMODE
 70
     1
  9
$MAXACTVP
 70
    16
  9
$PLIMCHECK
 70
     0
  9
$PEXTMIN
 10
1.0000000000000000E+020
 20
1.0000000000000000E+020
 30
1.0000000000000000E+020
  9
$PEXTMAX
 10
-1.0000000000000000E+020
 20
-1.0000000000000000E+020
 30
-1.0000000000000000E+020
  9
$PLIMMIN
 10
0.0
 20
0.0
  9
$PLIMMAX
 10
12.0
 20
9.0
  9
$UNITMODE
 70
     0
  9
$VISRETAIN
 70
     0
  9
$PLINEGEN
 70
     0
  9
$PSLTSCALE
 70
     0
  0
ENDSEC
  0
SECTION
  2
TABLES
  0
TABLE
  2
VPORT
 70
     1
  0
VPORT
  2
*ACTIVE
 70
     0
 10
0.0
 20
0.0
 11
1.0
 21
1.0
 12
142.38584200527569
 22
86.756072846141691
 13
0.0
 23
0.0
 14
5.0
 24
5.0
 15
10.0
 25
10.0
 16
0.0
 26
0.0
 36
1.0
 17
0.0
 27
0.0
 37
0.0
 40
178.07070501899651
 41
1.831871345029239
 42
50.0
 43
0.0
 44
0.0
 50
0.0
 51
0.0
 71
     0
 72
   500
 73
     1
 74
     0
 75
     0
 76
     0
 77
     0
 78
     1
  0
ENDTAB
  0
TABLE
  2
LTYPE
 70
     5
  0
LTYPE
  2
CONTINUOUS
 70
     0
  3
Solid Line
 72
    65
 73
     0
 40
0.0
  0
LTYPE
  2
CENTER
 70
     0
  3
____ _ ____ _ ____ _ ____ _ ____ _ ____ _ ____
 72
    65
 73
     4
 40
2.0
 49
1.25
 49
-0.25
 49
0.25
 49
-0.25
  0
LTYPE
  2
HIDDEN
 70
     0
  3
_ _ _ _ _ _ _ _ _ _ _ _ _ _ _ _ _ _ _ _ _ _ _
 72
    65
 73
     2
 40
0.375
 49
0.25
 49
-0.125
  0
LTYPE
  2
GESTRICHELT
 70
     0
  3
__ __ __ __  __ __
 72
    65
 73
     2
 40
1.75
 49
1.0
 49
-1.0
  0
LTYPE
  2
PHANTOM2
 70
     0
  3
___ _ _ ___ _ _ ___ _ _ ___ _ _
 72
    65
 73
     6
 40
1.25
 49
0.625
 49
-0.125
 49
0.125
 49
-0.125
 49
0.125
 49
-0.125
  0
ENDTAB
  0
TABLE
  2
LAYER
 70
     8
  0
LAYER
  2
0
 70
     0
 62
     7
  6
CONTINUOUS
  0
LAYER
  2
1
 70
     0
 62
     1
  6
CENTER
  0
LAYER
  2
2
 70
     0
 62
     2
  6
HIDDEN
  0
LAYER
  2
3
 70
     0
 62
     3
  6
CONTINUOUS
  0
LAYER
  2
10
 70
     0
 62
     7
  6
CONTINUOUS
  0
LAYER
  2
11
 70
     0
 62
     3
  6
CONTINUOUS
  0
LAYER
  2
WAKU
 70
     0
 62
     5
  6
CONTINUOUS
  0
LAYER
  2
ITTEN
 70
     0
 62
     1
  6
CENTER
  0
ENDTAB
  0
TABLE
  2
STYLE
 70
     3
  0
STYLE
  2
STANDARD
 70
     0
 40
0.0
 41
1.0
 50
0.0
 71
     0
 42
3.0
  3
simplex.shx
  4
bigfont.shx
  0
STYLE
  2
07500
 70
     0
 40
0.0
 41
0.75
 50
0.0
 71
     0
 42
6.0
  3
ROMANS
  4
EXTFONT
  0
STYLE
  2
STANDARD1
 70
     0
 40
0.0
 41
1.0
 50
0.0
 71
     0
 42
3.0
  3
txt
  4

  0
ENDTAB
  0
TABLE
  2
VIEW
 70
     0
  0
ENDTAB
  0
TABLE
  2
UCS
 70
     0
  0
ENDTAB
  0
TABLE
  2
APPID
 70
     4
  0
APPID
  2
ACAD
 70
     0
  0
APPID
  2
DCO15
 70
     0
  0
APPID
  2
ACAD_MLEADERVER
 70
     0
  0
APPID
  2
ACAD_NAV_VCDISPLAY
 70
     0
  0
ENDTAB
  0
TABLE
  2
DIMSTYLE
 70
     2
  0
DIMSTYLE
  2
STANDARD
 70
     0
  3

  4

  5

  6

  7

 40
1.0
 41
0.18
 42
0.0625
 43
0.38
 44
0.18
 45
0.0
 46
0.0
 47
0.0
 48
0.0
140
0.18
141
0.09
142
0.0
143
25.399999999999999
144
1.0
145
0.0
146
1.0
147
0.09
 71
     0
 72
     0
 73
     1
 74
     1
 75
     0
 76
     0
 77
     0
 78
     0
170
     0
171
     2
172
     0
173
     0
174
     0
175
     0
176
     0
177
     0
178
     0
  0
DIMSTYLE
  2
ISO-25
 70
     0
  3

  4

  5

  6

  7

 40
1.0
 41
2.5
 42
1.0
 43
3.75
 44
1.25
 45
0.0
 46
0.0
 47
0.0
 48
0.0
140
2.5
141
2.5
142
0.0
143
0.03937007874016
144
1.0
145
0.0
146
1.0
147
1.0
 71
     0
 72
     0
 73
     0
 74
     0
 75
     0
 76
     0
 77
     1
 78
     8
170
     0
171
     3
172
     1
173
     0
174
     0
175
     0
176
     4
177
     4
178
     4
  0
ENDTAB
  0
ENDSEC
  0
SECTION
  2
BLOCKS
  0
BLOCK
  8
0
  2
$MODEL_SPACE
 70
     0
 10
0.0
 20
0.0
 30
0.0
  3
$MODEL_SPACE
  1

  0
ENDBLK
  5
33
  8
0
  0
BLOCK
 67
     1
  8
0
  2
$PAPER_SPACE
 70
     0
 10
0.0
 20
0.0
 30
0.0
  3
$PAPER_SPACE
  1

  0
ENDBLK
  5
31
 67
     1
  8
0
  0
BLOCK
  8
0
  2
ARROW1
 70
     0
 10
0.0
 20
0.0
 30
0.0
  3
ARROW1
  1

  0
SOLID
  5
D5
  8
WAKU
  6
CONTINUOUS
 62
     4
 10
-1.0
 20
0.1666666666666714
 30
0.0
 11
-1.0
 21
-0.1666666666666714
 31
0.0
 12
0.0
 22
0.0
 32
0.0
 13
0.0
 23
0.0
 33
0.0
  0
ENDBLK
  5
D7
  8
0
  0
BLOCK
  8
0
  2
STDGX5
 70
     0
 10
0.0
 20
0.0
 30
0.0
  3
STDGX5
  1

  0
ENDBLK
  5
21A
  8
0
  0
BLOCK
  8
0
  2
BATU
 70
     0
 10
0.0
 20
0.0
 30
0.0
  3
BATU
  1

  0
LINE
  5
26E6
  8
ITTEN
 10
0.5
 20
0.0
 30
0.0
 11
-0.5
 21
0.0
 31
0.0
  0
LINE
  5
26E7
  8
ITTEN
 10
0.0
 20
0.5
 30
0.0
 11
0.0
 21
-0.5
 31
0.0
  0
ENDBLK
  5
26E9
  8
0
  0
ENDSEC
  0
SECTION
  2
ENTITIES
  0
INSERT
  5
765
  8
11
  2
STDGX5
 10
171.6259341103956
 20
132.69480478791689
 30
0.0
 41
0.0499999999999972
 42
0.0499999999999972
 43
0.0499999999999972
  0
INSERT
  5
AA6
  8
11
  2
STDGX5
 10
0.0
 20
0.0
 30
0.0
 41
0.5
 42
0.5
 43
0.5
  0
INSERT
  5
177B
  8
11
  2
STDGX5
 10
73.162382305902796
 20
48.562877491067333
 30
0.0
 41
0.0050000000000026
 42
0.0050000000000026
 43
0.0050000000000026
  0
INSERT
  5
177C
  8
11
  2
STDGX5
 10
55.999788894863222
 20
35.293397012275648
 30
0.0
 41
0.0499999999999972
 42
0.0499999999999972
 43
0.0499999999999972
  0
INSERT
  5
177D
  8
11
  2
STDGX5
 10
86.912382305902796
 20
48.562877491067333
 30
0.0
 41
0.0050000000000026
 42
0.0050000000000026
 43
0.0050000000000026
  0
INSERT
  5
17DB
  8
11
  2
STDGX5
 10
69.749788894863215
 20
35.293397012275648
 30
0.0
 41
0.0499999999999972
 42
0.0499999999999972
 43
0.0499999999999972
  0
INSERT
  5
187C
  8
11
  2
STDGX5
 10
68.332968272572558
 20
41.159487413020472
 30
0.0
 41
0.0005000000000024
 42
0.0005000000000024
 43
0.0005000000000024
  0
INSERT
  5
187D
  8
11
  2
STDGX5
 10
66.616708931468594
 20
39.832539365141308
 30
0.0
 41
0.0050000000000026
 42
0.0050000000000026
 43
0.0050000000000026
  0
INSERT
  5
187E
  8
11
  2
STDGX5
 10
67.612597355799153
 20
40.624860117486151
 30
0.0
 41
0.0000500000000017
 42
0.0000500000000017
 43
0.0000500000000017
  0
INSERT
  5
18E5
  8
11
  2
STDGX5
 10
73.066366553185205
 20
43.608251248582008
 30
0.0
 41
0.0005000000000024
 42
0.0005000000000024
 43
0.0005000000000024
  0
INSERT
  5
18E6
  8
11
  2
STDGX5
 10
71.350107212081255
 20
42.281303200702837
 30
0.0
 41
0.0050000000000026
 42
0.0050000000000026
 43
0.0050000000000026
  0
INSERT
  5
18E7
  8
11
  2
STDGX5
 10
72.3459956364118
 20
43.073623953047672
 30
0.0
 41
0.0000500000000017
 42
0.0000500000000017
 43
0.0000500000000017
  0
INSERT
  5
18E8
  8
11
  2
STDGX5
 10
71.926934514455425
 20
42.67382239167997
 30
0.0
 41
0.0000500000000017
 42
0.0000500000000017
 43
0.0000500000000017
  0
INSERT
  5
26EA
  8
0
  2
BATU
 10
0.0
 20
0.0
 30
0.0
 41
0.001
 42
0.001
 43
0.001
  0
POLYLINE
  5
377B
  8
0
 66
     1
 10
0.0
 20
0.0
 30
0.0
 70
     1
  0
VERTEX
  5
3938
  8
0
 10
45.092522711888193
 20
108.5
 30
0.0
  0
VERTEX
  5
3939
  8
0
 10
40.185045423776359
 20
100.0
 30
0.0
  0
VERTEX
  5
393A
  8
0
 10
45.092522711888158
 20
91.5
 30
0.0
  0
VERTEX
  5
393B
  8
0
 10
54.907477288111807
 20
91.5
 30
0.0
  0
VERTEX
  5
393C
  8
0
 10
59.814954576223641
 20
100.0
 30
0.0
  0
VERTEX
  5
393D
  8
0
 10
54.907477288111828
 20
108.5
 30
0.0
  0
SEQEND
  5
393E
  8
0
  0
LINE
  5
377C
  8
0
  6
CENTER
 62
     1
 10
50.0
 20
89.0
 30
0.0
 11
50.0
 21
111.0
 31
0.0
  0
LINE
  5
377D
  8
0
  6
CENTER
 62
     1
 10
37.298294077828217
 20
100.0
 30
0.0
 11
62.701705922171783
 21
100.0
 31
0.0
  0
CIRCLE
  5
377E
  8
0
  6
CONTINUOUS
 62
     7
 10
50.0
 20
100.0
 30
0.0
 40
7.8200000000000003
  0
CIRCLE
  5
377F
  8
0
  6
CONTINUOUS
 62
     7
 10
50.0
 20
100.0
 30
0.0
 40
5.0
  0
LINE
  5
37D3
  8
0
  6
CONTINUOUS
 62
     7
 10
54.907477288111807
 20
29.240810621445121
 30
0.0
 11
54.907477288111807
 21
25.759189378554879
 31
0.0
  0
LINE
  5
37D4
  8
0
  6
CONTINUOUS
 62
     7
 10
45.092522711888193
 20
29.240810621445121
 30
0.0
 11
45.092522711888193
 21
25.759189378554879
 31
0.0
  0
LINE
  5
37D5
  8
0
  6
CONTINUOUS
 62
     7
 10
40.18504542377633
 20
29.240810621445121
 30
0.0
 11
40.18504542377633
 21
25.759189378554879
 31
0.0
  0
LINE
  5
37D6
  8
0
  6
CONTINUOUS
 62
     7
 10
59.81495457622362
 20
29.240810621445121
 30
0.0
 11
59.81495457622362
 21
25.759189378554879
 31
0.0
  0
LINE
  5
37D7
  8
0
  6
CONTINUOUS
 62
     7
 10
42.18
 20
30.39259818304896
 30
0.0
 11
57.82
 21
30.39259818304896
 31
0.0
  0
LINE
  5
37D8
  8
0
  6
CONTINUOUS
 62
     7
 10
42.18
 20
30.39259818304896
 30
0.0
 11
40.18504542377633
 21
29.240810621445121
 31
0.0
  0
LINE
  5
37D9
  8
0
  6
CONTINUOUS
 62
     7
 10
59.81495457622362
 20
29.240810621445121
 30
0.0
 11
57.82
 21
30.39259818304896
 31
0.0
  0
LINE
  5
37DA
  8
0
  6
CONTINUOUS
 62
     7
 10
63.999999999999979
 20
29.240810621445121
 30
0.0
 11
63.999999999999979
 21
25.759189378554879
 31
0.0
  0
LINE
  5
37DB
  8
0
  6
CONTINUOUS
 62
     7
 10
80.999999999999986
 20
29.240810621445121
 30
0.0
 11
80.999999999999986
 21
25.759189378554879
 31
0.0
  0
LINE
  5
37DC
  8
0
  6
CONTINUOUS
 62
     7
 10
72.499999999999986
 20
29.240810621445121
 30
0.0
 11
72.499999999999986
 21
25.759189378554879
 31
0.0
  0
LINE
  5
37DD
  8
0
  6
CONTINUOUS
 62
     7
 10
64.679999999999993
 20
30.39259818304896
 30
0.0
 11
80.319999999999979
 21
30.39259818304896
 31
0.0
  0
LINE
  5
37DE
  8
0
  6
CONTINUOUS
 62
     7
 10
64.679999999999993
 20
30.39259818304896
 30
0.0
 11
63.999999999999979
 21
30.0
 31
0.0
  0
LINE
  5
37DF
  8
0
  6
CONTINUOUS
 62
     7
 10
80.999999999999986
 20
30.0
 30
0.0
 11
80.319999999999979
 21
30.39259818304896
 31
0.0
  0
POLYLINE
  5
37E0
  8
0
  6
CONTINUOUS
 62
     7
 66
     1
 10
0.0
 20
0.0
 30
0.0
  0
VERTEX
  5
393F
  8
0
  6
CONTINUOUS
 62
     7
 10
40.185045423776337
 20
29.240810621445181
 30
0.0
  0
VERTEX
  5
3940
  8
0
  6
CONTINUOUS
 62
     7
 10
40.340567534749063
 20
29.328433256148742
 30
0.0
  0
VERTEX
  5
3941
  8
0
  6
CONTINUOUS
 62
     7
 10
40.641214041450191
 20
29.48495806911405
 30
0.0
  0
VERTEX
  5
3942
  8
0
  6
CONTINUOUS
 62
     7
 10
40.929875906615997
 20
29.618133648494329
 30
0.0
  0
VERTEX
  5
3943
  8
0
  6
CONTINUOUS
 62
     7
 10
41.070357322333088
 20
29.676484717417171
 30
0.0
  0
VERTEX
  5
3944
  8
0
  6
CONTINUOUS
 62
     7
 10
41.208589067921721
 20
29.72958096653241
 30
0.0
  0
VERTEX
  5
3945
  8
0
  6
CONTINUOUS
 62
     7
 10
41.479186153900102
 20
29.820609578411219
 30
0.0
  0
VERTEX
  5
3946
  8
0
  6
CONTINUOUS
 62
     7
 10
41.74334025991633
 20
29.89225783619878
 30
0.0
  0
VERTEX
  5
3947
  8
0
  6
CONTINUOUS
 62
     7
 10
42.002601883093611
 20
29.945323485285371
 30
0.0
  0
VERTEX
  5
3948
  8
0
  6
CONTINUOUS
 62
     7
 10
42.25843081926034
 20
29.980386382557189
 30
0.0
  0
VERTEX
  5
3949
  8
0
  6
CONTINUOUS
 62
     7
 10
42.512224459767431
 20
29.99782457338836
 30
0.0
  0
VERTEX
  5
394A
  8
0
  6
CONTINUOUS
 62
     7
 10
42.638784067832241
 20
30.0
 30
0.0
  0
VERTEX
  5
394B
  8
0
  6
CONTINUOUS
 62
     7
 10
42.765343675897057
 20
29.99782457338836
 30
0.0
  0
VERTEX
  5
394C
  8
0
  6
CONTINUOUS
 62
     7
 10
43.019137316404183
 20
29.980386382557189
 30
0.0
  0
VERTEX
  5
394D
  8
0
  6
CONTINUOUS
 62
     7
 10
43.274966252570898
 20
29.945323485285371
 30
0.0
  0
VERTEX
  5
394E
  8
0
  6
CONTINUOUS
 62
     7
 10
43.534227875748179
 20
29.89225783619878
 30
0.0
  0
VERTEX
  5
394F
  8
0
  6
CONTINUOUS
 62
     7
 10
43.798381981764422
 20
29.820609578411219
 30
0.0
  0
VERTEX
  5
3950
  8
0
  6
CONTINUOUS
 62
     7
 10
44.068979067742802
 20
29.72958096653241
 30
0.0
  0
VERTEX
  5
3951
  8
0
  6
CONTINUOUS
 62
     7
 10
44.207210813331429
 20
29.676484717417171
 30
0.0
  0
VERTEX
  5
3952
  8
0
  6
CONTINUOUS
 62
     7
 10
44.347692229048519
 20
29.618133648494329
 30
0.0
  0
VERTEX
  5
3953
  8
0
  6
CONTINUOUS
 62
     7
 10
44.636354094214298
 20
29.48495806911405
 30
0.0
  0
VERTEX
  5
3954
  8
0
  6
CONTINUOUS
 62
     7
 10
44.937000600915447
 20
29.328433256148742
 30
0.0
  0
VERTEX
  5
3955
  8
0
  6
CONTINUOUS
 62
     7
 10
45.092522711888179
 20
29.240810621445181
 30
0.0
  0
SEQEND
  5
3956
  8
0
  6
CONTINUOUS
 62
     7
  0
POLYLINE
  5
37E1
  8
0
  6
CONTINUOUS
 62
     7
 66
     1
 10
0.0
 20
0.0
 30
0.0
  0
VERTEX
  5
3957
  8
0
  6
CONTINUOUS
 62
     7
 10
45.092522711888179
 20
29.240810621445181
 30
0.0
  0
VERTEX
  5
3958
  8
0
  6
CONTINUOUS
 62
     7
 10
45.403566933833567
 20
29.328433256148742
 30
0.0
  0
VERTEX
  5
3959
  8
0
  6
CONTINUOUS
 62
     7
 10
46.004859947235879
 20
29.48495806911405
 30
0.0
  0
VERTEX
  5
395A
  8
0
  6
CONTINUOUS
 62
     7
 10
46.582183677567471
 20
29.618133648494329
 30
0.0
  0
VERTEX
  5
395B
  8
0
  6
CONTINUOUS
 62
     7
 10
46.863146509001623
 20
29.676484717417171
 30
0.0
  0
VERTEX
  5
395C
  8
0
  6
CONTINUOUS
 62
     7
 10
47.139610000178898
 20
29.72958096653241
 30
0.0
  0
VERTEX
  5
395D
  8
0
  6
CONTINUOUS
 62
     7
 10
47.68080417213563
 20
29.820609578411219
 30
0.0
  0
VERTEX
  5
395E
  8
0
  6
CONTINUOUS
 62
     7
 10
48.209112384168108
 20
29.89225783619878
 30
0.0
  0
VERTEX
  5
395F
  8
0
  6
CONTINUOUS
 62
     7
 10
48.727635630522698
 20
29.945323485285371
 30
0.0
  0
VERTEX
  5
3960
  8
0
  6
CONTINUOUS
 62
     7
 10
49.239293502856142
 20
29.980386382557189
 30
0.0
  0
VERTEX
  5
3961
  8
0
  6
CONTINUOUS
 62
     7
 10
49.74688078387036
 20
29.99782457338836
 30
0.0
  0
VERTEX
  5
3962
  8
0
  6
CONTINUOUS
 62
     7
 10
49.999999999999993
 20
30.0
 30
0.0
  0
VERTEX
  5
3963
  8
0
  6
CONTINUOUS
 62
     7
 10
50.253119216129598
 20
29.99782457338836
 30
0.0
  0
VERTEX
  5
3964
  8
0
  6
CONTINUOUS
 62
     7
 10
50.760706497143801
 20
29.980386382557189
 30
0.0
  0
VERTEX
  5
3965
  8
0
  6
CONTINUOUS
 62
     7
 10
51.272364369477273
 20
29.945323485285371
 30
0.0
  0
VERTEX
  5
3966
  8
0
  6
CONTINUOUS
 62
     7
 10
51.790887615831863
 20
29.89225783619878
 30
0.0
  0
VERTEX
  5
3967
  8
0
  6
CONTINUOUS
 62
     7
 10
52.319195827864327
 20
29.820609578411219
 30
0.0
  0
VERTEX
  5
3968
  8
0
  6
CONTINUOUS
 62
     7
 10
52.860389999821031
 20
29.72958096653241
 30
0.0
  0
VERTEX
  5
3969
  8
0
  6
CONTINUOUS
 62
     7
 10
53.136853490998341
 20
29.676484717417171
 30
0.0
  0
VERTEX
  5
396A
  8
0
  6
CONTINUOUS
 62
     7
 10
53.4178163224325
 20
29.618133648494329
 30
0.0
  0
VERTEX
  5
396B
  8
0
  6
CONTINUOUS
 62
     7
 10
53.995140052764079
 20
29.48495806911405
 30
0.0
  0
VERTEX
  5
396C
  8
0
  6
CONTINUOUS
 62
     7
 10
54.596433066166398
 20
29.328433256148742
 30
0.0
  0
VERTEX
  5
396D
  8
0
  6
CONTINUOUS
 62
     7
 10
54.907477288111792
 20
29.240810621445181
 30
0.0
  0
SEQEND
  5
396E
  8
0
  6
CONTINUOUS
 62
     7
  0
POLYLINE
  5
37E2
  8
0
  6
CONTINUOUS
 62
     7
 66
     1
 10
0.0
 20
0.0
 30
0.0
  0
VERTEX
  5
396F
  8
0
  6
CONTINUOUS
 62
     7
 10
54.907477288111792
 20
29.240810621445181
 30
0.0
  0
VERTEX
  5
3970
  8
0
  6
CONTINUOUS
 62
     7
 10
55.062999399084511
 20
29.328433256148742
 30
0.0
  0
VERTEX
  5
3971
  8
0
  6
CONTINUOUS
 62
     7
 10
55.363645905785681
 20
29.48495806911405
 30
0.0
  0
VERTEX
  5
3972
  8
0
  6
CONTINUOUS
 62
     7
 10
55.652307770951452
 20
29.618133648494329
 30
0.0
  0
VERTEX
  5
3973
  8
0
  6
CONTINUOUS
 62
     7
 10
55.792789186668543
 20
29.676484717417171
 30
0.0
  0
VERTEX
  5
3974
  8
0
  6
CONTINUOUS
 62
     7
 10
55.931020932257162
 20
29.72958096653241
 30
0.0
  0
VERTEX
  5
3975
  8
0
  6
CONTINUOUS
 62
     7
 10
56.20161801823555
 20
29.820609578411219
 30
0.0
  0
VERTEX
  5
3976
  8
0
  6
CONTINUOUS
 62
     7
 10
56.465772124251778
 20
29.89225783619878
 30
0.0
  0
VERTEX
  5
3977
  8
0
  6
CONTINUOUS
 62
     7
 10
56.725033747429059
 20
29.945323485285371
 30
0.0
  0
VERTEX
  5
3978
  8
0
  6
CONTINUOUS
 62
     7
 10
56.980862683595781
 20
29.980386382557189
 30
0.0
  0
VERTEX
  5
3979
  8
0
  6
CONTINUOUS
 62
     7
 10
57.234656324102922
 20
29.99782457338836
 30
0.0
  0
VERTEX
  5
397A
  8
0
  6
CONTINUOUS
 62
     7
 10
57.361215932167717
 20
30.0
 30
0.0
  0
VERTEX
  5
397B
  8
0
  6
CONTINUOUS
 62
     7
 10
57.487775540232533
 20
29.99782457338836
 30
0.0
  0
VERTEX
  5
397C
  8
0
  6
CONTINUOUS
 62
     7
 10
57.741569180739631
 20
29.980386382557189
 30
0.0
  0
VERTEX
  5
397D
  8
0
  6
CONTINUOUS
 62
     7
 10
57.997398116906353
 20
29.945323485285371
 30
0.0
  0
VERTEX
  5
397E
  8
0
  6
CONTINUOUS
 62
     7
 10
58.256659740083627
 20
29.89225783619878
 30
0.0
  0
VERTEX
  5
397F
  8
0
  6
CONTINUOUS
 62
     7
 10
58.52081384609987
 20
29.820609578411219
 30
0.0
  0
VERTEX
  5
3980
  8
0
  6
CONTINUOUS
 62
     7
 10
58.79141093207825
 20
29.72958096653241
 30
0.0
  0
VERTEX
  5
3981
  8
0
  6
CONTINUOUS
 62
     7
 10
58.929642677666898
 20
29.676484717417171
 30
0.0
  0
VERTEX
  5
3982
  8
0
  6
CONTINUOUS
 62
     7
 10
59.07012409338396
 20
29.618133648494329
 30
0.0
  0
VERTEX
  5
3983
  8
0
  6
CONTINUOUS
 62
     7
 10
59.358785958549767
 20
29.48495806911405
 30
0.0
  0
VERTEX
  5
3984
  8
0
  6
CONTINUOUS
 62
     7
 10
59.65943246525093
 20
29.328433256148742
 30
0.0
  0
VERTEX
  5
3985
  8
0
  6
CONTINUOUS
 62
     7
 10
59.81495457622362
 20
29.240810621445181
 30
0.0
  0
SEQEND
  5
3986
  8
0
  6
CONTINUOUS
 62
     7
  0
POLYLINE
  5
37E3
  8
0
  6
CONTINUOUS
 62
     7
 66
     1
 10
0.0
 20
0.0
 30
0.0
  0
VERTEX
  5
3987
  8
0
  6
CONTINUOUS
 62
     7
 10
63.999999999999979
 20
29.240810621445181
 30
0.0
  0
VERTEX
  5
3988
  8
0
  6
CONTINUOUS
 62
     7
 10
64.269372197905071
 20
29.328433256148742
 30
0.0
  0
VERTEX
  5
3989
  8
0
  6
CONTINUOUS
 62
     7
 10
64.790107222629572
 20
29.48495806911405
 30
0.0
  0
VERTEX
  5
398A
  8
0
  6
CONTINUOUS
 62
     7
 10
65.290084239304335
 20
29.618133648494329
 30
0.0
  0
VERTEX
  5
398B
  8
0
  6
CONTINUOUS
 62
     7
 10
65.533405188845521
 20
29.676484717417171
 30
0.0
  0
VERTEX
  5
398C
  8
0
  6
CONTINUOUS
 62
     7
 10
65.772829595423971
 20
29.72958096653241
 30
0.0
  0
VERTEX
  5
398D
  8
0
  6
CONTINUOUS
 62
     7
 10
66.2415174967186
 20
29.820609578411219
 30
0.0
  0
VERTEX
  5
398E
  8
0
  6
CONTINUOUS
 62
     7
 10
66.699045829366653
 20
29.89225783619878
 30
0.0
  0
VERTEX
  5
398F
  8
0
  6
CONTINUOUS
 62
     7
 10
67.148100133162487
 20
29.945323485285371
 30
0.0
  0
VERTEX
  5
3990
  8
0
  6
CONTINUOUS
 62
     7
 10
67.591208848649543
 20
29.980386382557189
 30
0.0
  0
VERTEX
  5
3991
  8
0
  6
CONTINUOUS
 62
     7
 10
68.030792328645717
 20
29.99782457338836
 30
0.0
  0
VERTEX
  5
3992
  8
0
  6
CONTINUOUS
 62
     7
 10
68.249999999999986
 20
30.0
 30
0.0
  0
VERTEX
  5
3993
  8
0
  6
CONTINUOUS
 62
     7
 10
68.469207671354226
 20
29.99782457338836
 30
0.0
  0
VERTEX
  5
3994
  8
0
  6
CONTINUOUS
 62
     7
 10
68.908791151350414
 20
29.980386382557189
 30
0.0
  0
VERTEX
  5
3995
  8
0
  6
CONTINUOUS
 62
     7
 10
69.351899866837485
 20
29.945323485285371
 30
0.0
  0
VERTEX
  5
3996
  8
0
  6
CONTINUOUS
 62
     7
 10
69.800954170633304
 20
29.89225783619878
 30
0.0
  0
VERTEX
  5
3997
  8
0
  6
CONTINUOUS
 62
     7
 10
70.258482503281371
 20
29.820609578411219
 30
0.0
  0
VERTEX
  5
3998
  8
0
  6
CONTINUOUS
 62
     7
 10
70.727170404576
 20
29.72958096653241
 30
0.0
  0
VERTEX
  5
3999
  8
0
  6
CONTINUOUS
 62
     7
 10
70.966594811154451
 20
29.676484717417171
 30
0.0
  0
VERTEX
  5
399A
  8
0
  6
CONTINUOUS
 62
     7
 10
71.209915760695637
 20
29.618133648494329
 30
0.0
  0
VERTEX
  5
399B
  8
0
  6
CONTINUOUS
 62
     7
 10
71.709892777370399
 20
29.48495806911405
 30
0.0
  0
VERTEX
  5
399C
  8
0
  6
CONTINUOUS
 62
     7
 10
72.230627802094901
 20
29.328433256148742
 30
0.0
  0
VERTEX
  5
399D
  8
0
  6
CONTINUOUS
 62
     7
 10
72.499999999999986
 20
29.240810621445181
 30
0.0
  0
SEQEND
  5
399E
  8
0
  6
CONTINUOUS
 62
     7
  0
POLYLINE
  5
37E4
  8
0
  6
CONTINUOUS
 62
     7
 66
     1
 10
0.0
 20
0.0
 30
0.0
  0
VERTEX
  5
399F
  8
0
  6
CONTINUOUS
 62
     7
 10
72.499999999999986
 20
29.240810621445181
 30
0.0
  0
VERTEX
  5
39A0
  8
0
  6
CONTINUOUS
 62
     7
 10
72.769372197905071
 20
29.328433256148742
 30
0.0
  0
VERTEX
  5
39A1
  8
0
  6
CONTINUOUS
 62
     7
 10
73.290107222629572
 20
29.48495806911405
 30
0.0
  0
VERTEX
  5
39A2
  8
0
  6
CONTINUOUS
 62
     7
 10
73.790084239304335
 20
29.618133648494329
 30
0.0
  0
VERTEX
  5
39A3
  8
0
  6
CONTINUOUS
 62
     7
 10
74.033405188845521
 20
29.676484717417171
 30
0.0
  0
VERTEX
  5
39A4
  8
0
  6
CONTINUOUS
 62
     7
 10
74.272829595423971
 20
29.72958096653241
 30
0.0
  0
VERTEX
  5
39A5
  8
0
  6
CONTINUOUS
 62
     7
 10
74.7415174967186
 20
29.820609578411219
 30
0.0
  0
VERTEX
  5
39A6
  8
0
  6
CONTINUOUS
 62
     7
 10
75.199045829366653
 20
29.89225783619878
 30
0.0
  0
VERTEX
  5
39A7
  8
0
  6
CONTINUOUS
 62
     7
 10
75.648100133162487
 20
29.945323485285371
 30
0.0
  0
VERTEX
  5
39A8
  8
0
  6
CONTINUOUS
 62
     7
 10
76.091208848649543
 20
29.980386382557189
 30
0.0
  0
VERTEX
  5
39A9
  8
0
  6
CONTINUOUS
 62
     7
 10
76.530792328645745
 20
29.99782457338836
 30
0.0
  0
VERTEX
  5
39AA
  8
0
  6
CONTINUOUS
 62
     7
 10
76.749999999999986
 20
30.0
 30
0.0
  0
VERTEX
  5
39AB
  8
0
  6
CONTINUOUS
 62
     7
 10
76.969207671354255
 20
29.99782457338836
 30
0.0
  0
VERTEX
  5
39AC
  8
0
  6
CONTINUOUS
 62
     7
 10
77.408791151350428
 20
29.980386382557189
 30
0.0
  0
VERTEX
  5
39AD
  8
0
  6
CONTINUOUS
 62
     7
 10
77.851899866837485
 20
29.945323485285371
 30
0.0
  0
VERTEX
  5
39AE
  8
0
  6
CONTINUOUS
 62
     7
 10
78.300954170633318
 20
29.89225783619878
 30
0.0
  0
VERTEX
  5
39AF
  8
0
  6
CONTINUOUS
 62
     7
 10
78.758482503281371
 20
29.820609578411219
 30
0.0
  0
VERTEX
  5
39B0
  8
0
  6
CONTINUOUS
 62
     7
 10
79.227170404576
 20
29.72958096653241
 30
0.0
  0
VERTEX
  5
39B1
  8
0
  6
CONTINUOUS
 62
     7
 10
79.466594811154479
 20
29.676484717417171
 30
0.0
  0
VERTEX
  5
39B2
  8
0
  6
CONTINUOUS
 62
     7
 10
79.709915760695637
 20
29.618133648494329
 30
0.0
  0
VERTEX
  5
39B3
  8
0
  6
CONTINUOUS
 62
     7
 10
80.209892777370399
 20
29.48495806911405
 30
0.0
  0
VERTEX
  5
39B4
  8
0
  6
CONTINUOUS
 62
     7
 10
80.730627802094901
 20
29.328433256148742
 30
0.0
  0
VERTEX
  5
39B5
  8
0
  6
CONTINUOUS
 62
     7
 10
80.999999999999986
 20
29.240810621445181
 30
0.0
  0
SEQEND
  5
39B6
  8
0
  6
CONTINUOUS
 62
     7
  0
POLYLINE
  5
37E5
  8
0
  6
CONTINUOUS
 62
     7
 66
     1
 10
0.0
 20
0.0
 30
0.0
  0
VERTEX
  5
39B7
  8
0
  6
CONTINUOUS
 62
     7
 10
54.907477288111792
 20
25.759189378554819
 30
0.0
  0
VERTEX
  5
39B8
  8
0
  6
CONTINUOUS
 62
     7
 10
54.760689959831417
 20
25.717294378176518
 30
0.0
  0
VERTEX
  5
39B9
  8
0
  6
CONTINUOUS
 62
     7
 10
54.470443189580273
 20
25.63733597328434
 30
0.0
  0
VERTEX
  5
39BA
  8
0
  6
CONTINUOUS
 62
     7
 10
54.184302706292598
 20
25.562391361678809
 30
0.0
  0
VERTEX
  5
39BB
  8
0
  6
CONTINUOUS
 62
     7
 10
54.042650940860007
 20
25.526766806198388
 30
0.0
  0
VERTEX
  5
39BC
  8
0
  6
CONTINUOUS
 62
     7
 10
53.901881377845918
 20
25.492358458982149
 30
0.0
  0
VERTEX
  5
39BD
  8
0
  6
CONTINUOUS
 62
     7
 10
53.622801867029622
 20
25.42714838972017
 30
0.0
  0
VERTEX
  5
39BE
  8
0
  6
CONTINUOUS
 62
     7
 10
53.34669494857966
 20
25.366685112334611
 30
0.0
  0
VERTEX
  5
39BF
  8
0
  6
CONTINUOUS
 62
     7
 10
53.073197874945841
 20
25.310905129795461
 30
0.0
  0
VERTEX
  5
39C0
  8
0
  6
CONTINUOUS
 62
     7
 10
52.801952775537792
 20
25.259757283569741
 30
0.0
  0
VERTEX
  5
39C1
  8
0
  6
CONTINUOUS
 62
     7
 10
52.532605074489808
 20
25.21320262974195
 30
0.0
  0
VERTEX
  5
39C2
  8
0
  6
CONTINUOUS
 62
     7
 10
52.398532455972919
 20
25.19163890793482
 30
0.0
  0
VERTEX
  5
39C3
  8
0
  6
CONTINUOUS
 62
     7
 10
52.264801912037917
 20
25.171214397114799
 30
0.0
  0
VERTEX
  5
39C4
  8
0
  6
CONTINUOUS
 62
     7
 10
51.998190554409959
 20
25.133778028167171
 30
0.0
  0
VERTEX
  5
39C5
  8
0
  6
CONTINUOUS
 62
     7
 10
51.73241677668404
 20
25.10089130482465
 30
0.0
  0
VERTEX
  5
39C6
  8
0
  6
CONTINUOUS
 62
     7
 10
51.46712320235666
 20
25.072564562143839
 30
0.0
  0
VERTEX
  5
39C7
  8
0
  6
CONTINUOUS
 62
     7
 10
51.20194758235548
 20
25.048820994233271
 30
0.0
  0
VERTEX
  5
39C8
  8
0
  6
CONTINUOUS
 62
     7
 10
50.936520994903567
 20
25.029697058073619
 30
0.0
  0
VERTEX
  5
39C9
  8
0
  6
CONTINUOUS
 62
     7
 10
50.803596010680643
 20
25.021882594211721
 30
0.0
  0
VERTEX
  5
39CA
  8
0
  6
CONTINUOUS
 62
     7
 10
50.670465945948031
 20
25.015242982384851
 30
0.0
  0
VERTEX
  5
39CB
  8
0
  6
CONTINUOUS
 62
     7
 10
50.4033943477598
 20
25.00552339035357
 30
0.0
  0
VERTEX
  5
39CC
  8
0
  6
CONTINUOUS
 62
     7
 10
50.134905350720842
 20
25.000618046932569
 30
0.0
  0
VERTEX
  5
39CD
  8
0
  6
CONTINUOUS
 62
     7
 10
49.999999999999993
 20
25.0
 30
0.0
  0
SEQEND
  5
39CE
  8
0
  6
CONTINUOUS
 62
     7
  0
POLYLINE
  5
37E6
  8
0
  6
CONTINUOUS
 62
     7
 66
     1
 10
0.0
 20
0.0
 30
0.0
  0
VERTEX
  5
39CF
  8
0
  6
CONTINUOUS
 62
     7
 10
49.999999999999993
 20
25.0
 30
0.0
  0
VERTEX
  5
39D0
  8
0
  6
CONTINUOUS
 62
     7
 10
49.865094649279122
 20
25.000618046932569
 30
0.0
  0
VERTEX
  5
39D1
  8
0
  6
CONTINUOUS
 62
     7
 10
49.596605652240171
 20
25.00552339035357
 30
0.0
  0
VERTEX
  5
39D2
  8
0
  6
CONTINUOUS
 62
     7
 10
49.329534054051933
 20
25.015242982384851
 30
0.0
  0
VERTEX
  5
39D3
  8
0
  6
CONTINUOUS
 62
     7
 10
49.196403989319329
 20
25.021882594211721
 30
0.0
  0
VERTEX
  5
39D4
  8
0
  6
CONTINUOUS
 62
     7
 10
49.063479005096397
 20
25.029697058073619
 30
0.0
  0
VERTEX
  5
39D5
  8
0
  6
CONTINUOUS
 62
     7
 10
48.798052417644477
 20
25.048820994233271
 30
0.0
  0
VERTEX
  5
39D6
  8
0
  6
CONTINUOUS
 62
     7
 10
48.532876797643311
 20
25.072564562143839
 30
0.0
  0
VERTEX
  5
39D7
  8
0
  6
CONTINUOUS
 62
     7
 10
48.267583223315917
 20
25.10089130482465
 30
0.0
  0
VERTEX
  5
39D8
  8
0
  6
CONTINUOUS
 62
     7
 10
48.001809445590013
 20
25.133778028167171
 30
0.0
  0
VERTEX
  5
39D9
  8
0
  6
CONTINUOUS
 62
     7
 10
47.73519808796204
 20
25.171214397114799
 30
0.0
  0
VERTEX
  5
39DA
  8
0
  6
CONTINUOUS
 62
     7
 10
47.601467544027038
 20
25.19163890793482
 30
0.0
  0
VERTEX
  5
39DB
  8
0
  6
CONTINUOUS
 62
     7
 10
47.467394925510163
 20
25.21320262974195
 30
0.0
  0
VERTEX
  5
39DC
  8
0
  6
CONTINUOUS
 62
     7
 10
47.198047224462137
 20
25.259757283569741
 30
0.0
  0
VERTEX
  5
39DD
  8
0
  6
CONTINUOUS
 62
     7
 10
46.926802125054117
 20
25.310905129795461
 30
0.0
  0
VERTEX
  5
39DE
  8
0
  6
CONTINUOUS
 62
     7
 10
46.653305051420297
 20
25.366685112334611
 30
0.0
  0
VERTEX
  5
39DF
  8
0
  6
CONTINUOUS
 62
     7
 10
46.377198132970342
 20
25.42714838972017
 30
0.0
  0
VERTEX
  5
39E0
  8
0
  6
CONTINUOUS
 62
     7
 10
46.09811862215404
 20
25.492358458982149
 30
0.0
  0
VERTEX
  5
39E1
  8
0
  6
CONTINUOUS
 62
     7
 10
45.95734905913995
 20
25.526766806198388
 30
0.0
  0
VERTEX
  5
39E2
  8
0
  6
CONTINUOUS
 62
     7
 10
45.815697293707373
 20
25.562391361678809
 30
0.0
  0
VERTEX
  5
39E3
  8
0
  6
CONTINUOUS
 62
     7
 10
45.529556810419692
 20
25.63733597328434
 30
0.0
  0
VERTEX
  5
39E4
  8
0
  6
CONTINUOUS
 62
     7
 10
45.239310040168512
 20
25.717294378176518
 30
0.0
  0
VERTEX
  5
39E5
  8
0
  6
CONTINUOUS
 62
     7
 10
45.092522711888179
 20
25.759189378554819
 30
0.0
  0
SEQEND
  5
39E6
  8
0
  6
CONTINUOUS
 62
     7
  0
POLYLINE
  5
37E7
  8
0
  6
CONTINUOUS
 62
     7
 66
     1
 10
0.0
 20
0.0
 30
0.0
  0
VERTEX
  5
39E7
  8
0
  6
CONTINUOUS
 62
     7
 10
45.092522711888179
 20
25.759189378554819
 30
0.0
  0
VERTEX
  5
39E8
  8
0
  6
CONTINUOUS
 62
     7
 10
45.019129047747967
 20
25.717294378176518
 30
0.0
  0
VERTEX
  5
39E9
  8
0
  6
CONTINUOUS
 62
     7
 10
44.874005662622388
 20
25.63733597328434
 30
0.0
  0
VERTEX
  5
39EA
  8
0
  6
CONTINUOUS
 62
     7
 10
44.730935420978547
 20
25.562391361678809
 30
0.0
  0
VERTEX
  5
39EB
  8
0
  6
CONTINUOUS
 62
     7
 10
44.660109538262262
 20
25.526766806198388
 30
0.0
  0
VERTEX
  5
39EC
  8
0
  6
CONTINUOUS
 62
     7
 10
44.589724756755217
 20
25.492358458982149
 30
0.0
  0
VERTEX
  5
39ED
  8
0
  6
CONTINUOUS
 62
     7
 10
44.450185001347073
 20
25.42714838972017
 30
0.0
  0
VERTEX
  5
39EE
  8
0
  6
CONTINUOUS
 62
     7
 10
44.312131542122081
 20
25.366685112334611
 30
0.0
  0
VERTEX
  5
39EF
  8
0
  6
CONTINUOUS
 62
     7
 10
44.175383005305193
 20
25.310905129795461
 30
0.0
  0
VERTEX
  5
39F0
  8
0
  6
CONTINUOUS
 62
     7
 10
44.039760455601183
 20
25.259757283569741
 30
0.0
  0
VERTEX
  5
39F1
  8
0
  6
CONTINUOUS
 62
     7
 10
43.905086605077152
 20
25.21320262974195
 30
0.0
  0
VERTEX
  5
39F2
  8
0
  6
CONTINUOUS
 62
     7
 10
43.838050295818739
 20
25.19163890793482
 30
0.0
  0
VERTEX
  5
39F3
  8
0
  6
CONTINUOUS
 62
     7
 10
43.771185023851231
 20
25.171214397114799
 30
0.0
  0
VERTEX
  5
39F4
  8
0
  6
CONTINUOUS
 62
     7
 10
43.637879345037263
 20
25.133778028167171
 30
0.0
  0
VERTEX
  5
39F5
  8
0
  6
CONTINUOUS
 62
     7
 10
43.504992456174293
 20
25.10089130482465
 30
0.0
  0
VERTEX
  5
39F6
  8
0
  6
CONTINUOUS
 62
     7
 10
43.372345669010592
 20
25.072564562143839
 30
0.0
  0
VERTEX
  5
39F7
  8
0
  6
CONTINUOUS
 62
     7
 10
43.239757859009998
 20
25.048820994233271
 30
0.0
  0
VERTEX
  5
39F8
  8
0
  6
CONTINUOUS
 62
     7
 10
43.107044565284049
 20
25.029697058073619
 30
0.0
  0
VERTEX
  5
39F9
  8
0
  6
CONTINUOUS
 62
     7
 10
43.04058207317258
 20
25.021882594211721
 30
0.0
  0
VERTEX
  5
39FA
  8
0
  6
CONTINUOUS
 62
     7
 10
42.974017040806288
 20
25.015242982384851
 30
0.0
  0
VERTEX
  5
39FB
  8
0
  6
CONTINUOUS
 62
     7
 10
42.840481241712162
 20
25.00552339035357
 30
0.0
  0
VERTEX
  5
39FC
  8
0
  6
CONTINUOUS
 62
     7
 10
42.70623674319269
 20
25.000618046932569
 30
0.0
  0
VERTEX
  5
39FD
  8
0
  6
CONTINUOUS
 62
     7
 10
42.638784067832241
 20
25.0
 30
0.0
  0
SEQEND
  5
39FE
  8
0
  6
CONTINUOUS
 62
     7
  0
POLYLINE
  5
37E8
  8
0
  6
CONTINUOUS
 62
     7
 66
     1
 10
0.0
 20
0.0
 30
0.0
  0
VERTEX
  5
39FF
  8
0
  6
CONTINUOUS
 62
     7
 10
42.638784067832241
 20
25.0
 30
0.0
  0
VERTEX
  5
3A00
  8
0
  6
CONTINUOUS
 62
     7
 10
42.571331392471834
 20
25.000618046932569
 30
0.0
  0
VERTEX
  5
3A01
  8
0
  6
CONTINUOUS
 62
     7
 10
42.437086893952348
 20
25.00552339035357
 30
0.0
  0
VERTEX
  5
3A02
  8
0
  6
CONTINUOUS
 62
     7
 10
42.303551094858229
 20
25.015242982384851
 30
0.0
  0
VERTEX
  5
3A03
  8
0
  6
CONTINUOUS
 62
     7
 10
42.23698606249193
 20
25.021882594211721
 30
0.0
  0
VERTEX
  5
3A04
  8
0
  6
CONTINUOUS
 62
     7
 10
42.17052357038046
 20
25.029697058073619
 30
0.0
  0
VERTEX
  5
3A05
  8
0
  6
CONTINUOUS
 62
     7
 10
42.03781027665449
 20
25.048820994233271
 30
0.0
  0
VERTEX
  5
3A06
  8
0
  6
CONTINUOUS
 62
     7
 10
41.905222466653903
 20
25.072564562143839
 30
0.0
  0
VERTEX
  5
3A07
  8
0
  6
CONTINUOUS
 62
     7
 10
41.772575679490217
 20
25.10089130482465
 30
0.0
  0
VERTEX
  5
3A08
  8
0
  6
CONTINUOUS
 62
     7
 10
41.639688790627261
 20
25.133778028167171
 30
0.0
  0
VERTEX
  5
3A09
  8
0
  6
CONTINUOUS
 62
     7
 10
41.506383111813292
 20
25.171214397114799
 30
0.0
  0
VERTEX
  5
3A0A
  8
0
  6
CONTINUOUS
 62
     7
 10
41.439517839845777
 20
25.19163890793482
 30
0.0
  0
VERTEX
  5
3A0B
  8
0
  6
CONTINUOUS
 62
     7
 10
41.372481530587343
 20
25.21320262974195
 30
0.0
  0
VERTEX
  5
3A0C
  8
0
  6
CONTINUOUS
 62
     7
 10
41.237807680063341
 20
25.259757283569741
 30
0.0
  0
VERTEX
  5
3A0D
  8
0
  6
CONTINUOUS
 62
     7
 10
41.102185130359331
 20
25.310905129795461
 30
0.0
  0
VERTEX
  5
3A0E
  8
0
  6
CONTINUOUS
 62
     7
 10
40.965436593542428
 20
25.366685112334611
 30
0.0
  0
VERTEX
  5
3A0F
  8
0
  6
CONTINUOUS
 62
     7
 10
40.827383134317422
 20
25.42714838972017
 30
0.0
  0
VERTEX
  5
3A10
  8
0
  6
CONTINUOUS
 62
     7
 10
40.687843378909271
 20
25.492358458982149
 30
0.0
  0
VERTEX
  5
3A11
  8
0
  6
CONTINUOUS
 62
     7
 10
40.617458597402262
 20
25.526766806198388
 30
0.0
  0
VERTEX
  5
3A12
  8
0
  6
CONTINUOUS
 62
     7
 10
40.546632714685927
 20
25.562391361678809
 30
0.0
  0
VERTEX
  5
3A13
  8
0
  6
CONTINUOUS
 62
     7
 10
40.403562473042101
 20
25.63733597328434
 30
0.0
  0
VERTEX
  5
3A14
  8
0
  6
CONTINUOUS
 62
     7
 10
40.258439087916521
 20
25.717294378176518
 30
0.0
  0
VERTEX
  5
3A15
  8
0
  6
CONTINUOUS
 62
     7
 10
40.185045423776337
 20
25.759189378554819
 30
0.0
  0
SEQEND
  5
3A16
  8
0
  6
CONTINUOUS
 62
     7
  0
POLYLINE
  5
37E9
  8
0
  6
CONTINUOUS
 62
     7
 66
     1
 10
0.0
 20
0.0
 30
0.0
  0
VERTEX
  5
3A17
  8
0
  6
CONTINUOUS
 62
     7
 10
57.361215932167717
 20
25.0
 30
0.0
  0
VERTEX
  5
3A18
  8
0
  6
CONTINUOUS
 62
     7
 10
57.293763256807281
 20
25.000618046932569
 30
0.0
  0
VERTEX
  5
3A19
  8
0
  6
CONTINUOUS
 62
     7
 10
57.159518758287803
 20
25.00552339035357
 30
0.0
  0
VERTEX
  5
3A1A
  8
0
  6
CONTINUOUS
 62
     7
 10
57.025982959193691
 20
25.015242982384851
 30
0.0
  0
VERTEX
  5
3A1B
  8
0
  6
CONTINUOUS
 62
     7
 10
56.959417926827378
 20
25.021882594211721
 30
0.0
  0
VERTEX
  5
3A1C
  8
0
  6
CONTINUOUS
 62
     7
 10
56.892955434715908
 20
25.029697058073619
 30
0.0
  0
VERTEX
  5
3A1D
  8
0
  6
CONTINUOUS
 62
     7
 10
56.76024214098998
 20
25.048820994233271
 30
0.0
  0
VERTEX
  5
3A1E
  8
0
  6
CONTINUOUS
 62
     7
 10
56.627654330989387
 20
25.072564562143839
 30
0.0
  0
VERTEX
  5
3A1F
  8
0
  6
CONTINUOUS
 62
     7
 10
56.495007543825679
 20
25.10089130482465
 30
0.0
  0
VERTEX
  5
3A20
  8
0
  6
CONTINUOUS
 62
     7
 10
56.36212065496273
 20
25.133778028167171
 30
0.0
  0
VERTEX
  5
3A21
  8
0
  6
CONTINUOUS
 62
     7
 10
56.22881497614874
 20
25.171214397114799
 30
0.0
  0
VERTEX
  5
3A22
  8
0
  6
CONTINUOUS
 62
     7
 10
56.161949704181247
 20
25.19163890793482
 30
0.0
  0
VERTEX
  5
3A23
  8
0
  6
CONTINUOUS
 62
     7
 10
56.094913394922813
 20
25.21320262974189
 30
0.0
  0
VERTEX
  5
3A24
  8
0
  6
CONTINUOUS
 62
     7
 10
55.960239544398817
 20
25.259757283569741
 30
0.0
  0
VERTEX
  5
3A25
  8
0
  6
CONTINUOUS
 62
     7
 10
55.824616994694779
 20
25.310905129795461
 30
0.0
  0
VERTEX
  5
3A26
  8
0
  6
CONTINUOUS
 62
     7
 10
55.687868457877883
 20
25.366685112334611
 30
0.0
  0
VERTEX
  5
3A27
  8
0
  6
CONTINUOUS
 62
     7
 10
55.549814998652913
 20
25.42714838972017
 30
0.0
  0
VERTEX
  5
3A28
  8
0
  6
CONTINUOUS
 62
     7
 10
55.410275243244747
 20
25.492358458982149
 30
0.0
  0
VERTEX
  5
3A29
  8
0
  6
CONTINUOUS
 62
     7
 10
55.33989046173771
 20
25.526766806198388
 30
0.0
  0
VERTEX
  5
3A2A
  8
0
  6
CONTINUOUS
 62
     7
 10
55.269064579021418
 20
25.562391361678809
 30
0.0
  0
VERTEX
  5
3A2B
  8
0
  6
CONTINUOUS
 62
     7
 10
55.125994337377541
 20
25.63733597328434
 30
0.0
  0
VERTEX
  5
3A2C
  8
0
  6
CONTINUOUS
 62
     7
 10
54.980870952251983
 20
25.717294378176518
 30
0.0
  0
VERTEX
  5
3A2D
  8
0
  6
CONTINUOUS
 62
     7
 10
54.907477288111792
 20
25.759189378554819
 30
0.0
  0
SEQEND
  5
3A2E
  8
0
  6
CONTINUOUS
 62
     7
  0
POLYLINE
  5
37EA
  8
0
  6
CONTINUOUS
 62
     7
 66
     1
 10
0.0
 20
0.0
 30
0.0
  0
VERTEX
  5
3A2F
  8
0
  6
CONTINUOUS
 62
     7
 10
59.81495457622362
 20
25.759189378554819
 30
0.0
  0
VERTEX
  5
3A30
  8
0
  6
CONTINUOUS
 62
     7
 10
59.741560912083443
 20
25.717294378176518
 30
0.0
  0
VERTEX
  5
3A31
  8
0
  6
CONTINUOUS
 62
     7
 10
59.596437526957871
 20
25.63733597328434
 30
0.0
  0
VERTEX
  5
3A32
  8
0
  6
CONTINUOUS
 62
     7
 10
59.45336728531403
 20
25.562391361678809
 30
0.0
  0
VERTEX
  5
3A33
  8
0
  6
CONTINUOUS
 62
     7
 10
59.382541402597738
 20
25.526766806198388
 30
0.0
  0
VERTEX
  5
3A34
  8
0
  6
CONTINUOUS
 62
     7
 10
59.312156621090693
 20
25.492358458982149
 30
0.0
  0
VERTEX
  5
3A35
  8
0
  6
CONTINUOUS
 62
     7
 10
59.172616865682542
 20
25.42714838972017
 30
0.0
  0
VERTEX
  5
3A36
  8
0
  6
CONTINUOUS
 62
     7
 10
59.034563406457529
 20
25.366685112334611
 30
0.0
  0
VERTEX
  5
3A37
  8
0
  6
CONTINUOUS
 62
     7
 10
58.897814869640641
 20
25.310905129795461
 30
0.0
  0
VERTEX
  5
3A38
  8
0
  6
CONTINUOUS
 62
     7
 10
58.762192319936631
 20
25.259757283569741
 30
0.0
  0
VERTEX
  5
3A39
  8
0
  6
CONTINUOUS
 62
     7
 10
58.627518469412607
 20
25.21320262974189
 30
0.0
  0
VERTEX
  5
3A3A
  8
0
  6
CONTINUOUS
 62
     7
 10
58.560482160154201
 20
25.19163890793482
 30
0.0
  0
VERTEX
  5
3A3B
  8
0
  6
CONTINUOUS
 62
     7
 10
58.493616888186672
 20
25.171214397114799
 30
0.0
  0
VERTEX
  5
3A3C
  8
0
  6
CONTINUOUS
 62
     7
 10
58.360311209372711
 20
25.133778028167171
 30
0.0
  0
VERTEX
  5
3A3D
  8
0
  6
CONTINUOUS
 62
     7
 10
58.227424320509741
 20
25.10089130482465
 30
0.0
  0
VERTEX
  5
3A3E
  8
0
  6
CONTINUOUS
 62
     7
 10
58.094777533346033
 20
25.072564562143839
 30
0.0
  0
VERTEX
  5
3A3F
  8
0
  6
CONTINUOUS
 62
     7
 10
57.962189723345439
 20
25.048820994233271
 30
0.0
  0
VERTEX
  5
3A40
  8
0
  6
CONTINUOUS
 62
     7
 10
57.829476429619497
 20
25.029697058073619
 30
0.0
  0
VERTEX
  5
3A41
  8
0
  6
CONTINUOUS
 62
     7
 10
57.763013937508028
 20
25.021882594211721
 30
0.0
  0
VERTEX
  5
3A42
  8
0
  6
CONTINUOUS
 62
     7
 10
57.696448905141729
 20
25.015242982384851
 30
0.0
  0
VERTEX
  5
3A43
  8
0
  6
CONTINUOUS
 62
     7
 10
57.562913106047617
 20
25.00552339035357
 30
0.0
  0
VERTEX
  5
3A44
  8
0
  6
CONTINUOUS
 62
     7
 10
57.428668607528138
 20
25.000618046932569
 30
0.0
  0
VERTEX
  5
3A45
  8
0
  6
CONTINUOUS
 62
     7
 10
57.361215932167717
 20
25.0
 30
0.0
  0
SEQEND
  5
3A46
  8
0
  6
CONTINUOUS
 62
     7
  0
LINE
  5
37EB
  8
0
  6
CONTINUOUS
 62
     7
 10
41.5
 20
25.0
 30
0.0
 11
58.5
 21
25.0
 31
0.0
  0
LINE
  5
37EC
  8
0
  6
CONTINUOUS
 62
     7
 10
58.5
 20
25.0
 30
0.0
 11
59.81495457622362
 21
25.759189378554819
 31
0.0
  0
LINE
  5
37ED
  8
0
  6
CONTINUOUS
 62
     7
 10
40.18504542377633
 20
25.759189378554819
 30
0.0
 11
41.5
 21
25.0
 31
0.0
  0
POLYLINE
  5
37EE
  8
0
  6
CONTINUOUS
 62
     7
 66
     1
 10
0.0
 20
0.0
 30
0.0
  0
VERTEX
  5
3A47
  8
0
  6
CONTINUOUS
 62
     7
 10
63.999999999999979
 20
25.759189378554819
 30
0.0
  0
VERTEX
  5
3A48
  8
0
  6
CONTINUOUS
 62
     7
 10
63.999999999999979
 20
25.717294378176518
 30
0.0
  0
VERTEX
  5
3A49
  8
0
  6
CONTINUOUS
 62
     7
 10
63.999999999999979
 20
25.63733597328434
 30
0.0
  0
VERTEX
  5
3A4A
  8
0
  6
CONTINUOUS
 62
     7
 10
63.999999999999979
 20
25.562391361678809
 30
0.0
  0
VERTEX
  5
3A4B
  8
0
  6
CONTINUOUS
 62
     7
 10
63.999999999999979
 20
25.526766806198388
 30
0.0
  0
VERTEX
  5
3A4C
  8
0
  6
CONTINUOUS
 62
     7
 10
63.999999999999979
 20
25.492358458982149
 30
0.0
  0
VERTEX
  5
3A4D
  8
0
  6
CONTINUOUS
 62
     7
 10
63.999999999999979
 20
25.42714838972017
 30
0.0
  0
VERTEX
  5
3A4E
  8
0
  6
CONTINUOUS
 62
     7
 10
63.999999999999979
 20
25.366685112334611
 30
0.0
  0
VERTEX
  5
3A4F
  8
0
  6
CONTINUOUS
 62
     7
 10
63.999999999999979
 20
25.310905129795461
 30
0.0
  0
VERTEX
  5
3A50
  8
0
  6
CONTINUOUS
 62
     7
 10
63.999999999999979
 20
25.259757283569741
 30
0.0
  0
VERTEX
  5
3A51
  8
0
  6
CONTINUOUS
 62
     7
 10
63.999999999999979
 20
25.21320262974195
 30
0.0
  0
VERTEX
  5
3A52
  8
0
  6
CONTINUOUS
 62
     7
 10
63.999999999999979
 20
25.19163890793482
 30
0.0
  0
VERTEX
  5
3A53
  8
0
  6
CONTINUOUS
 62
     7
 10
63.999999999999979
 20
25.171214397114799
 30
0.0
  0
VERTEX
  5
3A54
  8
0
  6
CONTINUOUS
 62
     7
 10
63.999999999999979
 20
25.133778028167171
 30
0.0
  0
VERTEX
  5
3A55
  8
0
  6
CONTINUOUS
 62
     7
 10
63.999999999999979
 20
25.10089130482465
 30
0.0
  0
VERTEX
  5
3A56
  8
0
  6
CONTINUOUS
 62
     7
 10
63.999999999999979
 20
25.072564562143839
 30
0.0
  0
VERTEX
  5
3A57
  8
0
  6
CONTINUOUS
 62
     7
 10
63.999999999999979
 20
25.048820994233271
 30
0.0
  0
VERTEX
  5
3A58
  8
0
  6
CONTINUOUS
 62
     7
 10
63.999999999999979
 20
25.029697058073619
 30
0.0
  0
VERTEX
  5
3A59
  8
0
  6
CONTINUOUS
 62
     7
 10
63.999999999999979
 20
25.021882594211721
 30
0.0
  0
VERTEX
  5
3A5A
  8
0
  6
CONTINUOUS
 62
     7
 10
63.999999999999979
 20
25.015242982384851
 30
0.0
  0
VERTEX
  5
3A5B
  8
0
  6
CONTINUOUS
 62
     7
 10
63.999999999999979
 20
25.00552339035357
 30
0.0
  0
VERTEX
  5
3A5C
  8
0
  6
CONTINUOUS
 62
     7
 10
63.999999999999979
 20
25.000618046932569
 30
0.0
  0
VERTEX
  5
3A5D
  8
0
  6
CONTINUOUS
 62
     7
 10
63.999999999999979
 20
25.0
 30
0.0
  0
SEQEND
  5
3A5E
  8
0
  6
CONTINUOUS
 62
     7
  0
POLYLINE
  5
37EF
  8
0
  6
CONTINUOUS
 62
     7
 66
     1
 10
0.0
 20
0.0
 30
0.0
  0
VERTEX
  5
3A5F
  8
0
  6
CONTINUOUS
 62
     7
 10
80.999999999999986
 20
25.0
 30
0.0
  0
VERTEX
  5
3A60
  8
0
  6
CONTINUOUS
 62
     7
 10
80.999999999999986
 20
25.000618046932569
 30
0.0
  0
VERTEX
  5
3A61
  8
0
  6
CONTINUOUS
 62
     7
 10
80.999999999999986
 20
25.00552339035357
 30
0.0
  0
VERTEX
  5
3A62
  8
0
  6
CONTINUOUS
 62
     7
 10
80.999999999999986
 20
25.015242982384851
 30
0.0
  0
VERTEX
  5
3A63
  8
0
  6
CONTINUOUS
 62
     7
 10
80.999999999999986
 20
25.021882594211721
 30
0.0
  0
VERTEX
  5
3A64
  8
0
  6
CONTINUOUS
 62
     7
 10
80.999999999999986
 20
25.029697058073619
 30
0.0
  0
VERTEX
  5
3A65
  8
0
  6
CONTINUOUS
 62
     7
 10
80.999999999999986
 20
25.048820994233271
 30
0.0
  0
VERTEX
  5
3A66
  8
0
  6
CONTINUOUS
 62
     7
 10
80.999999999999986
 20
25.072564562143839
 30
0.0
  0
VERTEX
  5
3A67
  8
0
  6
CONTINUOUS
 62
     7
 10
80.999999999999986
 20
25.10089130482465
 30
0.0
  0
VERTEX
  5
3A68
  8
0
  6
CONTINUOUS
 62
     7
 10
80.999999999999986
 20
25.133778028167171
 30
0.0
  0
VERTEX
  5
3A69
  8
0
  6
CONTINUOUS
 62
     7
 10
80.999999999999986
 20
25.171214397114799
 30
0.0
  0
VERTEX
  5
3A6A
  8
0
  6
CONTINUOUS
 62
     7
 10
80.999999999999986
 20
25.19163890793482
 30
0.0
  0
VERTEX
  5
3A6B
  8
0
  6
CONTINUOUS
 62
     7
 10
80.999999999999986
 20
25.21320262974195
 30
0.0
  0
VERTEX
  5
3A6C
  8
0
  6
CONTINUOUS
 62
     7
 10
80.999999999999986
 20
25.259757283569741
 30
0.0
  0
VERTEX
  5
3A6D
  8
0
  6
CONTINUOUS
 62
     7
 10
80.999999999999986
 20
25.310905129795461
 30
0.0
  0
VERTEX
  5
3A6E
  8
0
  6
CONTINUOUS
 62
     7
 10
80.999999999999986
 20
25.366685112334611
 30
0.0
  0
VERTEX
  5
3A6F
  8
0
  6
CONTINUOUS
 62
     7
 10
80.999999999999986
 20
25.42714838972017
 30
0.0
  0
VERTEX
  5
3A70
  8
0
  6
CONTINUOUS
 62
     7
 10
80.999999999999986
 20
25.492358458982149
 30
0.0
  0
VERTEX
  5
3A71
  8
0
  6
CONTINUOUS
 62
     7
 10
80.999999999999986
 20
25.526766806198388
 30
0.0
  0
VERTEX
  5
3A72
  8
0
  6
CONTINUOUS
 62
     7
 10
80.999999999999986
 20
25.562391361678809
 30
0.0
  0
VERTEX
  5
3A73
  8
0
  6
CONTINUOUS
 62
     7
 10
80.999999999999986
 20
25.63733597328434
 30
0.0
  0
VERTEX
  5
3A74
  8
0
  6
CONTINUOUS
 62
     7
 10
80.999999999999986
 20
25.717294378176518
 30
0.0
  0
VERTEX
  5
3A75
  8
0
  6
CONTINUOUS
 62
     7
 10
80.999999999999986
 20
25.759189378554819
 30
0.0
  0
SEQEND
  5
3A76
  8
0
  6
CONTINUOUS
 62
     7
  0
POLYLINE
  5
37F0
  8
0
  6
CONTINUOUS
 62
     7
 66
     1
 10
0.0
 20
0.0
 30
0.0
  0
VERTEX
  5
3A77
  8
0
  6
CONTINUOUS
 62
     7
 10
76.749999999999986
 20
25.0
 30
0.0
  0
VERTEX
  5
3A78
  8
0
  6
CONTINUOUS
 62
     7
 10
76.633168539169262
 20
25.000618046932569
 30
0.0
  0
VERTEX
  5
3A79
  8
0
  6
CONTINUOUS
 62
     7
 10
76.400650247096905
 20
25.00552339035357
 30
0.0
  0
VERTEX
  5
3A7A
  8
0
  6
CONTINUOUS
 62
     7
 10
76.169359458436631
 20
25.015242982384851
 30
0.0
  0
VERTEX
  5
3A7B
  8
0
  6
CONTINUOUS
 62
     7
 10
76.054065440370707
 20
25.021882594211721
 30
0.0
  0
VERTEX
  5
3A7C
  8
0
  6
CONTINUOUS
 62
     7
 10
75.938949027236006
 20
25.029697058073619
 30
0.0
  0
VERTEX
  5
3A7D
  8
0
  6
CONTINUOUS
 62
     7
 10
75.709082859662843
 20
25.048820994233271
 30
0.0
  0
VERTEX
  5
3A7E
  8
0
  6
CONTINUOUS
 62
     7
 10
75.479434036277539
 20
25.072564562143839
 30
0.0
  0
VERTEX
  5
3A7F
  8
0
  6
CONTINUOUS
 62
     7
 10
75.249683061449232
 20
25.10089130482465
 30
0.0
  0
VERTEX
  5
3A80
  8
0
  6
CONTINUOUS
 62
     7
 10
75.019516218278838
 20
25.133778028167171
 30
0.0
  0
VERTEX
  5
3A81
  8
0
  6
CONTINUOUS
 62
     7
 10
74.788624009635555
 20
25.171214397114799
 30
0.0
  0
VERTEX
  5
3A82
  8
0
  6
CONTINUOUS
 62
     7
 10
74.672809961325925
 20
25.19163890793482
 30
0.0
  0
VERTEX
  5
3A83
  8
0
  6
CONTINUOUS
 62
     7
 10
74.556699667738414
 20
25.21320262974195
 30
0.0
  0
VERTEX
  5
3A84
  8
0
  6
CONTINUOUS
 62
     7
 10
74.323437716179924
 20
25.259757283569741
 30
0.0
  0
VERTEX
  5
3A85
  8
0
  6
CONTINUOUS
 62
     7
 10
74.088532569440517
 20
25.310905129795461
 30
0.0
  0
VERTEX
  5
3A86
  8
0
  6
CONTINUOUS
 62
     7
 10
73.851677155812936
 20
25.366685112334611
 30
0.0
  0
VERTEX
  5
3A87
  8
0
  6
CONTINUOUS
 62
     7
 10
73.612561550274634
 20
25.42714838972017
 30
0.0
  0
VERTEX
  5
3A88
  8
0
  6
CONTINUOUS
 62
     7
 10
73.370871604231965
 20
25.492358458982149
 30
0.0
  0
VERTEX
  5
3A89
  8
0
  6
CONTINUOUS
 62
     7
 10
73.248961586582155
 20
25.526766806198388
 30
0.0
  0
VERTEX
  5
3A8A
  8
0
  6
CONTINUOUS
 62
     7
 10
73.126287559226611
 20
25.562391361678809
 30
0.0
  0
VERTEX
  5
3A8B
  8
0
  6
CONTINUOUS
 62
     7
 10
72.878482631648311
 20
25.63733597328434
 30
0.0
  0
VERTEX
  5
3A8C
  8
0
  6
CONTINUOUS
 62
     7
 10
72.627121555244443
 20
25.717294378176518
 30
0.0
  0
VERTEX
  5
3A8D
  8
0
  6
CONTINUOUS
 62
     7
 10
72.499999999999986
 20
25.759189378554819
 30
0.0
  0
SEQEND
  5
3A8E
  8
0
  6
CONTINUOUS
 62
     7
  0
POLYLINE
  5
37F1
  8
0
  6
CONTINUOUS
 62
     7
 66
     1
 10
0.0
 20
0.0
 30
0.0
  0
VERTEX
  5
3A8F
  8
0
  6
CONTINUOUS
 62
     7
 10
80.999999999999986
 20
25.759189378554819
 30
0.0
  0
VERTEX
  5
3A90
  8
0
  6
CONTINUOUS
 62
     7
 10
80.872878444755557
 20
25.717294378176518
 30
0.0
  0
VERTEX
  5
3A91
  8
0
  6
CONTINUOUS
 62
     7
 10
80.621517368351675
 20
25.63733597328434
 30
0.0
  0
VERTEX
  5
3A92
  8
0
  6
CONTINUOUS
 62
     7
 10
80.37371244077336
 20
25.562391361678809
 30
0.0
  0
VERTEX
  5
3A93
  8
0
  6
CONTINUOUS
 62
     7
 10
80.251038413417817
 20
25.526766806198388
 30
0.0
  0
VERTEX
  5
3A94
  8
0
  6
CONTINUOUS
 62
     7
 10
80.129128395768006
 20
25.492358458982149
 30
0.0
  0
VERTEX
  5
3A95
  8
0
  6
CONTINUOUS
 62
     7
 10
79.887438449725337
 20
25.42714838972017
 30
0.0
  0
VERTEX
  5
3A96
  8
0
  6
CONTINUOUS
 62
     7
 10
79.648322844187035
 20
25.366685112334611
 30
0.0
  0
VERTEX
  5
3A97
  8
0
  6
CONTINUOUS
 62
     7
 10
79.411467430559455
 20
25.310905129795461
 30
0.0
  0
VERTEX
  5
3A98
  8
0
  6
CONTINUOUS
 62
     7
 10
79.176562283820076
 20
25.259757283569741
 30
0.0
  0
VERTEX
  5
3A99
  8
0
  6
CONTINUOUS
 62
     7
 10
78.943300332261558
 20
25.21320262974195
 30
0.0
  0
VERTEX
  5
3A9A
  8
0
  6
CONTINUOUS
 62
     7
 10
78.827190038674061
 20
25.19163890793482
 30
0.0
  0
VERTEX
  5
3A9B
  8
0
  6
CONTINUOUS
 62
     7
 10
78.711375990364402
 20
25.171214397114799
 30
0.0
  0
VERTEX
  5
3A9C
  8
0
  6
CONTINUOUS
 62
     7
 10
78.480483781721162
 20
25.133778028167171
 30
0.0
  0
VERTEX
  5
3A9D
  8
0
  6
CONTINUOUS
 62
     7
 10
78.250316938550725
 20
25.10089130482465
 30
0.0
  0
VERTEX
  5
3A9E
  8
0
  6
CONTINUOUS
 62
     7
 10
78.020565963722433
 20
25.072564562143839
 30
0.0
  0
VERTEX
  5
3A9F
  8
0
  6
CONTINUOUS
 62
     7
 10
77.790917140337129
 20
25.048820994233271
 30
0.0
  0
VERTEX
  5
3AA0
  8
0
  6
CONTINUOUS
 62
     7
 10
77.561050972763965
 20
25.029697058073619
 30
0.0
  0
VERTEX
  5
3AA1
  8
0
  6
CONTINUOUS
 62
     7
 10
77.445934559629265
 20
25.021882594211721
 30
0.0
  0
VERTEX
  5
3AA2
  8
0
  6
CONTINUOUS
 62
     7
 10
77.330640541563355
 20
25.015242982384851
 30
0.0
  0
VERTEX
  5
3AA3
  8
0
  6
CONTINUOUS
 62
     7
 10
77.099349752903052
 20
25.00552339035357
 30
0.0
  0
VERTEX
  5
3AA4
  8
0
  6
CONTINUOUS
 62
     7
 10
76.86683146083071
 20
25.000618046932569
 30
0.0
  0
VERTEX
  5
3AA5
  8
0
  6
CONTINUOUS
 62
     7
 10
76.749999999999986
 20
25.0
 30
0.0
  0
SEQEND
  5
3AA6
  8
0
  6
CONTINUOUS
 62
     7
  0
POLYLINE
  5
37F2
  8
0
  6
CONTINUOUS
 62
     7
 66
     1
 10
0.0
 20
0.0
 30
0.0
  0
VERTEX
  5
3AA7
  8
0
  6
CONTINUOUS
 62
     7
 10
68.249999999999986
 20
25.0
 30
0.0
  0
VERTEX
  5
3AA8
  8
0
  6
CONTINUOUS
 62
     7
 10
68.133168539169262
 20
25.000618046932569
 30
0.0
  0
VERTEX
  5
3AA9
  8
0
  6
CONTINUOUS
 62
     7
 10
67.90065024709692
 20
25.00552339035357
 30
0.0
  0
VERTEX
  5
3AAA
  8
0
  6
CONTINUOUS
 62
     7
 10
67.669359458436631
 20
25.015242982384851
 30
0.0
  0
VERTEX
  5
3AAB
  8
0
  6
CONTINUOUS
 62
     7
 10
67.554065440370707
 20
25.021882594211721
 30
0.0
  0
VERTEX
  5
3AAC
  8
0
  6
CONTINUOUS
 62
     7
 10
67.438949027236006
 20
25.029697058073619
 30
0.0
  0
VERTEX
  5
3AAD
  8
0
  6
CONTINUOUS
 62
     7
 10
67.209082859662843
 20
25.048820994233271
 30
0.0
  0
VERTEX
  5
3AAE
  8
0
  6
CONTINUOUS
 62
     7
 10
66.979434036277524
 20
25.072564562143839
 30
0.0
  0
VERTEX
  5
3AAF
  8
0
  6
CONTINUOUS
 62
     7
 10
66.749683061449232
 20
25.10089130482465
 30
0.0
  0
VERTEX
  5
3AB0
  8
0
  6
CONTINUOUS
 62
     7
 10
66.519516218278824
 20
25.133778028167171
 30
0.0
  0
VERTEX
  5
3AB1
  8
0
  6
CONTINUOUS
 62
     7
 10
66.288624009635569
 20
25.171214397114799
 30
0.0
  0
VERTEX
  5
3AB2
  8
0
  6
CONTINUOUS
 62
     7
 10
66.172809961325939
 20
25.19163890793482
 30
0.0
  0
VERTEX
  5
3AB3
  8
0
  6
CONTINUOUS
 62
     7
 10
66.056699667738414
 20
25.21320262974189
 30
0.0
  0
VERTEX
  5
3AB4
  8
0
  6
CONTINUOUS
 62
     7
 10
65.823437716179924
 20
25.259757283569741
 30
0.0
  0
VERTEX
  5
3AB5
  8
0
  6
CONTINUOUS
 62
     7
 10
65.588532569440517
 20
25.310905129795461
 30
0.0
  0
VERTEX
  5
3AB6
  8
0
  6
CONTINUOUS
 62
     7
 10
65.351677155812936
 20
25.366685112334611
 30
0.0
  0
VERTEX
  5
3AB7
  8
0
  6
CONTINUOUS
 62
     7
 10
65.112561550274634
 20
25.42714838972017
 30
0.0
  0
VERTEX
  5
3AB8
  8
0
  6
CONTINUOUS
 62
     7
 10
64.870871604231965
 20
25.492358458982149
 30
0.0
  0
VERTEX
  5
3AB9
  8
0
  6
CONTINUOUS
 62
     7
 10
64.748961586582155
 20
25.526766806198388
 30
0.0
  0
VERTEX
  5
3ABA
  8
0
  6
CONTINUOUS
 62
     7
 10
64.626287559226611
 20
25.562391361678809
 30
0.0
  0
VERTEX
  5
3ABB
  8
0
  6
CONTINUOUS
 62
     7
 10
64.378482631648311
 20
25.63733597328434
 30
0.0
  0
VERTEX
  5
3ABC
  8
0
  6
CONTINUOUS
 62
     7
 10
64.127121555244415
 20
25.717294378176518
 30
0.0
  0
VERTEX
  5
3ABD
  8
0
  6
CONTINUOUS
 62
     7
 10
63.999999999999979
 20
25.759189378554819
 30
0.0
  0
SEQEND
  5
3ABE
  8
0
  6
CONTINUOUS
 62
     7
  0
POLYLINE
  5
37F3
  8
0
  6
CONTINUOUS
 62
     7
 66
     1
 10
0.0
 20
0.0
 30
0.0
  0
VERTEX
  5
3ABF
  8
0
  6
CONTINUOUS
 62
     7
 10
72.499999999999986
 20
25.759189378554819
 30
0.0
  0
VERTEX
  5
3AC0
  8
0
  6
CONTINUOUS
 62
     7
 10
72.372878444755514
 20
25.717294378176518
 30
0.0
  0
VERTEX
  5
3AC1
  8
0
  6
CONTINUOUS
 62
     7
 10
72.121517368351661
 20
25.63733597328434
 30
0.0
  0
VERTEX
  5
3AC2
  8
0
  6
CONTINUOUS
 62
     7
 10
71.87371244077336
 20
25.562391361678809
 30
0.0
  0
VERTEX
  5
3AC3
  8
0
  6
CONTINUOUS
 62
     7
 10
71.751038413417817
 20
25.526766806198388
 30
0.0
  0
VERTEX
  5
3AC4
  8
0
  6
CONTINUOUS
 62
     7
 10
71.629128395768006
 20
25.492358458982149
 30
0.0
  0
VERTEX
  5
3AC5
  8
0
  6
CONTINUOUS
 62
     7
 10
71.387438449725337
 20
25.42714838972017
 30
0.0
  0
VERTEX
  5
3AC6
  8
0
  6
CONTINUOUS
 62
     7
 10
71.148322844187035
 20
25.366685112334611
 30
0.0
  0
VERTEX
  5
3AC7
  8
0
  6
CONTINUOUS
 62
     7
 10
70.911467430559455
 20
25.310905129795461
 30
0.0
  0
VERTEX
  5
3AC8
  8
0
  6
CONTINUOUS
 62
     7
 10
70.676562283820047
 20
25.259757283569741
 30
0.0
  0
VERTEX
  5
3AC9
  8
0
  6
CONTINUOUS
 62
     7
 10
70.443300332261558
 20
25.21320262974189
 30
0.0
  0
VERTEX
  5
3ACA
  8
0
  6
CONTINUOUS
 62
     7
 10
70.327190038674033
 20
25.19163890793482
 30
0.0
  0
VERTEX
  5
3ACB
  8
0
  6
CONTINUOUS
 62
     7
 10
70.211375990364402
 20
25.171214397114799
 30
0.0
  0
VERTEX
  5
3ACC
  8
0
  6
CONTINUOUS
 62
     7
 10
69.980483781721134
 20
25.133778028167171
 30
0.0
  0
VERTEX
  5
3ACD
  8
0
  6
CONTINUOUS
 62
     7
 10
69.750316938550739
 20
25.10089130482465
 30
0.0
  0
VERTEX
  5
3ACE
  8
0
  6
CONTINUOUS
 62
     7
 10
69.520565963722433
 20
25.072564562143839
 30
0.0
  0
VERTEX
  5
3ACF
  8
0
  6
CONTINUOUS
 62
     7
 10
69.290917140337129
 20
25.048820994233271
 30
0.0
  0
VERTEX
  5
3AD0
  8
0
  6
CONTINUOUS
 62
     7
 10
69.061050972763965
 20
25.029697058073619
 30
0.0
  0
VERTEX
  5
3AD1
  8
0
  6
CONTINUOUS
 62
     7
 10
68.945934559629265
 20
25.021882594211721
 30
0.0
  0
VERTEX
  5
3AD2
  8
0
  6
CONTINUOUS
 62
     7
 10
68.830640541563341
 20
25.015242982384851
 30
0.0
  0
VERTEX
  5
3AD3
  8
0
  6
CONTINUOUS
 62
     7
 10
68.599349752903024
 20
25.00552339035357
 30
0.0
  0
VERTEX
  5
3AD4
  8
0
  6
CONTINUOUS
 62
     7
 10
68.36683146083071
 20
25.000618046932569
 30
0.0
  0
VERTEX
  5
3AD5
  8
0
  6
CONTINUOUS
 62
     7
 10
68.249999999999986
 20
25.0
 30
0.0
  0
SEQEND
  5
3AD6
  8
0
  6
CONTINUOUS
 62
     7
  0
LINE
  5
37F4
  8
0
  6
CONTINUOUS
 62
     7
 10
63.999999999999979
 20
25.0
 30
0.0
 11
80.999999999999986
 21
25.0
 31
0.0
  0
POLYLINE
  5
37F5
  8
0
  6
CONTINUOUS
 62
     7
 66
     1
 10
0.0
 20
0.0
 30
0.0
  0
VERTEX
  5
3AD7
  8
0
  6
CONTINUOUS
 62
     7
 10
63.999999999999979
 20
30.0
 30
0.0
  0
VERTEX
  5
3AD8
  8
0
  6
CONTINUOUS
 62
     7
 10
63.999999999999979
 20
29.999456233739011
 30
0.0
  0
VERTEX
  5
3AD9
  8
0
  6
CONTINUOUS
 62
     7
 10
63.999999999999979
 20
29.995103933643641
 30
0.0
  0
VERTEX
  5
3ADA
  8
0
  6
CONTINUOUS
 62
     7
 10
63.999999999999979
 20
29.98638774402832
 30
0.0
  0
VERTEX
  5
3ADB
  8
0
  6
CONTINUOUS
 62
     7
 10
63.999999999999979
 20
29.980386382557189
 30
0.0
  0
VERTEX
  5
3ADC
  8
0
  6
CONTINUOUS
 62
     7
 10
63.999999999999979
 20
29.973284408789311
 30
0.0
  0
VERTEX
  5
3ADD
  8
0
  6
CONTINUOUS
 62
     7
 10
63.999999999999979
 20
29.955758849672009
 30
0.0
  0
VERTEX
  5
3ADE
  8
0
  6
CONTINUOUS
 62
     7
 10
63.999999999999979
 20
29.933763930636129
 30
0.0
  0
VERTEX
  5
3ADF
  8
0
  6
CONTINUOUS
 62
     7
 10
63.999999999999979
 20
29.9072401390913
 30
0.0
  0
VERTEX
  5
3AE0
  8
0
  6
CONTINUOUS
 62
     7
 10
63.999999999999979
 20
29.876115179954411
 30
0.0
  0
VERTEX
  5
3AE1
  8
0
  6
CONTINUOUS
 62
     7
 10
63.999999999999979
 20
29.84030347731419
 30
0.0
  0
VERTEX
  5
3AE2
  8
0
  6
CONTINUOUS
 62
     7
 10
63.999999999999979
 20
29.820609578411219
 30
0.0
  0
VERTEX
  5
3AE3
  8
0
  6
CONTINUOUS
 62
     7
 10
63.999999999999979
 20
29.7997055772164
 30
0.0
  0
VERTEX
  5
3AE4
  8
0
  6
CONTINUOUS
 62
     7
 10
63.999999999999979
 20
29.754207443670278
 30
0.0
  0
VERTEX
  5
3AE5
  8
0
  6
CONTINUOUS
 62
     7
 10
63.999999999999979
 20
29.70367963839681
 30
0.0
  0
VERTEX
  5
3AE6
  8
0
  6
CONTINUOUS
 62
     7
 10
63.999999999999979
 20
29.647976373048149
 30
0.0
  0
VERTEX
  5
3AE7
  8
0
  6
CONTINUOUS
 62
     7
 10
63.999999999999979
 20
29.586934420583251
 30
0.0
  0
VERTEX
  5
3AE8
  8
0
  6
CONTINUOUS
 62
     7
 10
63.999999999999979
 20
29.520371870131559
 30
0.0
  0
VERTEX
  5
3AE9
  8
0
  6
CONTINUOUS
 62
     7
 10
63.999999999999979
 20
29.48495806911405
 30
0.0
  0
VERTEX
  5
3AEA
  8
0
  6
CONTINUOUS
 62
     7
 10
63.999999999999979
 20
29.448086706950111
 30
0.0
  0
VERTEX
  5
3AEB
  8
0
  6
CONTINUOUS
 62
     7
 10
63.999999999999979
 20
29.369855195903082
 30
0.0
  0
VERTEX
  5
3AEC
  8
0
  6
CONTINUOUS
 62
     7
 10
63.999999999999979
 20
29.285430043167359
 30
0.0
  0
VERTEX
  5
3AED
  8
0
  6
CONTINUOUS
 62
     7
 10
63.999999999999979
 20
29.240810621445181
 30
0.0
  0
SEQEND
  5
3AEE
  8
0
  6
CONTINUOUS
 62
     7
  0
POLYLINE
  5
37F6
  8
0
  6
CONTINUOUS
 62
     7
 66
     1
 10
0.0
 20
0.0
 30
0.0
  0
VERTEX
  5
3AEF
  8
0
  6
CONTINUOUS
 62
     7
 10
80.999999999999986
 20
29.240810621445181
 30
0.0
  0
VERTEX
  5
3AF0
  8
0
  6
CONTINUOUS
 62
     7
 10
80.999999999999986
 20
29.285430043167359
 30
0.0
  0
VERTEX
  5
3AF1
  8
0
  6
CONTINUOUS
 62
     7
 10
80.999999999999986
 20
29.369855195903082
 30
0.0
  0
VERTEX
  5
3AF2
  8
0
  6
CONTINUOUS
 62
     7
 10
80.999999999999986
 20
29.448086706950111
 30
0.0
  0
VERTEX
  5
3AF3
  8
0
  6
CONTINUOUS
 62
     7
 10
80.999999999999986
 20
29.48495806911405
 30
0.0
  0
VERTEX
  5
3AF4
  8
0
  6
CONTINUOUS
 62
     7
 10
80.999999999999986
 20
29.520371870131559
 30
0.0
  0
VERTEX
  5
3AF5
  8
0
  6
CONTINUOUS
 62
     7
 10
80.999999999999986
 20
29.586934420583251
 30
0.0
  0
VERTEX
  5
3AF6
  8
0
  6
CONTINUOUS
 62
     7
 10
80.999999999999986
 20
29.647976373048149
 30
0.0
  0
VERTEX
  5
3AF7
  8
0
  6
CONTINUOUS
 62
     7
 10
80.999999999999986
 20
29.70367963839681
 30
0.0
  0
VERTEX
  5
3AF8
  8
0
  6
CONTINUOUS
 62
     7
 10
80.999999999999986
 20
29.754207443670278
 30
0.0
  0
VERTEX
  5
3AF9
  8
0
  6
CONTINUOUS
 62
     7
 10
80.999999999999986
 20
29.7997055772164
 30
0.0
  0
VERTEX
  5
3AFA
  8
0
  6
CONTINUOUS
 62
     7
 10
80.999999999999986
 20
29.820609578411219
 30
0.0
  0
VERTEX
  5
3AFB
  8
0
  6
CONTINUOUS
 62
     7
 10
80.999999999999986
 20
29.84030347731419
 30
0.0
  0
VERTEX
  5
3AFC
  8
0
  6
CONTINUOUS
 62
     7
 10
80.999999999999986
 20
29.876115179954411
 30
0.0
  0
VERTEX
  5
3AFD
  8
0
  6
CONTINUOUS
 62
     7
 10
80.999999999999986
 20
29.9072401390913
 30
0.0
  0
VERTEX
  5
3AFE
  8
0
  6
CONTINUOUS
 62
     7
 10
80.999999999999986
 20
29.933763930636129
 30
0.0
  0
VERTEX
  5
3AFF
  8
0
  6
CONTINUOUS
 62
     7
 10
80.999999999999986
 20
29.955758849672009
 30
0.0
  0
VERTEX
  5
3B00
  8
0
  6
CONTINUOUS
 62
     7
 10
80.999999999999986
 20
29.973284408789311
 30
0.0
  0
VERTEX
  5
3B01
  8
0
  6
CONTINUOUS
 62
     7
 10
80.999999999999986
 20
29.980386382557189
 30
0.0
  0
VERTEX
  5
3B02
  8
0
  6
CONTINUOUS
 62
     7
 10
80.999999999999986
 20
29.98638774402832
 30
0.0
  0
VERTEX
  5
3B03
  8
0
  6
CONTINUOUS
 62
     7
 10
80.999999999999986
 20
29.995103933643641
 30
0.0
  0
VERTEX
  5
3B04
  8
0
  6
CONTINUOUS
 62
     7
 10
80.999999999999986
 20
29.999456233739011
 30
0.0
  0
VERTEX
  5
3B05
  8
0
  6
CONTINUOUS
 62
     7
 10
80.999999999999986
 20
30.0
 30
0.0
  0
SEQEND
  5
3B06
  8
0
  6
CONTINUOUS
 62
     7
  0
LINE
  5
37F7
  8
0
  6
CENTER
 62
     1
 10
50.0
 20
67.5
 30
0.0
 11
50.0
 21
22.5
 31
0.0
  0
LINE
  5
37F8
  8
0
  6
HIDDEN
 62
     2
 10
45.0
 20
38.0
 30
0.0
 11
45.0
 21
25.0
 31
0.0
  0
LINE
  5
37F9
  8
0
  6
HIDDEN
 62
     2
 10
45.0
 20
38.0
 30
0.0
 11
45.812000000000012
 21
39.406425255745923
 31
0.0
  0
LINE
  5
37FA
  8
0
  6
HIDDEN
 62
     2
 10
55.0
 20
38.0
 30
0.0
 11
54.187999999999988
 21
39.40642525574593
 31
0.0
  0
LINE
  5
37FB
  8
0
  6
HIDDEN
 62
     2
 10
55.0
 20
38.0
 30
0.0
 11
55.0
 21
25.0
 31
0.0
  0
LINE
  5
37FC
  8
0
  6
HIDDEN
 62
     2
 10
45.812000000000012
 20
42.54999999999999
 30
0.0
 11
54.187999999999988
 21
42.54999999999999
 31
0.0
  0
LINE
  5
37FD
  8
0
  6
CONTINUOUS
 62
     7
 10
45.0
 20
63.666666666666657
 30
0.0
 11
55.0
 21
63.666666666666657
 31
0.0
  0
LINE
  5
37FE
  8
0
  6
CONTINUOUS
 62
     7
 10
45.0
 20
65.0
 30
0.0
 11
55.0
 21
65.0
 31
0.0
  0
LINE
  5
37FF
  8
0
  6
HIDDEN
 62
     2
 10
50.0
 20
46.737999999999992
 30
0.0
 11
45.812000000000012
 21
42.54999999999999
 31
0.0
  0
LINE
  5
3800
  8
0
  6
HIDDEN
 62
     2
 10
54.187999999999988
 20
42.54999999999999
 30
0.0
 11
50.0
 21
46.737999999999992
 31
0.0
  0
LINE
  5
3801
  8
0
  6
HIDDEN
 62
     2
 10
45.812000000000012
 20
42.54999999999999
 30
0.0
 11
45.812000000000012
 21
25.0
 31
0.0
  0
LINE
  5
3802
  8
0
  6
HIDDEN
 62
     2
 10
54.187999999999988
 20
25.0
 30
0.0
 11
54.187999999999988
 21
42.54999999999999
 31
0.0
  0
LINE
  5
3803
  8
0
  6
CONTINUOUS
 62
     7
 10
45.0
 20
63.666666666666679
 30
0.0
 11
42.18
 21
30.392598183048939
 31
0.0
  0
LINE
  5
3804
  8
0
  6
CONTINUOUS
 62
     7
 10
57.82
 20
30.392598183048939
 30
0.0
 11
55.0
 21
63.666666666666679
 31
0.0
  0
LINE
  5
3805
  8
0
  6
CONTINUOUS
 62
     7
 10
45.0
 20
65.0
 30
0.0
 11
45.0
 21
63.666666666666671
 31
0.0
  0
LINE
  5
3806
  8
0
  6
CONTINUOUS
 62
     7
 10
55.0
 20
63.666666666666657
 30
0.0
 11
55.0
 21
65.0
 31
0.0
  0
LINE
  5
3807
  8
0
  6
CENTER
 62
     1
 10
72.499999999999986
 20
67.5
 30
0.0
 11
72.499999999999986
 21
22.5
 31
0.0
  0
LINE
  5
3808
  8
0
  6
HIDDEN
 62
     2
 10
67.499999999999986
 20
38.0
 30
0.0
 11
67.499999999999986
 21
25.0
 31
0.0
  0
LINE
  5
3809
  8
0
  6
HIDDEN
 62
     2
 10
67.499999999999986
 20
38.0
 30
0.0
 11
68.311999999999983
 21
39.406425255745923
 31
0.0
  0
LINE
  5
380A
  8
0
  6
HIDDEN
 62
     2
 10
77.499999999999986
 20
38.0
 30
0.0
 11
76.687999999999974
 21
39.40642525574593
 31
0.0
  0
LINE
  5
380B
  8
0
  6
HIDDEN
 62
     2
 10
77.499999999999986
 20
38.0
 30
0.0
 11
77.499999999999986
 21
25.0
 31
0.0
  0
LINE
  5
380C
  8
0
  6
HIDDEN
 62
     2
 10
68.311999999999983
 20
42.54999999999999
 30
0.0
 11
76.687999999999974
 21
42.54999999999999
 31
0.0
  0
LINE
  5
380D
  8
0
  6
CONTINUOUS
 62
     7
 10
67.499999999999986
 20
63.666666666666657
 30
0.0
 11
77.499999999999986
 21
63.666666666666657
 31
0.0
  0
LINE
  5
380E
  8
0
  6
CONTINUOUS
 62
     7
 10
67.499999999999986
 20
65.0
 30
0.0
 11
77.499999999999986
 21
65.0
 31
0.0
  0
LINE
  5
380F
  8
0
  6
HIDDEN
 62
     2
 10
72.499999999999986
 20
46.737999999999992
 30
0.0
 11
68.311999999999983
 21
42.54999999999999
 31
0.0
  0
LINE
  5
3810
  8
0
  6
HIDDEN
 62
     2
 10
76.687999999999974
 20
42.54999999999999
 30
0.0
 11
72.499999999999986
 21
46.737999999999992
 31
0.0
  0
LINE
  5
3811
  8
0
  6
HIDDEN
 62
     2
 10
68.311999999999983
 20
42.54999999999999
 30
0.0
 11
68.311999999999983
 21
25.0
 31
0.0
  0
LINE
  5
3812
  8
0
  6
HIDDEN
 62
     2
 10
76.687999999999974
 20
25.0
 30
0.0
 11
76.687999999999974
 21
42.54999999999999
 31
0.0
  0
LINE
  5
3813
  8
0
  6
CONTINUOUS
 62
     7
 10
67.499999999999986
 20
63.666666666666679
 30
0.0
 11
64.679999999999993
 21
30.392598183048939
 31
0.0
  0
LINE
  5
3814
  8
0
  6
CONTINUOUS
 62
     7
 10
80.319999999999979
 20
30.392598183048939
 30
0.0
 11
77.499999999999986
 21
63.666666666666679
 31
0.0
  0
LINE
  5
3815
  8
0
  6
CONTINUOUS
 62
     7
 10
67.499999999999986
 20
65.0
 30
0.0
 11
67.499999999999986
 21
63.666666666666671
 31
0.0
  0
LINE
  5
3816
  8
0
  6
CONTINUOUS
 62
     7
 10
77.499999999999986
 20
63.666666666666671
 30
0.0
 11
77.499999999999986
 21
65.0
 31
0.0
  0
TEXT
  5
38E0
  8
0
 62
     3
 10
0.0
 20
0.0
 30
0.0
 40
5.0
  1
BJ810-10040-F
  7
STANDARD1
  0
ENDSEC
  0
EOF
