  0
SECTION
  2
HEADER
  9
$ACADVER
  1
AC1009
  9
$INSBASE
 10
0.0
 20
0.0
 30
0.0
  9
$EXTMIN
 10
0.0
 20
-1.4802182810368341
 30
0.0
  9
$EXTMAX
 10
92.152959012133934
 20
83.76082228213761
 30
0.0
  9
$LIMMIN
 10
0.0
 20
0.0
  9
$LIMMAX
 10
12.0
 20
9.0
  9
$ORTHOMODE
 70
     0
  9
$REGENMODE
 70
     1
  9
$FILLMODE
 70
     1
  9
$QTEXTMODE
 70
     0
  9
$MIRRTEXT
 70
     0
  9
$DRAGMODE
 70
     2
  9
$LTSCALE
 40
5.0
  9
$OSMODE
 70
  3071
  9
$ATTMODE
 70
     1
  9
$TEXTSIZE
 40
0.2
  9
$TRACEWID
 40
0.05
  9
$TEXTSTYLE
  7
STANDARD
  9
$CLAYER
  8
0
  9
$CELTYPE
  6
BYLAYER
  9
$CECOLOR
 62
   256
  9
$DIMSCALE
 40
1.0
  9
$DIMASZ
 40
0.18
  9
$DIMEXO
 40
0.0625
  9
$DIMDLI
 40
0.38
  9
$DIMRND
 40
0.0
  9
$DIMDLE
 40
0.0
  9
$DIMEXE
 40
0.18
  9
$DIMTP
 40
0.0
  9
$DIMTM
 40
0.0
  9
$DIMTXT
 40
0.18
  9
$DIMCEN
 40
0.09
  9
$DIMTSZ
 40
0.0
  9
$DIMTOL
 70
     0
  9
$DIMLIM
 70
     0
  9
$DIMTIH
 70
     1
  9
$DIMTOH
 70
     1
  9
$DIMSE1
 70
     0
  9
$DIMSE2
 70
     0
  9
$DIMTAD
 70
     0
  9
$DIMZIN
 70
     0
  9
$DIMBLK
  1

  9
$DIMASO
 70
     1
  9
$DIMSHO
 70
     1
  9
$DIMPOST
  1

  9
$DIMAPOST
  1

  9
$DIMALT
 70
     0
  9
$DIMALTD
 70
     2
  9
$DIMALTF
 40
25.399999999999999
  9
$DIMLFAC
 40
1.0
  9
$DIMTOFL
 70
     0
  9
$DIMTVP
 40
0.0
  9
$DIMTIX
 70
     0
  9
$DIMSOXD
 70
     0
  9
$DIMSAH
 70
     0
  9
$DIMBLK1
  1

  9
$DIMBLK2
  1

  9
$DIMSTYLE
  2
STANDARD
  9
$DIMCLRD
 70
     0
  9
$DIMCLRE
 70
     0
  9
$DIMCLRT
 70
     0
  9
$DIMTFAC
 40
1.0
  9
$DIMGAP
 40
0.09
  9
$LUNITS
 70
     2
  9
$LUPREC
 70
     4
  9
$SKETCHINC
 40
0.1
  9
$FILLETRAD
 40
0.0
  9
$AUNITS
 70
     0
  9
$AUPREC
 70
     0
  9
$MENU
  1
.
  9
$ELEVATION
 40
0.0
  9
$PELEVATION
 40
0.0
  9
$THICKNESS
 40
0.0
  9
$LIMCHECK
 70
     0
  9
$BLIPMODE
 70
     0
  9
$CHAMFERA
 40
0.0
  9
$CHAMFERB
 40
0.0
  9
$SKPOLY
 70
     0
  9
$TDCREATE
 40
2453083.4120647679
  9
$TDUPDATE
 40
2456598.4308355558
  9
$TDINDWG
 40
0.1510758102
  9
$TDUSRTIMER
 40
0.1510756944
  9
$USRTIMER
 70
     1
  9
$ANGBASE
 50
0.0
  9
$ANGDIR
 70
     0
  9
$PDMODE
 70
     0
  9
$PDSIZE
 40
0.0
  9
$PLINEWID
 40
0.0
  9
$COORDS
 70
     1
  9
$SPLFRAME
 70
     0
  9
$SPLINETYPE
 70
     6
  9
$SPLINESEGS
 70
     8
  9
$ATTDIA
 70
     0
  9
$ATTREQ
 70
     1
  9
$HANDLING
 70
     1
  9
$HANDSEED
  5
1049
  9
$SURFTAB1
 70
     6
  9
$SURFTAB2
 70
     6
  9
$SURFTYPE
 70
     6
  9
$SURFU
 70
     6
  9
$SURFV
 70
     6
  9
$UCSNAME
  2

  9
$UCSORG
 10
0.0
 20
0.0
 30
0.0
  9
$UCSXDIR
 10
1.0
 20
0.0
 30
0.0
  9
$UCSYDIR
 10
0.0
 20
1.0
 30
0.0
  9
$PUCSNAME
  2

  9
$PUCSORG
 10
0.0
 20
0.0
 30
0.0
  9
$PUCSXDIR
 10
1.0
 20
0.0
 30
0.0
  9
$PUCSYDIR
 10
0.0
 20
1.0
 30
0.0
  9
$USERI1
 70
     0
  9
$USERI2
 70
     1
  9
$USERI3
 70
     0
  9
$USERI4
 70
     0
  9
$USERI5
 70
     0
  9
$USERR1
 40
0.0
  9
$USERR2
 40
0.0
  9
$USERR3
 40
0.0
  9
$USERR4
 40
0.0
  9
$USERR5
 40
0.0
  9
$WORLDVIEW
 70
     1
  9
$SHADEDGE
 70
     3
  9
$SHADEDIF
 70
    70
  9
$TILEMODE
 70
     1
  9
$MAXACTVP
 70
    64
  9
$PLIMCHECK
 70
     0
  9
$PEXTMIN
 10
0.0
 20
0.0
 30
0.0
  9
$PEXTMAX
 10
0.0
 20
0.0
 30
0.0
  9
$PLIMMIN
 10
0.0
 20
0.0
  9
$PLIMMAX
 10
12.0
 20
9.0
  9
$UNITMODE
 70
     0
  9
$VISRETAIN
 70
     1
  9
$PLINEGEN
 70
     0
  9
$PSLTSCALE
 70
     1
  0
ENDSEC
  0
SECTION
  2
TABLES
  0
TABLE
  2
VPORT
 70
     1
  0
VPORT
  2
*ACTIVE
 70
     0
 10
0.0
 20
0.0
 11
1.0
 21
1.0
 12
48.438624085097018
 22
41.139119878261972
 13
0.0
 23
0.0
 14
0.5
 24
0.5
 15
0.5
 25
0.5
 16
0.0
 26
0.0
 36
1.0
 17
0.0
 27
0.0
 37
0.0
 40
86.013078248214271
 41
1.8318713450292401
 42
50.0
 43
0.0
 44
0.0
 50
0.0
 51
0.0
 71
     0
 72
  1000
 73
     1
 74
     2
 75
     0
 76
     0
 77
     0
 78
     0
  0
ENDTAB
  0
TABLE
  2
LTYPE
 70
     4
  0
LTYPE
  2
CONTINUOUS
 70
     0
  3
Solid Line
 72
    65
 73
     0
 40
0.0
  0
LTYPE
  2
CENTER
 70
     0
  3
____ _ ____ _ ____ _ ____ _ ____ _ ____ _ ____
 72
    65
 73
     4
 40
2.0
 49
1.25
 49
-0.25
 49
0.25
 49
-0.25
  0
LTYPE
  2
HIDDEN
 70
     0
  3
_ _ _ _ _ _ _ _ _ _ _ _ _ _ _ _ _ _ _ _ _ _ _
 72
    65
 73
     2
 40
0.375
 49
0.25
 49
-0.125
  0
LTYPE
  2
PHANTOM2
 70
     0
  3
___ _ _ ___ _ _ ___ _ _ ___ _ _
 72
    65
 73
     6
 40
1.25
 49
0.625
 49
-0.125
 49
0.125
 49
-0.125
 49
0.125
 49
-0.125
  0
ENDTAB
  0
TABLE
  2
LAYER
 70
     4
  0
LAYER
  2
0
 70
     0
 62
     7
  6
CONTINUOUS
  0
LAYER
  2
1
 70
     0
 62
     1
  6
CENTER
  0
LAYER
  2
2
 70
     0
 62
     2
  6
HIDDEN
  0
LAYER
  2
3
 70
     0
 62
     3
  6
CONTINUOUS
  0
ENDTAB
  0
TABLE
  2
STYLE
 70
     2
  0
STYLE
  2
STANDARD
 70
     0
 40
0.0
 41
1.0
 50
0.0
 71
     0
 42
0.2
  3
simplex.shx
  4
bigfont.shx
  0
STYLE
  2
STANDARD1
 70
     0
 40
0.0
 41
1.0
 50
0.0
 71
     0
 42
3.0
  3
txt
  4

  0
ENDTAB
  0
TABLE
  2
VIEW
 70
     0
  0
ENDTAB
  0
TABLE
  2
UCS
 70
     0
  0
ENDTAB
  0
TABLE
  2
APPID
 70
     3
  0
APPID
  2
ACAD
 70
     0
  0
APPID
  2
ACAD_MLEADERVER
 70
     0
  0
APPID
  2
ACAD_NAV_VCDISPLAY
 70
     0
  0
ENDTAB
  0
TABLE
  2
DIMSTYLE
 70
     1
  0
DIMSTYLE
  2
STANDARD
 70
     0
  3

  4

  5

  6

  7

 40
1.0
 41
0.18
 42
0.0625
 43
0.38
 44
0.18
 45
0.0
 46
0.0
 47
0.0
 48
0.0
140
0.18
141
0.09
142
0.0
143
25.399999999999999
144
1.0
145
0.0
146
1.0
147
0.09
 71
     0
 72
     0
 73
     1
 74
     1
 75
     0
 76
     0
 77
     0
 78
     0
170
     0
171
     2
172
     0
173
     0
174
     0
175
     0
176
     0
177
     0
178
     0
  0
ENDTAB
  0
ENDSEC
  0
SECTION
  2
BLOCKS
  0
BLOCK
  8
0
  2
$MODEL_SPACE
 70
     0
 10
0.0
 20
0.0
 30
0.0
  3
$MODEL_SPACE
  1

  0
ENDBLK
  5
21
  8
0
  0
BLOCK
 67
     1
  8
0
  2
$PAPER_SPACE
 70
     0
 10
0.0
 20
0.0
 30
0.0
  3
$PAPER_SPACE
  1

  0
ENDBLK
  5
5B
 67
     1
  8
0
  0
ENDSEC
  0
SECTION
  2
ENTITIES
  0
LINE
  5
922
  8
3
 10
44.023049859686239
 20
66.790063700931682
 30
0.0
 11
44.023049859686239
 21
75.328169018999915
 31
0.0
  0
LINE
  5
923
  8
3
 10
46.892780216446113
 20
63.96578302663243
 30
0.0
 11
47.220353427285659
 21
64.29335623747204
 31
0.0
  0
LINE
  5
924
  8
3
 10
48.236652836259623
 20
63.96578302663243
 30
0.0
 11
46.892780216446113
 21
63.96578302663243
 31
0.0
  0
LINE
  5
925
  8
3
 10
47.909079625419963
 20
64.29335623747204
 30
0.0
 11
48.236652836259623
 21
63.96578302663243
 31
0.0
  0
LINE
  5
926
  8
3
 10
47.220353427285659
 20
64.29335623747204
 30
0.0
 11
47.909079625419963
 21
64.29335623747204
 31
0.0
  0
LINE
  5
927
  8
3
 10
45.476113549779477
 20
63.96578302663243
 30
0.0
 11
45.80368676061903
 21
64.29335623747204
 31
0.0
  0
LINE
  5
928
  8
3
 10
46.81998616959288
 20
63.96578302663243
 30
0.0
 11
45.476113549779477
 21
63.96578302663243
 31
0.0
  0
LINE
  5
929
  8
3
 10
46.492412958753327
 20
64.29335623747204
 30
0.0
 11
46.81998616959288
 21
63.96578302663243
 31
0.0
  0
LINE
  5
92A
  8
3
 10
45.80368676061903
 20
64.29335623747204
 30
0.0
 11
46.492412958753327
 21
64.29335623747204
 31
0.0
  0
LINE
  5
92B
  8
3
 10
44.059446883112862
 20
63.96578302663243
 30
0.0
 11
44.387020093952401
 21
64.29335623747204
 31
0.0
  0
LINE
  5
92C
  8
3
 10
45.403319502926252
 20
63.96578302663243
 30
0.0
 11
44.059446883112862
 21
63.96578302663243
 31
0.0
  0
LINE
  5
92D
  8
3
 10
45.075746292086592
 20
64.29335623747204
 30
0.0
 11
45.403319502926252
 21
63.96578302663243
 31
0.0
  0
LINE
  5
92E
  8
3
 10
44.387020093952401
 20
64.29335623747204
 30
0.0
 11
45.075746292086592
 21
64.29335623747204
 31
0.0
  0
LINE
  5
92F
  8
3
 10
42.642780216446113
 20
63.96578302663243
 30
0.0
 11
42.970353427285652
 21
64.29335623747204
 31
0.0
  0
LINE
  5
930
  8
3
 10
43.986652836259623
 20
63.96578302663243
 30
0.0
 11
42.642780216446113
 21
63.96578302663243
 31
0.0
  0
LINE
  5
931
  8
3
 10
43.659079625419963
 20
64.29335623747204
 30
0.0
 11
43.986652836259623
 21
63.96578302663243
 31
0.0
  0
LINE
  5
932
  8
3
 10
42.970353427285652
 20
64.29335623747204
 30
0.0
 11
43.659079625419963
 21
64.29335623747204
 31
0.0
  0
LINE
  5
933
  8
3
 10
41.226113549779477
 20
63.96578302663243
 30
0.0
 11
41.55368676061903
 21
64.29335623747204
 31
0.0
  0
LINE
  5
934
  8
3
 10
42.56998616959288
 20
63.96578302663243
 30
0.0
 11
41.226113549779477
 21
63.96578302663243
 31
0.0
  0
LINE
  5
935
  8
3
 10
42.242412958753327
 20
64.29335623747204
 30
0.0
 11
42.56998616959288
 21
63.96578302663243
 31
0.0
  0
LINE
  5
936
  8
3
 10
41.55368676061903
 20
64.29335623747204
 30
0.0
 11
42.242412958753327
 21
64.29335623747204
 31
0.0
  0
LINE
  5
937
  8
3
 10
39.809446883112862
 20
63.96578302663243
 30
0.0
 11
40.137020093952401
 21
64.29335623747204
 31
0.0
  0
LINE
  5
938
  8
3
 10
41.153319502926252
 20
63.96578302663243
 30
0.0
 11
39.809446883112862
 21
63.96578302663243
 31
0.0
  0
LINE
  5
939
  8
3
 10
40.825746292086592
 20
64.29335623747204
 30
0.0
 11
41.153319502926252
 21
63.96578302663243
 31
0.0
  0
LINE
  5
93A
  8
3
 10
40.137020093952401
 20
64.29335623747204
 30
0.0
 11
40.825746292086592
 21
64.29335623747204
 31
0.0
  0
LINE
  5
93B
  8
3
 10
39.736652836259623
 20
63.96578302663243
 30
0.0
 11
39.339608579791388
 21
63.96578302663243
 31
0.0
  0
LINE
  5
93C
  8
3
 10
39.40907962541997
 20
64.29335623747204
 30
0.0
 11
39.736652836259623
 21
63.96578302663243
 31
0.0
  0
LINE
  5
93D
  8
3
 10
38.877713139424493
 20
64.29335623747204
 30
0.0
 11
39.40907962541997
 21
64.29335623747204
 31
0.0
  0
LINE
  5
93E
  8
3
 10
47.220353427285659
 20
63.638209815792841
 30
0.0
 11
46.892780216446113
 21
63.96578302663243
 31
0.0
  0
LINE
  5
93F
  8
3
 10
47.909079625419963
 20
63.638209815792841
 30
0.0
 11
47.220353427285659
 21
63.638209815792841
 31
0.0
  0
LINE
  5
940
  8
3
 10
48.236652836259623
 20
63.96578302663243
 30
0.0
 11
47.909079625419963
 21
63.638209815792841
 31
0.0
  0
LINE
  5
941
  8
3
 10
45.80368676061903
 20
63.638209815792841
 30
0.0
 11
45.476113549779477
 21
63.96578302663243
 31
0.0
  0
LINE
  5
942
  8
3
 10
46.492412958753327
 20
63.638209815792841
 30
0.0
 11
45.80368676061903
 21
63.638209815792841
 31
0.0
  0
LINE
  5
943
  8
3
 10
46.81998616959288
 20
63.96578302663243
 30
0.0
 11
46.492412958753327
 21
63.638209815792841
 31
0.0
  0
LINE
  5
944
  8
3
 10
44.387020093952401
 20
63.638209815792841
 30
0.0
 11
44.059446883112862
 21
63.96578302663243
 31
0.0
  0
LINE
  5
945
  8
3
 10
45.075746292086592
 20
63.638209815792841
 30
0.0
 11
44.387020093952401
 21
63.638209815792841
 31
0.0
  0
LINE
  5
946
  8
3
 10
45.403319502926252
 20
63.96578302663243
 30
0.0
 11
45.075746292086592
 21
63.638209815792841
 31
0.0
  0
LINE
  5
947
  8
3
 10
42.970353427285652
 20
63.638209815792841
 30
0.0
 11
42.642780216446113
 21
63.96578302663243
 31
0.0
  0
LINE
  5
948
  8
3
 10
43.659079625419963
 20
63.638209815792841
 30
0.0
 11
42.970353427285652
 21
63.638209815792841
 31
0.0
  0
LINE
  5
949
  8
3
 10
43.986652836259623
 20
63.96578302663243
 30
0.0
 11
43.659079625419963
 21
63.638209815792841
 31
0.0
  0
LINE
  5
94A
  8
3
 10
41.55368676061903
 20
63.638209815792841
 30
0.0
 11
41.226113549779477
 21
63.96578302663243
 31
0.0
  0
LINE
  5
94B
  8
3
 10
42.242412958753327
 20
63.638209815792841
 30
0.0
 11
41.55368676061903
 21
63.638209815792841
 31
0.0
  0
LINE
  5
94C
  8
3
 10
42.56998616959288
 20
63.96578302663243
 30
0.0
 11
42.242412958753327
 21
63.638209815792841
 31
0.0
  0
LINE
  5
94D
  8
3
 10
40.137020093952401
 20
63.638209815792841
 30
0.0
 11
39.809446883112862
 21
63.96578302663243
 31
0.0
  0
LINE
  5
94E
  8
3
 10
40.825746292086592
 20
63.638209815792841
 30
0.0
 11
40.137020093952401
 21
63.638209815792841
 31
0.0
  0
LINE
  5
94F
  8
3
 10
41.153319502926252
 20
63.96578302663243
 30
0.0
 11
40.825746292086592
 21
63.638209815792841
 31
0.0
  0
LINE
  5
950
  8
3
 10
39.736652836259623
 20
63.96578302663243
 30
0.0
 11
39.582266382648299
 21
63.81139657302117
 31
0.0
  0
LINE
  5
951
  8
3
 10
48.706491139580862
 20
63.96578302663243
 30
0.0
 11
48.309446883112848
 21
63.96578302663243
 31
0.0
  0
LINE
  5
952
  8
3
 10
48.463833336723951
 20
63.81139657302117
 30
0.0
 11
48.309446883112848
 21
63.96578302663243
 31
0.0
  0
LINE
  5
953
  8
3
 10
48.309446883112848
 20
65.382449693299122
 30
0.0
 11
48.637020093952401
 21
65.710022904138668
 31
0.0
  0
LINE
  5
954
  8
3
 10
49.653319502926252
 20
65.382449693299122
 30
0.0
 11
48.309446883112848
 21
65.382449693299122
 31
0.0
  0
LINE
  5
955
  8
3
 10
49.325746292086592
 20
65.710022904138668
 30
0.0
 11
49.653319502926252
 21
65.382449693299122
 31
0.0
  0
LINE
  5
956
  8
3
 10
48.637020093952401
 20
65.710022904138668
 30
0.0
 11
49.325746292086592
 21
65.710022904138668
 31
0.0
  0
LINE
  5
957
  8
3
 10
46.892780216446113
 20
65.382449693299122
 30
0.0
 11
47.220353427285659
 21
65.710022904138668
 31
0.0
  0
LINE
  5
958
  8
3
 10
48.236652836259623
 20
65.382449693299122
 30
0.0
 11
46.892780216446113
 21
65.382449693299122
 31
0.0
  0
LINE
  5
959
  8
3
 10
47.909079625419963
 20
65.710022904138668
 30
0.0
 11
48.236652836259623
 21
65.382449693299122
 31
0.0
  0
LINE
  5
95A
  8
3
 10
47.220353427285659
 20
65.710022904138668
 30
0.0
 11
47.909079625419963
 21
65.710022904138668
 31
0.0
  0
LINE
  5
95B
  8
3
 10
45.476113549779477
 20
65.382449693299122
 30
0.0
 11
45.80368676061903
 21
65.710022904138668
 31
0.0
  0
LINE
  5
95C
  8
3
 10
46.81998616959288
 20
65.382449693299122
 30
0.0
 11
45.476113549779477
 21
65.382449693299122
 31
0.0
  0
LINE
  5
95D
  8
3
 10
46.492412958753327
 20
65.710022904138668
 30
0.0
 11
46.81998616959288
 21
65.382449693299122
 31
0.0
  0
LINE
  5
95E
  8
3
 10
45.80368676061903
 20
65.710022904138668
 30
0.0
 11
46.492412958753327
 21
65.710022904138668
 31
0.0
  0
LINE
  5
95F
  8
3
 10
44.059446883112862
 20
65.382449693299122
 30
0.0
 11
44.387020093952401
 21
65.710022904138668
 31
0.0
  0
LINE
  5
960
  8
3
 10
45.403319502926252
 20
65.382449693299122
 30
0.0
 11
44.059446883112862
 21
65.382449693299122
 31
0.0
  0
LINE
  5
961
  8
3
 10
45.075746292086592
 20
65.710022904138668
 30
0.0
 11
45.403319502926252
 21
65.382449693299122
 31
0.0
  0
LINE
  5
962
  8
3
 10
44.387020093952401
 20
65.710022904138668
 30
0.0
 11
45.075746292086592
 21
65.710022904138668
 31
0.0
  0
LINE
  5
963
  8
3
 10
42.642780216446113
 20
65.382449693299122
 30
0.0
 11
42.970353427285652
 21
65.710022904138668
 31
0.0
  0
LINE
  5
964
  8
3
 10
43.986652836259623
 20
65.382449693299122
 30
0.0
 11
42.642780216446113
 21
65.382449693299122
 31
0.0
  0
LINE
  5
965
  8
3
 10
43.659079625419963
 20
65.710022904138668
 30
0.0
 11
43.986652836259623
 21
65.382449693299122
 31
0.0
  0
LINE
  5
966
  8
3
 10
42.970353427285652
 20
65.710022904138668
 30
0.0
 11
43.659079625419963
 21
65.710022904138668
 31
0.0
  0
LINE
  5
967
  8
3
 10
41.226113549779477
 20
65.382449693299122
 30
0.0
 11
41.55368676061903
 21
65.710022904138668
 31
0.0
  0
LINE
  5
968
  8
3
 10
42.56998616959288
 20
65.382449693299122
 30
0.0
 11
41.226113549779477
 21
65.382449693299122
 31
0.0
  0
LINE
  5
969
  8
3
 10
42.242412958753327
 20
65.710022904138668
 30
0.0
 11
42.56998616959288
 21
65.382449693299122
 31
0.0
  0
LINE
  5
96A
  8
3
 10
41.55368676061903
 20
65.710022904138668
 30
0.0
 11
42.242412958753327
 21
65.710022904138668
 31
0.0
  0
LINE
  5
96B
  8
3
 10
39.809446883112862
 20
65.382449693299122
 30
0.0
 11
40.137020093952401
 21
65.710022904138668
 31
0.0
  0
LINE
  5
96C
  8
3
 10
41.153319502926252
 20
65.382449693299122
 30
0.0
 11
39.809446883112862
 21
65.382449693299122
 31
0.0
  0
LINE
  5
96D
  8
3
 10
40.825746292086592
 20
65.710022904138668
 30
0.0
 11
41.153319502926252
 21
65.382449693299122
 31
0.0
  0
LINE
  5
96E
  8
3
 10
40.137020093952401
 20
65.710022904138668
 30
0.0
 11
40.825746292086592
 21
65.710022904138668
 31
0.0
  0
LINE
  5
96F
  8
3
 10
38.392780216446113
 20
65.382449693299122
 30
0.0
 11
38.720353427285659
 21
65.710022904138668
 31
0.0
  0
LINE
  5
970
  8
3
 10
39.736652836259623
 20
65.382449693299122
 30
0.0
 11
38.392780216446113
 21
65.382449693299122
 31
0.0
  0
LINE
  5
971
  8
3
 10
39.40907962541997
 20
65.710022904138668
 30
0.0
 11
39.736652836259623
 21
65.382449693299122
 31
0.0
  0
LINE
  5
972
  8
3
 10
38.720353427285659
 20
65.710022904138668
 30
0.0
 11
39.40907962541997
 21
65.710022904138668
 31
0.0
  0
LINE
  5
973
  8
3
 10
38.31998616959288
 20
65.382449693299122
 30
0.0
 11
37.696482421054377
 21
65.382449693299122
 31
0.0
  0
LINE
  5
974
  8
3
 10
37.992412958753327
 20
65.710022904138668
 30
0.0
 11
38.31998616959288
 21
65.382449693299122
 31
0.0
  0
LINE
  5
975
  8
3
 10
37.417204024304631
 20
65.710022904138668
 30
0.0
 11
37.992412958753327
 21
65.710022904138668
 31
0.0
  0
LINE
  5
976
  8
3
 10
48.637020093952401
 20
65.05487648245952
 30
0.0
 11
48.309446883112848
 21
65.382449693299122
 31
0.0
  0
LINE
  5
977
  8
3
 10
49.325746292086592
 20
65.05487648245952
 30
0.0
 11
48.637020093952401
 21
65.05487648245952
 31
0.0
  0
LINE
  5
978
  8
3
 10
49.653319502926252
 20
65.382449693299122
 30
0.0
 11
49.325746292086592
 21
65.05487648245952
 31
0.0
  0
LINE
  5
979
  8
3
 10
47.220353427285659
 20
65.05487648245952
 30
0.0
 11
46.892780216446113
 21
65.382449693299122
 31
0.0
  0
LINE
  5
97A
  8
3
 10
47.909079625419963
 20
65.05487648245952
 30
0.0
 11
47.220353427285659
 21
65.05487648245952
 31
0.0
  0
LINE
  5
97B
  8
3
 10
48.236652836259623
 20
65.382449693299122
 30
0.0
 11
47.909079625419963
 21
65.05487648245952
 31
0.0
  0
LINE
  5
97C
  8
3
 10
45.80368676061903
 20
65.05487648245952
 30
0.0
 11
45.476113549779477
 21
65.382449693299122
 31
0.0
  0
LINE
  5
97D
  8
3
 10
46.492412958753327
 20
65.05487648245952
 30
0.0
 11
45.80368676061903
 21
65.05487648245952
 31
0.0
  0
LINE
  5
97E
  8
3
 10
46.81998616959288
 20
65.382449693299122
 30
0.0
 11
46.492412958753327
 21
65.05487648245952
 31
0.0
  0
LINE
  5
97F
  8
3
 10
44.387020093952401
 20
65.05487648245952
 30
0.0
 11
44.059446883112862
 21
65.382449693299122
 31
0.0
  0
LINE
  5
980
  8
3
 10
45.075746292086592
 20
65.05487648245952
 30
0.0
 11
44.387020093952401
 21
65.05487648245952
 31
0.0
  0
LINE
  5
981
  8
3
 10
45.403319502926252
 20
65.382449693299122
 30
0.0
 11
45.075746292086592
 21
65.05487648245952
 31
0.0
  0
LINE
  5
982
  8
3
 10
42.970353427285652
 20
65.05487648245952
 30
0.0
 11
42.642780216446113
 21
65.382449693299122
 31
0.0
  0
LINE
  5
983
  8
3
 10
43.659079625419963
 20
65.05487648245952
 30
0.0
 11
42.970353427285652
 21
65.05487648245952
 31
0.0
  0
LINE
  5
984
  8
3
 10
43.986652836259623
 20
65.382449693299122
 30
0.0
 11
43.659079625419963
 21
65.05487648245952
 31
0.0
  0
LINE
  5
985
  8
3
 10
41.55368676061903
 20
65.05487648245952
 30
0.0
 11
41.226113549779477
 21
65.382449693299122
 31
0.0
  0
LINE
  5
986
  8
3
 10
42.242412958753327
 20
65.05487648245952
 30
0.0
 11
41.55368676061903
 21
65.05487648245952
 31
0.0
  0
LINE
  5
987
  8
3
 10
42.56998616959288
 20
65.382449693299122
 30
0.0
 11
42.242412958753327
 21
65.05487648245952
 31
0.0
  0
LINE
  5
988
  8
3
 10
40.137020093952401
 20
65.05487648245952
 30
0.0
 11
39.809446883112862
 21
65.382449693299122
 31
0.0
  0
LINE
  5
989
  8
3
 10
40.825746292086592
 20
65.05487648245952
 30
0.0
 11
40.137020093952401
 21
65.05487648245952
 31
0.0
  0
LINE
  5
98A
  8
3
 10
41.153319502926252
 20
65.382449693299122
 30
0.0
 11
40.825746292086592
 21
65.05487648245952
 31
0.0
  0
LINE
  5
98B
  8
3
 10
38.720353427285659
 20
65.05487648245952
 30
0.0
 11
38.392780216446113
 21
65.382449693299122
 31
0.0
  0
LINE
  5
98C
  8
3
 10
39.40907962541997
 20
65.05487648245952
 30
0.0
 11
38.720353427285659
 21
65.05487648245952
 31
0.0
  0
LINE
  5
98D
  8
3
 10
39.736652836259623
 20
65.382449693299122
 30
0.0
 11
39.40907962541997
 21
65.05487648245952
 31
0.0
  0
LINE
  5
98E
  8
3
 10
38.31998616959288
 20
65.382449693299122
 30
0.0
 11
37.999458199493461
 21
65.061921723199646
 31
0.0
  0
LINE
  5
98F
  8
3
 10
50.349617298317867
 20
65.382449693299122
 30
0.0
 11
49.726113549779477
 21
65.382449693299122
 31
0.0
  0
LINE
  5
990
  8
3
 10
50.046641519878897
 20
65.061921723199646
 30
0.0
 11
49.726113549779477
 21
65.382449693299122
 31
0.0
  0
LINE
  5
991
  8
3
 10
49.726113549779477
 20
66.799116359965751
 30
0.0
 11
50.05368676061903
 21
67.126689570805354
 31
0.0
  0
LINE
  5
992
  8
3
 10
51.06998616959288
 20
66.799116359965751
 30
0.0
 11
49.726113549779477
 21
66.799116359965751
 31
0.0
  0
LINE
  5
993
  8
3
 10
50.742412958753327
 20
67.126689570805354
 30
0.0
 11
51.06998616959288
 21
66.799116359965751
 31
0.0
  0
LINE
  5
994
  8
3
 10
50.05368676061903
 20
67.126689570805354
 30
0.0
 11
50.742412958753327
 21
67.126689570805354
 31
0.0
  0
LINE
  5
995
  8
3
 10
48.309446883112848
 20
66.799116359965751
 30
0.0
 11
48.637020093952401
 21
67.126689570805354
 31
0.0
  0
LINE
  5
996
  8
3
 10
49.653319502926252
 20
66.799116359965751
 30
0.0
 11
48.309446883112848
 21
66.799116359965751
 31
0.0
  0
LINE
  5
997
  8
3
 10
49.325746292086592
 20
67.126689570805354
 30
0.0
 11
49.653319502926252
 21
66.799116359965751
 31
0.0
  0
LINE
  5
998
  8
3
 10
48.637020093952401
 20
67.126689570805354
 30
0.0
 11
49.325746292086592
 21
67.126689570805354
 31
0.0
  0
LINE
  5
999
  8
3
 10
46.892780216446113
 20
66.799116359965751
 30
0.0
 11
47.220353427285659
 21
67.126689570805354
 31
0.0
  0
LINE
  5
99A
  8
3
 10
48.236652836259623
 20
66.799116359965751
 30
0.0
 11
46.892780216446113
 21
66.799116359965751
 31
0.0
  0
LINE
  5
99B
  8
3
 10
47.909079625419963
 20
67.126689570805354
 30
0.0
 11
48.236652836259623
 21
66.799116359965751
 31
0.0
  0
LINE
  5
99C
  8
3
 10
47.220353427285659
 20
67.126689570805354
 30
0.0
 11
47.909079625419963
 21
67.126689570805354
 31
0.0
  0
LINE
  5
99D
  8
3
 10
45.476113549779477
 20
66.799116359965751
 30
0.0
 11
45.80368676061903
 21
67.126689570805354
 31
0.0
  0
LINE
  5
99E
  8
3
 10
46.81998616959288
 20
66.799116359965751
 30
0.0
 11
45.476113549779477
 21
66.799116359965751
 31
0.0
  0
LINE
  5
99F
  8
3
 10
46.492412958753327
 20
67.126689570805354
 30
0.0
 11
46.81998616959288
 21
66.799116359965751
 31
0.0
  0
LINE
  5
9A0
  8
3
 10
45.80368676061903
 20
67.126689570805354
 30
0.0
 11
46.492412958753327
 21
67.126689570805354
 31
0.0
  0
LINE
  5
9A1
  8
3
 10
44.059446883112862
 20
66.799116359965751
 30
0.0
 11
44.387020093952401
 21
67.126689570805354
 31
0.0
  0
LINE
  5
9A2
  8
3
 10
45.403319502926252
 20
66.799116359965751
 30
0.0
 11
44.059446883112862
 21
66.799116359965751
 31
0.0
  0
LINE
  5
9A3
  8
3
 10
45.075746292086592
 20
67.126689570805354
 30
0.0
 11
45.403319502926252
 21
66.799116359965751
 31
0.0
  0
LINE
  5
9A4
  8
3
 10
44.387020093952401
 20
67.126689570805354
 30
0.0
 11
45.075746292086592
 21
67.126689570805354
 31
0.0
  0
LINE
  5
9A5
  8
3
 10
42.642780216446113
 20
66.799116359965751
 30
0.0
 11
42.970353427285652
 21
67.126689570805354
 31
0.0
  0
LINE
  5
9A6
  8
3
 10
43.986652836259623
 20
66.799116359965751
 30
0.0
 11
42.642780216446113
 21
66.799116359965751
 31
0.0
  0
LINE
  5
9A7
  8
3
 10
43.659079625419963
 20
67.126689570805354
 30
0.0
 11
43.986652836259623
 21
66.799116359965751
 31
0.0
  0
LINE
  5
9A8
  8
3
 10
42.970353427285652
 20
67.126689570805354
 30
0.0
 11
43.659079625419963
 21
67.126689570805354
 31
0.0
  0
LINE
  5
9A9
  8
3
 10
41.226113549779477
 20
66.799116359965751
 30
0.0
 11
41.55368676061903
 21
67.126689570805354
 31
0.0
  0
LINE
  5
9AA
  8
3
 10
42.56998616959288
 20
66.799116359965751
 30
0.0
 11
41.226113549779477
 21
66.799116359965751
 31
0.0
  0
LINE
  5
9AB
  8
3
 10
42.242412958753327
 20
67.126689570805354
 30
0.0
 11
42.56998616959288
 21
66.799116359965751
 31
0.0
  0
LINE
  5
9AC
  8
3
 10
41.55368676061903
 20
67.126689570805354
 30
0.0
 11
42.242412958753327
 21
67.126689570805354
 31
0.0
  0
LINE
  5
9AD
  8
3
 10
39.809446883112862
 20
66.799116359965751
 30
0.0
 11
40.137020093952401
 21
67.126689570805354
 31
0.0
  0
LINE
  5
9AE
  8
3
 10
41.153319502926252
 20
66.799116359965751
 30
0.0
 11
39.809446883112862
 21
66.799116359965751
 31
0.0
  0
LINE
  5
9AF
  8
3
 10
40.825746292086592
 20
67.126689570805354
 30
0.0
 11
41.153319502926252
 21
66.799116359965751
 31
0.0
  0
LINE
  5
9B0
  8
3
 10
40.137020093952401
 20
67.126689570805354
 30
0.0
 11
40.825746292086592
 21
67.126689570805354
 31
0.0
  0
LINE
  5
9B1
  8
3
 10
38.392780216446113
 20
66.799116359965751
 30
0.0
 11
38.720353427285659
 21
67.126689570805354
 31
0.0
  0
LINE
  5
9B2
  8
3
 10
39.736652836259623
 20
66.799116359965751
 30
0.0
 11
38.392780216446113
 21
66.799116359965751
 31
0.0
  0
LINE
  5
9B3
  8
3
 10
39.40907962541997
 20
67.126689570805354
 30
0.0
 11
39.736652836259623
 21
66.799116359965751
 31
0.0
  0
LINE
  5
9B4
  8
3
 10
38.720353427285659
 20
67.126689570805354
 30
0.0
 11
39.40907962541997
 21
67.126689570805354
 31
0.0
  0
LINE
  5
9B5
  8
3
 10
36.976113549779491
 20
66.799116359965751
 30
0.0
 11
37.30368676061903
 21
67.126689570805354
 31
0.0
  0
LINE
  5
9B6
  8
3
 10
38.31998616959288
 20
66.799116359965751
 30
0.0
 11
36.976113549779491
 21
66.799116359965751
 31
0.0
  0
LINE
  5
9B7
  8
3
 10
37.992412958753327
 20
67.126689570805354
 30
0.0
 11
38.31998616959288
 21
66.799116359965751
 31
0.0
  0
LINE
  5
9B8
  8
3
 10
37.30368676061903
 20
67.126689570805354
 30
0.0
 11
37.992412958753327
 21
67.126689570805354
 31
0.0
  0
LINE
  5
9B9
  8
3
 10
36.903319502926252
 20
66.799116359965751
 30
0.0
 11
36.667616493799407
 21
66.799116359965751
 31
0.0
  0
LINE
  5
9BA
  8
3
 10
36.575746292086592
 20
67.126689570805354
 30
0.0
 11
36.903319502926252
 21
66.799116359965751
 31
0.0
  0
LINE
  5
9BB
  8
3
 10
36.487399950893057
 20
67.126689570805354
 30
0.0
 11
36.575746292086592
 21
67.126689570805354
 31
0.0
  0
LINE
  5
9BC
  8
3
 10
50.05368676061903
 20
66.471543149126205
 30
0.0
 11
49.726113549779477
 21
66.799116359965751
 31
0.0
  0
LINE
  5
9BD
  8
3
 10
50.742412958753327
 20
66.471543149126205
 30
0.0
 11
50.05368676061903
 21
66.471543149126205
 31
0.0
  0
LINE
  5
9BE
  8
3
 10
51.06998616959288
 20
66.799116359965751
 30
0.0
 11
50.742412958753327
 21
66.471543149126205
 31
0.0
  0
LINE
  5
9BF
  8
3
 10
48.637020093952401
 20
66.471543149126205
 30
0.0
 11
48.309446883112848
 21
66.799116359965751
 31
0.0
  0
LINE
  5
9C0
  8
3
 10
49.325746292086592
 20
66.471543149126205
 30
0.0
 11
48.637020093952401
 21
66.471543149126205
 31
0.0
  0
LINE
  5
9C1
  8
3
 10
49.653319502926252
 20
66.799116359965751
 30
0.0
 11
49.325746292086592
 21
66.471543149126205
 31
0.0
  0
LINE
  5
9C2
  8
3
 10
47.220353427285659
 20
66.471543149126205
 30
0.0
 11
46.892780216446113
 21
66.799116359965751
 31
0.0
  0
LINE
  5
9C3
  8
3
 10
47.909079625419963
 20
66.471543149126205
 30
0.0
 11
47.220353427285659
 21
66.471543149126205
 31
0.0
  0
LINE
  5
9C4
  8
3
 10
48.236652836259623
 20
66.799116359965751
 30
0.0
 11
47.909079625419963
 21
66.471543149126205
 31
0.0
  0
LINE
  5
9C5
  8
3
 10
45.80368676061903
 20
66.471543149126205
 30
0.0
 11
45.476113549779477
 21
66.799116359965751
 31
0.0
  0
LINE
  5
9C6
  8
3
 10
46.492412958753327
 20
66.471543149126205
 30
0.0
 11
45.80368676061903
 21
66.471543149126205
 31
0.0
  0
LINE
  5
9C7
  8
3
 10
46.81998616959288
 20
66.799116359965751
 30
0.0
 11
46.492412958753327
 21
66.471543149126205
 31
0.0
  0
LINE
  5
9C8
  8
3
 10
44.387020093952401
 20
66.471543149126205
 30
0.0
 11
44.059446883112862
 21
66.799116359965751
 31
0.0
  0
LINE
  5
9C9
  8
3
 10
45.075746292086592
 20
66.471543149126205
 30
0.0
 11
44.387020093952401
 21
66.471543149126205
 31
0.0
  0
LINE
  5
9CA
  8
3
 10
45.403319502926252
 20
66.799116359965751
 30
0.0
 11
45.075746292086592
 21
66.471543149126205
 31
0.0
  0
LINE
  5
9CB
  8
3
 10
42.970353427285652
 20
66.471543149126205
 30
0.0
 11
42.642780216446113
 21
66.799116359965751
 31
0.0
  0
LINE
  5
9CC
  8
3
 10
43.659079625419963
 20
66.471543149126205
 30
0.0
 11
42.970353427285652
 21
66.471543149126205
 31
0.0
  0
LINE
  5
9CD
  8
3
 10
43.986652836259623
 20
66.799116359965751
 30
0.0
 11
43.659079625419963
 21
66.471543149126205
 31
0.0
  0
LINE
  5
9CE
  8
3
 10
41.55368676061903
 20
66.471543149126205
 30
0.0
 11
41.226113549779477
 21
66.799116359965751
 31
0.0
  0
LINE
  5
9CF
  8
3
 10
42.242412958753327
 20
66.471543149126205
 30
0.0
 11
41.55368676061903
 21
66.471543149126205
 31
0.0
  0
LINE
  5
9D0
  8
3
 10
42.56998616959288
 20
66.799116359965751
 30
0.0
 11
42.242412958753327
 21
66.471543149126205
 31
0.0
  0
LINE
  5
9D1
  8
3
 10
40.137020093952401
 20
66.471543149126205
 30
0.0
 11
39.809446883112862
 21
66.799116359965751
 31
0.0
  0
LINE
  5
9D2
  8
3
 10
40.825746292086592
 20
66.471543149126205
 30
0.0
 11
40.137020093952401
 21
66.471543149126205
 31
0.0
  0
LINE
  5
9D3
  8
3
 10
41.153319502926252
 20
66.799116359965751
 30
0.0
 11
40.825746292086592
 21
66.471543149126205
 31
0.0
  0
LINE
  5
9D4
  8
3
 10
38.720353427285659
 20
66.471543149126205
 30
0.0
 11
38.392780216446113
 21
66.799116359965751
 31
0.0
  0
LINE
  5
9D5
  8
3
 10
39.40907962541997
 20
66.471543149126205
 30
0.0
 11
38.720353427285659
 21
66.471543149126205
 31
0.0
  0
LINE
  5
9D6
  8
3
 10
39.736652836259623
 20
66.799116359965751
 30
0.0
 11
39.40907962541997
 21
66.471543149126205
 31
0.0
  0
LINE
  5
9D7
  8
3
 10
37.30368676061903
 20
66.471543149126205
 30
0.0
 11
36.976113549779491
 21
66.799116359965751
 31
0.0
  0
LINE
  5
9D8
  8
3
 10
37.992412958753327
 20
66.471543149126205
 30
0.0
 11
37.30368676061903
 21
66.471543149126205
 31
0.0
  0
LINE
  5
9D9
  8
3
 10
38.31998616959288
 20
66.799116359965751
 30
0.0
 11
37.992412958753327
 21
66.471543149126205
 31
0.0
  0
LINE
  5
9DA
  8
3
 10
36.903319502926252
 20
66.799116359965751
 30
0.0
 11
36.755335285196679
 21
66.651132142236179
 31
0.0
  0
LINE
  5
9DB
  8
3
 10
51.37848322557295
 20
66.799116359965751
 30
0.0
 11
51.142780216446113
 21
66.799116359965751
 31
0.0
  0
LINE
  5
9DC
  8
3
 10
51.290764434175678
 20
66.651132142236179
 30
0.0
 11
51.142780216446113
 21
66.799116359965751
 31
0.0
  0
LINE
  5
9DD
  8
3
 10
49.726113549779477
 20
68.215783026632437
 30
0.0
 11
50.05368676061903
 21
68.543356237472025
 31
0.0
  0
LINE
  5
9DE
  8
3
 10
51.06998616959288
 20
68.215783026632437
 30
0.0
 11
49.726113549779477
 21
68.215783026632437
 31
0.0
  0
LINE
  5
9DF
  8
3
 10
50.742412958753327
 20
68.543356237472025
 30
0.0
 11
51.06998616959288
 21
68.215783026632437
 31
0.0
  0
LINE
  5
9E0
  8
3
 10
50.05368676061903
 20
68.543356237472025
 30
0.0
 11
50.742412958753327
 21
68.543356237472025
 31
0.0
  0
LINE
  5
9E1
  8
3
 10
48.309446883112848
 20
68.215783026632437
 30
0.0
 11
48.637020093952401
 21
68.543356237472025
 31
0.0
  0
LINE
  5
9E2
  8
3
 10
49.653319502926252
 20
68.215783026632437
 30
0.0
 11
48.309446883112848
 21
68.215783026632437
 31
0.0
  0
LINE
  5
9E3
  8
3
 10
49.325746292086592
 20
68.543356237472025
 30
0.0
 11
49.653319502926252
 21
68.215783026632437
 31
0.0
  0
LINE
  5
9E4
  8
3
 10
48.637020093952401
 20
68.543356237472025
 30
0.0
 11
49.325746292086592
 21
68.543356237472025
 31
0.0
  0
LINE
  5
9E5
  8
3
 10
46.892780216446113
 20
68.215783026632437
 30
0.0
 11
47.220353427285659
 21
68.543356237472025
 31
0.0
  0
LINE
  5
9E6
  8
3
 10
48.236652836259623
 20
68.215783026632437
 30
0.0
 11
46.892780216446113
 21
68.215783026632437
 31
0.0
  0
LINE
  5
9E7
  8
3
 10
47.909079625419963
 20
68.543356237472025
 30
0.0
 11
48.236652836259623
 21
68.215783026632437
 31
0.0
  0
LINE
  5
9E8
  8
3
 10
47.220353427285659
 20
68.543356237472025
 30
0.0
 11
47.909079625419963
 21
68.543356237472025
 31
0.0
  0
LINE
  5
9E9
  8
3
 10
45.476113549779477
 20
68.215783026632437
 30
0.0
 11
45.80368676061903
 21
68.543356237472025
 31
0.0
  0
LINE
  5
9EA
  8
3
 10
46.81998616959288
 20
68.215783026632437
 30
0.0
 11
45.476113549779477
 21
68.215783026632437
 31
0.0
  0
LINE
  5
9EB
  8
3
 10
46.492412958753327
 20
68.543356237472025
 30
0.0
 11
46.81998616959288
 21
68.215783026632437
 31
0.0
  0
LINE
  5
9EC
  8
3
 10
45.80368676061903
 20
68.543356237472025
 30
0.0
 11
46.492412958753327
 21
68.543356237472025
 31
0.0
  0
LINE
  5
9ED
  8
3
 10
44.059446883112862
 20
68.215783026632437
 30
0.0
 11
44.387020093952401
 21
68.543356237472025
 31
0.0
  0
LINE
  5
9EE
  8
3
 10
45.403319502926252
 20
68.215783026632437
 30
0.0
 11
44.059446883112862
 21
68.215783026632437
 31
0.0
  0
LINE
  5
9EF
  8
3
 10
45.075746292086592
 20
68.543356237472025
 30
0.0
 11
45.403319502926252
 21
68.215783026632437
 31
0.0
  0
LINE
  5
9F0
  8
3
 10
44.387020093952401
 20
68.543356237472025
 30
0.0
 11
45.075746292086592
 21
68.543356237472025
 31
0.0
  0
LINE
  5
9F1
  8
3
 10
42.642780216446113
 20
68.215783026632437
 30
0.0
 11
42.970353427285652
 21
68.543356237472025
 31
0.0
  0
LINE
  5
9F2
  8
3
 10
43.986652836259623
 20
68.215783026632437
 30
0.0
 11
42.642780216446113
 21
68.215783026632437
 31
0.0
  0
LINE
  5
9F3
  8
3
 10
43.659079625419963
 20
68.543356237472025
 30
0.0
 11
43.986652836259623
 21
68.215783026632437
 31
0.0
  0
LINE
  5
9F4
  8
3
 10
42.970353427285652
 20
68.543356237472025
 30
0.0
 11
43.659079625419963
 21
68.543356237472025
 31
0.0
  0
LINE
  5
9F5
  8
3
 10
41.226113549779477
 20
68.215783026632437
 30
0.0
 11
41.55368676061903
 21
68.543356237472025
 31
0.0
  0
LINE
  5
9F6
  8
3
 10
42.56998616959288
 20
68.215783026632437
 30
0.0
 11
41.226113549779477
 21
68.215783026632437
 31
0.0
  0
LINE
  5
9F7
  8
3
 10
42.242412958753327
 20
68.543356237472025
 30
0.0
 11
42.56998616959288
 21
68.215783026632437
 31
0.0
  0
LINE
  5
9F8
  8
3
 10
41.55368676061903
 20
68.543356237472025
 30
0.0
 11
42.242412958753327
 21
68.543356237472025
 31
0.0
  0
LINE
  5
9F9
  8
3
 10
39.809446883112862
 20
68.215783026632437
 30
0.0
 11
40.137020093952401
 21
68.543356237472025
 31
0.0
  0
LINE
  5
9FA
  8
3
 10
41.153319502926252
 20
68.215783026632437
 30
0.0
 11
39.809446883112862
 21
68.215783026632437
 31
0.0
  0
LINE
  5
9FB
  8
3
 10
40.825746292086592
 20
68.543356237472025
 30
0.0
 11
41.153319502926252
 21
68.215783026632437
 31
0.0
  0
LINE
  5
9FC
  8
3
 10
40.137020093952401
 20
68.543356237472025
 30
0.0
 11
40.825746292086592
 21
68.543356237472025
 31
0.0
  0
LINE
  5
9FD
  8
3
 10
38.392780216446113
 20
68.215783026632437
 30
0.0
 11
38.720353427285659
 21
68.543356237472025
 31
0.0
  0
LINE
  5
9FE
  8
3
 10
39.736652836259623
 20
68.215783026632437
 30
0.0
 11
38.392780216446113
 21
68.215783026632437
 31
0.0
  0
LINE
  5
9FF
  8
3
 10
39.40907962541997
 20
68.543356237472025
 30
0.0
 11
39.736652836259623
 21
68.215783026632437
 31
0.0
  0
LINE
  5
A00
  8
3
 10
38.720353427285659
 20
68.543356237472025
 30
0.0
 11
39.40907962541997
 21
68.543356237472025
 31
0.0
  0
LINE
  5
A01
  8
3
 10
36.976113549779491
 20
68.215783026632437
 30
0.0
 11
37.30368676061903
 21
68.543356237472025
 31
0.0
  0
LINE
  5
A02
  8
3
 10
38.31998616959288
 20
68.215783026632437
 30
0.0
 11
36.976113549779491
 21
68.215783026632437
 31
0.0
  0
LINE
  5
A03
  8
3
 10
37.992412958753327
 20
68.543356237472025
 30
0.0
 11
38.31998616959288
 21
68.215783026632437
 31
0.0
  0
LINE
  5
A04
  8
3
 10
37.30368676061903
 20
68.543356237472025
 30
0.0
 11
37.992412958753327
 21
68.543356237472025
 31
0.0
  0
LINE
  5
A05
  8
3
 10
36.903319502926252
 20
68.215783026632437
 30
0.0
 11
36.012715562320302
 21
68.215783026632437
 31
0.0
  0
LINE
  5
A06
  8
3
 10
36.575746292086592
 20
68.543356237472025
 30
0.0
 11
36.903319502926252
 21
68.215783026632437
 31
0.0
  0
LINE
  5
A07
  8
3
 10
35.903878041940857
 20
68.543356237472025
 30
0.0
 11
36.575746292086592
 21
68.543356237472025
 31
0.0
  0
LINE
  5
A08
  8
3
 10
50.05368676061903
 20
67.888209815792834
 30
0.0
 11
49.726113549779477
 21
68.215783026632437
 31
0.0
  0
LINE
  5
A09
  8
3
 10
50.742412958753327
 20
67.888209815792834
 30
0.0
 11
50.05368676061903
 21
67.888209815792834
 31
0.0
  0
LINE
  5
A0A
  8
3
 10
51.06998616959288
 20
68.215783026632437
 30
0.0
 11
50.742412958753327
 21
67.888209815792834
 31
0.0
  0
LINE
  5
A0B
  8
3
 10
48.637020093952401
 20
67.888209815792834
 30
0.0
 11
48.309446883112848
 21
68.215783026632437
 31
0.0
  0
LINE
  5
A0C
  8
3
 10
49.325746292086592
 20
67.888209815792834
 30
0.0
 11
48.637020093952401
 21
67.888209815792834
 31
0.0
  0
LINE
  5
A0D
  8
3
 10
49.653319502926252
 20
68.215783026632437
 30
0.0
 11
49.325746292086592
 21
67.888209815792834
 31
0.0
  0
LINE
  5
A0E
  8
3
 10
47.220353427285659
 20
67.888209815792834
 30
0.0
 11
46.892780216446113
 21
68.215783026632437
 31
0.0
  0
LINE
  5
A0F
  8
3
 10
47.909079625419963
 20
67.888209815792834
 30
0.0
 11
47.220353427285659
 21
67.888209815792834
 31
0.0
  0
LINE
  5
A10
  8
3
 10
48.236652836259623
 20
68.215783026632437
 30
0.0
 11
47.909079625419963
 21
67.888209815792834
 31
0.0
  0
LINE
  5
A11
  8
3
 10
45.80368676061903
 20
67.888209815792834
 30
0.0
 11
45.476113549779477
 21
68.215783026632437
 31
0.0
  0
LINE
  5
A12
  8
3
 10
46.492412958753327
 20
67.888209815792834
 30
0.0
 11
45.80368676061903
 21
67.888209815792834
 31
0.0
  0
LINE
  5
A13
  8
3
 10
46.81998616959288
 20
68.215783026632437
 30
0.0
 11
46.492412958753327
 21
67.888209815792834
 31
0.0
  0
LINE
  5
A14
  8
3
 10
44.387020093952401
 20
67.888209815792834
 30
0.0
 11
44.059446883112862
 21
68.215783026632437
 31
0.0
  0
LINE
  5
A15
  8
3
 10
45.075746292086592
 20
67.888209815792834
 30
0.0
 11
44.387020093952401
 21
67.888209815792834
 31
0.0
  0
LINE
  5
A16
  8
3
 10
45.403319502926252
 20
68.215783026632437
 30
0.0
 11
45.075746292086592
 21
67.888209815792834
 31
0.0
  0
LINE
  5
A17
  8
3
 10
42.970353427285652
 20
67.888209815792834
 30
0.0
 11
42.642780216446113
 21
68.215783026632437
 31
0.0
  0
LINE
  5
A18
  8
3
 10
43.659079625419963
 20
67.888209815792834
 30
0.0
 11
42.970353427285652
 21
67.888209815792834
 31
0.0
  0
LINE
  5
A19
  8
3
 10
43.986652836259623
 20
68.215783026632437
 30
0.0
 11
43.659079625419963
 21
67.888209815792834
 31
0.0
  0
LINE
  5
A1A
  8
3
 10
41.55368676061903
 20
67.888209815792834
 30
0.0
 11
41.226113549779477
 21
68.215783026632437
 31
0.0
  0
LINE
  5
A1B
  8
3
 10
42.242412958753327
 20
67.888209815792834
 30
0.0
 11
41.55368676061903
 21
67.888209815792834
 31
0.0
  0
LINE
  5
A1C
  8
3
 10
42.56998616959288
 20
68.215783026632437
 30
0.0
 11
42.242412958753327
 21
67.888209815792834
 31
0.0
  0
LINE
  5
A1D
  8
3
 10
40.137020093952401
 20
67.888209815792834
 30
0.0
 11
39.809446883112862
 21
68.215783026632437
 31
0.0
  0
LINE
  5
A1E
  8
3
 10
40.825746292086592
 20
67.888209815792834
 30
0.0
 11
40.137020093952401
 21
67.888209815792834
 31
0.0
  0
LINE
  5
A1F
  8
3
 10
41.153319502926252
 20
68.215783026632437
 30
0.0
 11
40.825746292086592
 21
67.888209815792834
 31
0.0
  0
LINE
  5
A20
  8
3
 10
38.720353427285659
 20
67.888209815792834
 30
0.0
 11
38.392780216446113
 21
68.215783026632437
 31
0.0
  0
LINE
  5
A21
  8
3
 10
39.40907962541997
 20
67.888209815792834
 30
0.0
 11
38.720353427285659
 21
67.888209815792834
 31
0.0
  0
LINE
  5
A22
  8
3
 10
39.736652836259623
 20
68.215783026632437
 30
0.0
 11
39.40907962541997
 21
67.888209815792834
 31
0.0
  0
LINE
  5
A23
  8
3
 10
37.30368676061903
 20
67.888209815792834
 30
0.0
 11
36.976113549779491
 21
68.215783026632437
 31
0.0
  0
LINE
  5
A24
  8
3
 10
37.992412958753327
 20
67.888209815792834
 30
0.0
 11
37.30368676061903
 21
67.888209815792834
 31
0.0
  0
LINE
  5
A25
  8
3
 10
38.31998616959288
 20
68.215783026632437
 30
0.0
 11
37.992412958753327
 21
67.888209815792834
 31
0.0
  0
LINE
  5
A26
  8
3
 10
36.575746292086592
 20
67.888209815792834
 30
0.0
 11
36.136646897110609
 21
67.888209815792834
 31
0.0
  0
LINE
  5
A27
  8
3
 10
36.903319502926252
 20
68.215783026632437
 30
0.0
 11
36.575746292086592
 21
67.888209815792834
 31
0.0
  0
LINE
  5
A28
  8
3
 10
52.033384157051962
 20
68.215783026632437
 30
0.0
 11
51.142780216446113
 21
68.215783026632437
 31
0.0
  0
LINE
  5
A29
  8
3
 10
51.470353427285659
 20
67.888209815792834
 30
0.0
 11
51.142780216446113
 21
68.215783026632437
 31
0.0
  0
LINE
  5
A2A
  8
3
 10
51.909452822261869
 20
67.888209815792834
 30
0.0
 11
51.470353427285659
 21
67.888209815792834
 31
0.0
  0
LINE
  5
A2B
  8
3
 10
36.903319502926252
 20
69.632449693299122
 30
0.0
 11
36.575746292086592
 21
69.30487648245952
 31
0.0
  0
LINE
  5
A2C
  8
3
 10
36.903319502926252
 20
69.632449693299122
 30
0.0
 11
35.643633279623941
 21
69.632449693299122
 31
0.0
  0
LINE
  5
A2D
  8
3
 10
35.887020093952401
 20
69.30487648245952
 30
0.0
 11
35.661682962225662
 21
69.530213614186195
 31
0.0
  0
LINE
  5
A2E
  8
3
 10
36.575746292086592
 20
69.30487648245952
 30
0.0
 11
35.887020093952401
 21
69.30487648245952
 31
0.0
  0
LINE
  5
A2F
  8
3
 10
51.470353427285659
 20
69.30487648245952
 30
0.0
 11
51.142780216446113
 21
69.632449693299122
 31
0.0
  0
LINE
  5
A30
  8
3
 10
52.159079625419963
 20
69.30487648245952
 30
0.0
 11
51.470353427285659
 21
69.30487648245952
 31
0.0
  0
LINE
  5
A31
  8
3
 10
52.384416757146603
 20
69.530213614186195
 30
0.0
 11
52.159079625419963
 21
69.30487648245952
 31
0.0
  0
LINE
  5
A32
  8
3
 10
52.402466439748423
 20
69.632449693299122
 30
0.0
 11
51.142780216446113
 21
69.632449693299122
 31
0.0
  0
LINE
  5
A33
  8
3
 10
50.05368676061903
 20
69.30487648245952
 30
0.0
 11
49.726113549779477
 21
69.632449693299122
 31
0.0
  0
LINE
  5
A34
  8
3
 10
50.742412958753327
 20
69.30487648245952
 30
0.0
 11
50.05368676061903
 21
69.30487648245952
 31
0.0
  0
LINE
  5
A35
  8
3
 10
51.06998616959288
 20
69.632449693299122
 30
0.0
 11
50.742412958753327
 21
69.30487648245952
 31
0.0
  0
LINE
  5
A36
  8
3
 10
51.06998616959288
 20
69.632449693299122
 30
0.0
 11
49.726113549779477
 21
69.632449693299122
 31
0.0
  0
LINE
  5
A37
  8
3
 10
48.637020093952401
 20
69.30487648245952
 30
0.0
 11
48.309446883112848
 21
69.632449693299122
 31
0.0
  0
LINE
  5
A38
  8
3
 10
49.325746292086592
 20
69.30487648245952
 30
0.0
 11
48.637020093952401
 21
69.30487648245952
 31
0.0
  0
LINE
  5
A39
  8
3
 10
49.653319502926252
 20
69.632449693299122
 30
0.0
 11
49.325746292086592
 21
69.30487648245952
 31
0.0
  0
LINE
  5
A3A
  8
3
 10
49.653319502926252
 20
69.632449693299122
 30
0.0
 11
48.309446883112848
 21
69.632449693299122
 31
0.0
  0
LINE
  5
A3B
  8
3
 10
47.220353427285659
 20
69.30487648245952
 30
0.0
 11
46.892780216446113
 21
69.632449693299122
 31
0.0
  0
LINE
  5
A3C
  8
3
 10
47.909079625419963
 20
69.30487648245952
 30
0.0
 11
47.220353427285659
 21
69.30487648245952
 31
0.0
  0
LINE
  5
A3D
  8
3
 10
48.236652836259623
 20
69.632449693299122
 30
0.0
 11
47.909079625419963
 21
69.30487648245952
 31
0.0
  0
LINE
  5
A3E
  8
3
 10
48.236652836259623
 20
69.632449693299122
 30
0.0
 11
46.892780216446113
 21
69.632449693299122
 31
0.0
  0
LINE
  5
A3F
  8
3
 10
45.80368676061903
 20
69.30487648245952
 30
0.0
 11
45.476113549779477
 21
69.632449693299122
 31
0.0
  0
LINE
  5
A40
  8
3
 10
46.492412958753327
 20
69.30487648245952
 30
0.0
 11
45.80368676061903
 21
69.30487648245952
 31
0.0
  0
LINE
  5
A41
  8
3
 10
46.81998616959288
 20
69.632449693299122
 30
0.0
 11
46.492412958753327
 21
69.30487648245952
 31
0.0
  0
LINE
  5
A42
  8
3
 10
46.81998616959288
 20
69.632449693299122
 30
0.0
 11
45.476113549779477
 21
69.632449693299122
 31
0.0
  0
LINE
  5
A43
  8
3
 10
44.387020093952401
 20
69.30487648245952
 30
0.0
 11
44.059446883112862
 21
69.632449693299122
 31
0.0
  0
LINE
  5
A44
  8
3
 10
45.075746292086592
 20
69.30487648245952
 30
0.0
 11
44.387020093952401
 21
69.30487648245952
 31
0.0
  0
LINE
  5
A45
  8
3
 10
45.403319502926252
 20
69.632449693299122
 30
0.0
 11
45.075746292086592
 21
69.30487648245952
 31
0.0
  0
LINE
  5
A46
  8
3
 10
45.403319502926252
 20
69.632449693299122
 30
0.0
 11
44.059446883112862
 21
69.632449693299122
 31
0.0
  0
LINE
  5
A47
  8
3
 10
42.970353427285652
 20
69.30487648245952
 30
0.0
 11
42.642780216446113
 21
69.632449693299122
 31
0.0
  0
LINE
  5
A48
  8
3
 10
43.659079625419963
 20
69.30487648245952
 30
0.0
 11
42.970353427285652
 21
69.30487648245952
 31
0.0
  0
LINE
  5
A49
  8
3
 10
43.986652836259623
 20
69.632449693299122
 30
0.0
 11
43.659079625419963
 21
69.30487648245952
 31
0.0
  0
LINE
  5
A4A
  8
3
 10
43.986652836259623
 20
69.632449693299122
 30
0.0
 11
42.642780216446113
 21
69.632449693299122
 31
0.0
  0
LINE
  5
A4B
  8
3
 10
41.55368676061903
 20
69.30487648245952
 30
0.0
 11
41.226113549779477
 21
69.632449693299122
 31
0.0
  0
LINE
  5
A4C
  8
3
 10
42.242412958753327
 20
69.30487648245952
 30
0.0
 11
41.55368676061903
 21
69.30487648245952
 31
0.0
  0
LINE
  5
A4D
  8
3
 10
42.56998616959288
 20
69.632449693299122
 30
0.0
 11
42.242412958753327
 21
69.30487648245952
 31
0.0
  0
LINE
  5
A4E
  8
3
 10
42.56998616959288
 20
69.632449693299122
 30
0.0
 11
41.226113549779477
 21
69.632449693299122
 31
0.0
  0
LINE
  5
A4F
  8
3
 10
40.137020093952401
 20
69.30487648245952
 30
0.0
 11
39.809446883112862
 21
69.632449693299122
 31
0.0
  0
LINE
  5
A50
  8
3
 10
40.825746292086592
 20
69.30487648245952
 30
0.0
 11
40.137020093952401
 21
69.30487648245952
 31
0.0
  0
LINE
  5
A51
  8
3
 10
41.153319502926252
 20
69.632449693299122
 30
0.0
 11
40.825746292086592
 21
69.30487648245952
 31
0.0
  0
LINE
  5
A52
  8
3
 10
41.153319502926252
 20
69.632449693299122
 30
0.0
 11
39.809446883112862
 21
69.632449693299122
 31
0.0
  0
LINE
  5
A53
  8
3
 10
38.720353427285659
 20
69.30487648245952
 30
0.0
 11
38.392780216446113
 21
69.632449693299122
 31
0.0
  0
LINE
  5
A54
  8
3
 10
39.40907962541997
 20
69.30487648245952
 30
0.0
 11
38.720353427285659
 21
69.30487648245952
 31
0.0
  0
LINE
  5
A55
  8
3
 10
39.736652836259623
 20
69.632449693299122
 30
0.0
 11
39.40907962541997
 21
69.30487648245952
 31
0.0
  0
LINE
  5
A56
  8
3
 10
39.736652836259623
 20
69.632449693299122
 30
0.0
 11
38.392780216446113
 21
69.632449693299122
 31
0.0
  0
LINE
  5
A57
  8
3
 10
38.392780216446113
 20
69.632449693299122
 30
0.0
 11
38.720353427285659
 21
69.960022904138668
 31
0.0
  0
LINE
  5
A58
  8
3
 10
39.40907962541997
 20
69.960022904138668
 30
0.0
 11
39.736652836259623
 21
69.632449693299122
 31
0.0
  0
LINE
  5
A59
  8
3
 10
38.720353427285659
 20
69.960022904138668
 30
0.0
 11
39.40907962541997
 21
69.960022904138668
 31
0.0
  0
LINE
  5
A5A
  8
3
 10
39.809446883112862
 20
69.632449693299122
 30
0.0
 11
40.137020093952401
 21
69.960022904138668
 31
0.0
  0
LINE
  5
A5B
  8
3
 10
40.825746292086592
 20
69.960022904138668
 30
0.0
 11
41.153319502926252
 21
69.632449693299122
 31
0.0
  0
LINE
  5
A5C
  8
3
 10
40.137020093952401
 20
69.960022904138668
 30
0.0
 11
40.825746292086592
 21
69.960022904138668
 31
0.0
  0
LINE
  5
A5D
  8
3
 10
41.226113549779477
 20
69.632449693299122
 30
0.0
 11
41.55368676061903
 21
69.960022904138668
 31
0.0
  0
LINE
  5
A5E
  8
3
 10
42.242412958753327
 20
69.960022904138668
 30
0.0
 11
42.56998616959288
 21
69.632449693299122
 31
0.0
  0
LINE
  5
A5F
  8
3
 10
41.55368676061903
 20
69.960022904138668
 30
0.0
 11
42.242412958753327
 21
69.960022904138668
 31
0.0
  0
LINE
  5
A60
  8
3
 10
42.642780216446113
 20
69.632449693299122
 30
0.0
 11
42.970353427285652
 21
69.960022904138668
 31
0.0
  0
LINE
  5
A61
  8
3
 10
43.659079625419963
 20
69.960022904138668
 30
0.0
 11
43.986652836259623
 21
69.632449693299122
 31
0.0
  0
LINE
  5
A62
  8
3
 10
42.970353427285652
 20
69.960022904138668
 30
0.0
 11
43.659079625419963
 21
69.960022904138668
 31
0.0
  0
LINE
  5
A63
  8
3
 10
44.059446883112862
 20
69.632449693299122
 30
0.0
 11
44.387020093952401
 21
69.960022904138668
 31
0.0
  0
LINE
  5
A64
  8
3
 10
45.075746292086592
 20
69.960022904138668
 30
0.0
 11
45.403319502926252
 21
69.632449693299122
 31
0.0
  0
LINE
  5
A65
  8
3
 10
44.387020093952401
 20
69.960022904138668
 30
0.0
 11
45.075746292086592
 21
69.960022904138668
 31
0.0
  0
LINE
  5
A66
  8
3
 10
45.476113549779477
 20
69.632449693299122
 30
0.0
 11
45.80368676061903
 21
69.960022904138668
 31
0.0
  0
LINE
  5
A67
  8
3
 10
46.492412958753327
 20
69.960022904138668
 30
0.0
 11
46.81998616959288
 21
69.632449693299122
 31
0.0
  0
LINE
  5
A68
  8
3
 10
45.80368676061903
 20
69.960022904138668
 30
0.0
 11
46.492412958753327
 21
69.960022904138668
 31
0.0
  0
LINE
  5
A69
  8
3
 10
46.892780216446113
 20
69.632449693299122
 30
0.0
 11
47.220353427285659
 21
69.960022904138668
 31
0.0
  0
LINE
  5
A6A
  8
3
 10
47.909079625419963
 20
69.960022904138668
 30
0.0
 11
48.236652836259623
 21
69.632449693299122
 31
0.0
  0
LINE
  5
A6B
  8
3
 10
47.220353427285659
 20
69.960022904138668
 30
0.0
 11
47.909079625419963
 21
69.960022904138668
 31
0.0
  0
LINE
  5
A6C
  8
3
 10
48.309446883112848
 20
69.632449693299122
 30
0.0
 11
48.637020093952401
 21
69.960022904138668
 31
0.0
  0
LINE
  5
A6D
  8
3
 10
49.325746292086592
 20
69.960022904138668
 30
0.0
 11
49.653319502926252
 21
69.632449693299122
 31
0.0
  0
LINE
  5
A6E
  8
3
 10
48.637020093952401
 20
69.960022904138668
 30
0.0
 11
49.325746292086592
 21
69.960022904138668
 31
0.0
  0
LINE
  5
A6F
  8
3
 10
49.726113549779477
 20
69.632449693299122
 30
0.0
 11
50.05368676061903
 21
69.960022904138668
 31
0.0
  0
LINE
  5
A70
  8
3
 10
50.742412958753327
 20
69.960022904138668
 30
0.0
 11
51.06998616959288
 21
69.632449693299122
 31
0.0
  0
LINE
  5
A71
  8
3
 10
50.05368676061903
 20
69.960022904138668
 30
0.0
 11
50.742412958753327
 21
69.960022904138668
 31
0.0
  0
LINE
  5
A72
  8
3
 10
51.142780216446113
 20
69.632449693299122
 30
0.0
 11
51.470353427285659
 21
69.960022904138668
 31
0.0
  0
LINE
  5
A73
  8
3
 10
52.159079625419963
 20
69.960022904138668
 30
0.0
 11
52.414441351054727
 21
69.704661178504011
 31
0.0
  0
LINE
  5
A74
  8
3
 10
51.470353427285659
 20
69.960022904138668
 30
0.0
 11
52.159079625419963
 21
69.960022904138668
 31
0.0
  0
LINE
  5
A75
  8
3
 10
36.575746292086592
 20
69.960022904138668
 30
0.0
 11
36.903319502926252
 21
69.632449693299122
 31
0.0
  0
LINE
  5
A76
  8
3
 10
35.887020093952401
 20
69.960022904138668
 30
0.0
 11
36.575746292086592
 21
69.960022904138668
 31
0.0
  0
LINE
  5
A77
  8
3
 10
35.631658368317751
 20
69.704661178504011
 30
0.0
 11
35.887020093952401
 21
69.960022904138668
 31
0.0
  0
LINE
  5
A78
  8
3
 10
36.976113549779491
 20
69.632449693299122
 30
0.0
 11
37.30368676061903
 21
69.960022904138668
 31
0.0
  0
LINE
  5
A79
  8
3
 10
38.31998616959288
 20
69.632449693299122
 30
0.0
 11
36.976113549779491
 21
69.632449693299122
 31
0.0
  0
LINE
  5
A7A
  8
3
 10
37.992412958753327
 20
69.960022904138668
 30
0.0
 11
38.31998616959288
 21
69.632449693299122
 31
0.0
  0
LINE
  5
A7B
  8
3
 10
37.30368676061903
 20
69.960022904138668
 30
0.0
 11
37.992412958753327
 21
69.960022904138668
 31
0.0
  0
LINE
  5
A7C
  8
3
 10
36.976113549779491
 20
71.049116359965751
 30
0.0
 11
37.30368676061903
 21
71.376689570805354
 31
0.0
  0
LINE
  5
A7D
  8
3
 10
38.31998616959288
 20
71.049116359965751
 30
0.0
 11
36.976113549779491
 21
71.049116359965751
 31
0.0
  0
LINE
  5
A7E
  8
3
 10
37.992412958753327
 20
71.376689570805354
 30
0.0
 11
38.31998616959288
 21
71.049116359965751
 31
0.0
  0
LINE
  5
A7F
  8
3
 10
37.30368676061903
 20
71.376689570805354
 30
0.0
 11
37.992412958753327
 21
71.376689570805354
 31
0.0
  0
LINE
  5
A80
  8
3
 10
38.392780216446113
 20
71.049116359965751
 30
0.0
 11
38.720353427285659
 21
71.376689570805354
 31
0.0
  0
LINE
  5
A81
  8
3
 10
39.736652836259623
 20
71.049116359965751
 30
0.0
 11
38.392780216446113
 21
71.049116359965751
 31
0.0
  0
LINE
  5
A82
  8
3
 10
39.40907962541997
 20
71.376689570805354
 30
0.0
 11
39.736652836259623
 21
71.049116359965751
 31
0.0
  0
LINE
  5
A83
  8
3
 10
38.720353427285659
 20
71.376689570805354
 30
0.0
 11
39.40907962541997
 21
71.376689570805354
 31
0.0
  0
LINE
  5
A84
  8
3
 10
39.809446883112862
 20
71.049116359965751
 30
0.0
 11
40.137020093952401
 21
71.376689570805354
 31
0.0
  0
LINE
  5
A85
  8
3
 10
41.153319502926252
 20
71.049116359965751
 30
0.0
 11
39.809446883112862
 21
71.049116359965751
 31
0.0
  0
LINE
  5
A86
  8
3
 10
40.825746292086592
 20
71.376689570805354
 30
0.0
 11
41.153319502926252
 21
71.049116359965751
 31
0.0
  0
LINE
  5
A87
  8
3
 10
40.137020093952401
 20
71.376689570805354
 30
0.0
 11
40.825746292086592
 21
71.376689570805354
 31
0.0
  0
LINE
  5
A88
  8
3
 10
41.226113549779477
 20
71.049116359965751
 30
0.0
 11
41.55368676061903
 21
71.376689570805354
 31
0.0
  0
LINE
  5
A89
  8
3
 10
42.56998616959288
 20
71.049116359965751
 30
0.0
 11
41.226113549779477
 21
71.049116359965751
 31
0.0
  0
LINE
  5
A8A
  8
3
 10
42.242412958753327
 20
71.376689570805354
 30
0.0
 11
42.56998616959288
 21
71.049116359965751
 31
0.0
  0
LINE
  5
A8B
  8
3
 10
41.55368676061903
 20
71.376689570805354
 30
0.0
 11
42.242412958753327
 21
71.376689570805354
 31
0.0
  0
LINE
  5
A8C
  8
3
 10
42.642780216446113
 20
71.049116359965751
 30
0.0
 11
42.970353427285652
 21
71.376689570805354
 31
0.0
  0
LINE
  5
A8D
  8
3
 10
43.986652836259623
 20
71.049116359965751
 30
0.0
 11
42.642780216446113
 21
71.049116359965751
 31
0.0
  0
LINE
  5
A8E
  8
3
 10
43.659079625419963
 20
71.376689570805354
 30
0.0
 11
43.986652836259623
 21
71.049116359965751
 31
0.0
  0
LINE
  5
A8F
  8
3
 10
42.970353427285652
 20
71.376689570805354
 30
0.0
 11
43.659079625419963
 21
71.376689570805354
 31
0.0
  0
LINE
  5
A90
  8
3
 10
44.059446883112862
 20
71.049116359965751
 30
0.0
 11
44.387020093952401
 21
71.376689570805354
 31
0.0
  0
LINE
  5
A91
  8
3
 10
45.403319502926252
 20
71.049116359965751
 30
0.0
 11
44.059446883112862
 21
71.049116359965751
 31
0.0
  0
LINE
  5
A92
  8
3
 10
45.075746292086592
 20
71.376689570805354
 30
0.0
 11
45.403319502926252
 21
71.049116359965751
 31
0.0
  0
LINE
  5
A93
  8
3
 10
44.387020093952401
 20
71.376689570805354
 30
0.0
 11
45.075746292086592
 21
71.376689570805354
 31
0.0
  0
LINE
  5
A94
  8
3
 10
45.476113549779477
 20
71.049116359965751
 30
0.0
 11
45.80368676061903
 21
71.376689570805354
 31
0.0
  0
LINE
  5
A95
  8
3
 10
46.81998616959288
 20
71.049116359965751
 30
0.0
 11
45.476113549779477
 21
71.049116359965751
 31
0.0
  0
LINE
  5
A96
  8
3
 10
46.492412958753327
 20
71.376689570805354
 30
0.0
 11
46.81998616959288
 21
71.049116359965751
 31
0.0
  0
LINE
  5
A97
  8
3
 10
45.80368676061903
 20
71.376689570805354
 30
0.0
 11
46.492412958753327
 21
71.376689570805354
 31
0.0
  0
LINE
  5
A98
  8
3
 10
46.892780216446113
 20
71.049116359965751
 30
0.0
 11
47.220353427285659
 21
71.376689570805354
 31
0.0
  0
LINE
  5
A99
  8
3
 10
48.236652836259623
 20
71.049116359965751
 30
0.0
 11
46.892780216446113
 21
71.049116359965751
 31
0.0
  0
LINE
  5
A9A
  8
3
 10
47.909079625419963
 20
71.376689570805354
 30
0.0
 11
48.236652836259623
 21
71.049116359965751
 31
0.0
  0
LINE
  5
A9B
  8
3
 10
47.220353427285659
 20
71.376689570805354
 30
0.0
 11
47.909079625419963
 21
71.376689570805354
 31
0.0
  0
LINE
  5
A9C
  8
3
 10
48.309446883112848
 20
71.049116359965751
 30
0.0
 11
48.637020093952401
 21
71.376689570805354
 31
0.0
  0
LINE
  5
A9D
  8
3
 10
49.653319502926252
 20
71.049116359965751
 30
0.0
 11
48.309446883112848
 21
71.049116359965751
 31
0.0
  0
LINE
  5
A9E
  8
3
 10
49.325746292086592
 20
71.376689570805354
 30
0.0
 11
49.653319502926252
 21
71.049116359965751
 31
0.0
  0
LINE
  5
A9F
  8
3
 10
48.637020093952401
 20
71.376689570805354
 30
0.0
 11
49.325746292086592
 21
71.376689570805354
 31
0.0
  0
LINE
  5
AA0
  8
3
 10
49.726113549779477
 20
71.049116359965751
 30
0.0
 11
50.05368676061903
 21
71.376689570805354
 31
0.0
  0
LINE
  5
AA1
  8
3
 10
51.06998616959288
 20
71.049116359965751
 30
0.0
 11
49.726113549779477
 21
71.049116359965751
 31
0.0
  0
LINE
  5
AA2
  8
3
 10
50.742412958753327
 20
71.376689570805354
 30
0.0
 11
51.06998616959288
 21
71.049116359965751
 31
0.0
  0
LINE
  5
AA3
  8
3
 10
50.05368676061903
 20
71.376689570805354
 30
0.0
 11
50.742412958753327
 21
71.376689570805354
 31
0.0
  0
LINE
  5
AA4
  8
3
 10
51.142780216446113
 20
71.049116359965751
 30
0.0
 11
51.470353427285659
 21
71.376689570805354
 31
0.0
  0
LINE
  5
AA5
  8
3
 10
52.486652836259623
 20
71.049116359965751
 30
0.0
 11
51.142780216446113
 21
71.049116359965751
 31
0.0
  0
LINE
  5
AA6
  8
3
 10
52.159079625419963
 20
71.376689570805354
 30
0.0
 11
52.486652836259623
 21
71.049116359965751
 31
0.0
  0
LINE
  5
AA7
  8
3
 10
51.470353427285659
 20
71.376689570805354
 30
0.0
 11
52.159079625419963
 21
71.376689570805354
 31
0.0
  0
LINE
  5
AA8
  8
3
 10
35.559446883112848
 20
71.049116359965751
 30
0.0
 11
35.887020093952401
 21
71.376689570805354
 31
0.0
  0
LINE
  5
AA9
  8
3
 10
36.903319502926252
 20
71.049116359965751
 30
0.0
 11
35.559446883112848
 21
71.049116359965751
 31
0.0
  0
LINE
  5
AAA
  8
3
 10
36.575746292086592
 20
71.376689570805354
 30
0.0
 11
36.903319502926252
 21
71.049116359965751
 31
0.0
  0
LINE
  5
AAB
  8
3
 10
35.887020093952401
 20
71.376689570805354
 30
0.0
 11
36.575746292086592
 21
71.376689570805354
 31
0.0
  0
LINE
  5
AAC
  8
3
 10
51.470353427285659
 20
70.721543149126205
 30
0.0
 11
51.142780216446113
 21
71.049116359965751
 31
0.0
  0
LINE
  5
AAD
  8
3
 10
52.159079625419963
 20
70.721543149126205
 30
0.0
 11
51.470353427285659
 21
70.721543149126205
 31
0.0
  0
LINE
  5
AAE
  8
3
 10
52.486652836259623
 20
71.049116359965751
 30
0.0
 11
52.159079625419963
 21
70.721543149126205
 31
0.0
  0
LINE
  5
AAF
  8
3
 10
50.05368676061903
 20
70.721543149126205
 30
0.0
 11
49.726113549779477
 21
71.049116359965751
 31
0.0
  0
LINE
  5
AB0
  8
3
 10
50.742412958753327
 20
70.721543149126205
 30
0.0
 11
50.05368676061903
 21
70.721543149126205
 31
0.0
  0
LINE
  5
AB1
  8
3
 10
51.06998616959288
 20
71.049116359965751
 30
0.0
 11
50.742412958753327
 21
70.721543149126205
 31
0.0
  0
LINE
  5
AB2
  8
3
 10
48.637020093952401
 20
70.721543149126205
 30
0.0
 11
48.309446883112848
 21
71.049116359965751
 31
0.0
  0
LINE
  5
AB3
  8
3
 10
49.325746292086592
 20
70.721543149126205
 30
0.0
 11
48.637020093952401
 21
70.721543149126205
 31
0.0
  0
LINE
  5
AB4
  8
3
 10
49.653319502926252
 20
71.049116359965751
 30
0.0
 11
49.325746292086592
 21
70.721543149126205
 31
0.0
  0
LINE
  5
AB5
  8
3
 10
47.220353427285659
 20
70.721543149126205
 30
0.0
 11
46.892780216446113
 21
71.049116359965751
 31
0.0
  0
LINE
  5
AB6
  8
3
 10
47.909079625419963
 20
70.721543149126205
 30
0.0
 11
47.220353427285659
 21
70.721543149126205
 31
0.0
  0
LINE
  5
AB7
  8
3
 10
48.236652836259623
 20
71.049116359965751
 30
0.0
 11
47.909079625419963
 21
70.721543149126205
 31
0.0
  0
LINE
  5
AB8
  8
3
 10
45.80368676061903
 20
70.721543149126205
 30
0.0
 11
45.476113549779477
 21
71.049116359965751
 31
0.0
  0
LINE
  5
AB9
  8
3
 10
46.492412958753327
 20
70.721543149126205
 30
0.0
 11
45.80368676061903
 21
70.721543149126205
 31
0.0
  0
LINE
  5
ABA
  8
3
 10
46.81998616959288
 20
71.049116359965751
 30
0.0
 11
46.492412958753327
 21
70.721543149126205
 31
0.0
  0
LINE
  5
ABB
  8
3
 10
44.387020093952401
 20
70.721543149126205
 30
0.0
 11
44.059446883112862
 21
71.049116359965751
 31
0.0
  0
LINE
  5
ABC
  8
3
 10
45.075746292086592
 20
70.721543149126205
 30
0.0
 11
44.387020093952401
 21
70.721543149126205
 31
0.0
  0
LINE
  5
ABD
  8
3
 10
45.403319502926252
 20
71.049116359965751
 30
0.0
 11
45.075746292086592
 21
70.721543149126205
 31
0.0
  0
LINE
  5
ABE
  8
3
 10
42.970353427285652
 20
70.721543149126205
 30
0.0
 11
42.642780216446113
 21
71.049116359965751
 31
0.0
  0
LINE
  5
ABF
  8
3
 10
43.659079625419963
 20
70.721543149126205
 30
0.0
 11
42.970353427285652
 21
70.721543149126205
 31
0.0
  0
LINE
  5
AC0
  8
3
 10
43.986652836259623
 20
71.049116359965751
 30
0.0
 11
43.659079625419963
 21
70.721543149126205
 31
0.0
  0
LINE
  5
AC1
  8
3
 10
41.55368676061903
 20
70.721543149126205
 30
0.0
 11
41.226113549779477
 21
71.049116359965751
 31
0.0
  0
LINE
  5
AC2
  8
3
 10
42.242412958753327
 20
70.721543149126205
 30
0.0
 11
41.55368676061903
 21
70.721543149126205
 31
0.0
  0
LINE
  5
AC3
  8
3
 10
42.56998616959288
 20
71.049116359965751
 30
0.0
 11
42.242412958753327
 21
70.721543149126205
 31
0.0
  0
LINE
  5
AC4
  8
3
 10
40.137020093952401
 20
70.721543149126205
 30
0.0
 11
39.809446883112862
 21
71.049116359965751
 31
0.0
  0
LINE
  5
AC5
  8
3
 10
40.825746292086592
 20
70.721543149126205
 30
0.0
 11
40.137020093952401
 21
70.721543149126205
 31
0.0
  0
LINE
  5
AC6
  8
3
 10
41.153319502926252
 20
71.049116359965751
 30
0.0
 11
40.825746292086592
 21
70.721543149126205
 31
0.0
  0
LINE
  5
AC7
  8
3
 10
38.720353427285659
 20
70.721543149126205
 30
0.0
 11
38.392780216446113
 21
71.049116359965751
 31
0.0
  0
LINE
  5
AC8
  8
3
 10
39.40907962541997
 20
70.721543149126205
 30
0.0
 11
38.720353427285659
 21
70.721543149126205
 31
0.0
  0
LINE
  5
AC9
  8
3
 10
39.736652836259623
 20
71.049116359965751
 30
0.0
 11
39.40907962541997
 21
70.721543149126205
 31
0.0
  0
LINE
  5
ACA
  8
3
 10
37.30368676061903
 20
70.721543149126205
 30
0.0
 11
36.976113549779491
 21
71.049116359965751
 31
0.0
  0
LINE
  5
ACB
  8
3
 10
37.992412958753327
 20
70.721543149126205
 30
0.0
 11
37.30368676061903
 21
70.721543149126205
 31
0.0
  0
LINE
  5
ACC
  8
3
 10
38.31998616959288
 20
71.049116359965751
 30
0.0
 11
37.992412958753327
 21
70.721543149126205
 31
0.0
  0
LINE
  5
ACD
  8
3
 10
36.903319502926252
 20
72.465783026632437
 30
0.0
 11
36.575746292086592
 21
72.138209815792834
 31
0.0
  0
LINE
  5
ACE
  8
3
 10
36.903319502926252
 20
72.465783026632437
 30
0.0
 11
35.640252660129931
 21
72.465783026632437
 31
0.0
  0
LINE
  5
ACF
  8
3
 10
35.887020093952401
 20
72.138209815792834
 30
0.0
 11
35.628894448087642
 21
72.396335461657713
 31
0.0
  0
LINE
  5
AD0
  8
3
 10
36.575746292086592
 20
72.138209815792834
 30
0.0
 11
35.887020093952401
 21
72.138209815792834
 31
0.0
  0
LINE
  5
AD1
  8
3
 10
51.470353427285659
 20
72.138209815792834
 30
0.0
 11
51.142780216446113
 21
72.465783026632437
 31
0.0
  0
LINE
  5
AD2
  8
3
 10
52.159079625419963
 20
72.138209815792834
 30
0.0
 11
51.470353427285659
 21
72.138209815792834
 31
0.0
  0
LINE
  5
AD3
  8
3
 10
52.417205271284843
 20
72.396335461657713
 30
0.0
 11
52.159079625419963
 21
72.138209815792834
 31
0.0
  0
LINE
  5
AD4
  8
3
 10
52.405847059242546
 20
72.465783026632437
 30
0.0
 11
51.142780216446113
 21
72.465783026632437
 31
0.0
  0
LINE
  5
AD5
  8
3
 10
50.05368676061903
 20
72.138209815792834
 30
0.0
 11
49.726113549779477
 21
72.465783026632437
 31
0.0
  0
LINE
  5
AD6
  8
3
 10
50.742412958753327
 20
72.138209815792834
 30
0.0
 11
50.05368676061903
 21
72.138209815792834
 31
0.0
  0
LINE
  5
AD7
  8
3
 10
51.06998616959288
 20
72.465783026632437
 30
0.0
 11
50.742412958753327
 21
72.138209815792834
 31
0.0
  0
LINE
  5
AD8
  8
3
 10
51.06998616959288
 20
72.465783026632437
 30
0.0
 11
49.726113549779477
 21
72.465783026632437
 31
0.0
  0
LINE
  5
AD9
  8
3
 10
48.637020093952401
 20
72.138209815792834
 30
0.0
 11
48.309446883112848
 21
72.465783026632437
 31
0.0
  0
LINE
  5
ADA
  8
3
 10
49.325746292086592
 20
72.138209815792834
 30
0.0
 11
48.637020093952401
 21
72.138209815792834
 31
0.0
  0
LINE
  5
ADB
  8
3
 10
49.653319502926252
 20
72.465783026632437
 30
0.0
 11
49.325746292086592
 21
72.138209815792834
 31
0.0
  0
LINE
  5
ADC
  8
3
 10
49.653319502926252
 20
72.465783026632437
 30
0.0
 11
48.309446883112848
 21
72.465783026632437
 31
0.0
  0
LINE
  5
ADD
  8
3
 10
47.220353427285659
 20
72.138209815792834
 30
0.0
 11
46.892780216446113
 21
72.465783026632437
 31
0.0
  0
LINE
  5
ADE
  8
3
 10
47.909079625419963
 20
72.138209815792834
 30
0.0
 11
47.220353427285659
 21
72.138209815792834
 31
0.0
  0
LINE
  5
ADF
  8
3
 10
48.236652836259623
 20
72.465783026632437
 30
0.0
 11
47.909079625419963
 21
72.138209815792834
 31
0.0
  0
LINE
  5
AE0
  8
3
 10
48.236652836259623
 20
72.465783026632437
 30
0.0
 11
46.892780216446113
 21
72.465783026632437
 31
0.0
  0
LINE
  5
AE1
  8
3
 10
45.80368676061903
 20
72.138209815792834
 30
0.0
 11
45.476113549779477
 21
72.465783026632437
 31
0.0
  0
LINE
  5
AE2
  8
3
 10
46.492412958753327
 20
72.138209815792834
 30
0.0
 11
45.80368676061903
 21
72.138209815792834
 31
0.0
  0
LINE
  5
AE3
  8
3
 10
46.81998616959288
 20
72.465783026632437
 30
0.0
 11
46.492412958753327
 21
72.138209815792834
 31
0.0
  0
LINE
  5
AE4
  8
3
 10
46.81998616959288
 20
72.465783026632437
 30
0.0
 11
45.476113549779477
 21
72.465783026632437
 31
0.0
  0
LINE
  5
AE5
  8
3
 10
44.387020093952401
 20
72.138209815792834
 30
0.0
 11
44.059446883112862
 21
72.465783026632437
 31
0.0
  0
LINE
  5
AE6
  8
3
 10
45.075746292086592
 20
72.138209815792834
 30
0.0
 11
44.387020093952401
 21
72.138209815792834
 31
0.0
  0
LINE
  5
AE7
  8
3
 10
45.403319502926252
 20
72.465783026632437
 30
0.0
 11
45.075746292086592
 21
72.138209815792834
 31
0.0
  0
LINE
  5
AE8
  8
3
 10
45.403319502926252
 20
72.465783026632437
 30
0.0
 11
44.059446883112862
 21
72.465783026632437
 31
0.0
  0
LINE
  5
AE9
  8
3
 10
42.970353427285652
 20
72.138209815792834
 30
0.0
 11
42.642780216446113
 21
72.465783026632437
 31
0.0
  0
LINE
  5
AEA
  8
3
 10
43.659079625419963
 20
72.138209815792834
 30
0.0
 11
42.970353427285652
 21
72.138209815792834
 31
0.0
  0
LINE
  5
AEB
  8
3
 10
43.986652836259623
 20
72.465783026632437
 30
0.0
 11
43.659079625419963
 21
72.138209815792834
 31
0.0
  0
LINE
  5
AEC
  8
3
 10
43.986652836259623
 20
72.465783026632437
 30
0.0
 11
42.642780216446113
 21
72.465783026632437
 31
0.0
  0
LINE
  5
AED
  8
3
 10
41.55368676061903
 20
72.138209815792834
 30
0.0
 11
41.226113549779477
 21
72.465783026632437
 31
0.0
  0
LINE
  5
AEE
  8
3
 10
42.242412958753327
 20
72.138209815792834
 30
0.0
 11
41.55368676061903
 21
72.138209815792834
 31
0.0
  0
LINE
  5
AEF
  8
3
 10
42.56998616959288
 20
72.465783026632437
 30
0.0
 11
42.242412958753327
 21
72.138209815792834
 31
0.0
  0
LINE
  5
AF0
  8
3
 10
42.56998616959288
 20
72.465783026632437
 30
0.0
 11
41.226113549779477
 21
72.465783026632437
 31
0.0
  0
LINE
  5
AF1
  8
3
 10
40.137020093952401
 20
72.138209815792834
 30
0.0
 11
39.809446883112862
 21
72.465783026632437
 31
0.0
  0
LINE
  5
AF2
  8
3
 10
40.825746292086592
 20
72.138209815792834
 30
0.0
 11
40.137020093952401
 21
72.138209815792834
 31
0.0
  0
LINE
  5
AF3
  8
3
 10
41.153319502926252
 20
72.465783026632437
 30
0.0
 11
40.825746292086592
 21
72.138209815792834
 31
0.0
  0
LINE
  5
AF4
  8
3
 10
41.153319502926252
 20
72.465783026632437
 30
0.0
 11
39.809446883112862
 21
72.465783026632437
 31
0.0
  0
LINE
  5
AF5
  8
3
 10
38.720353427285659
 20
72.138209815792834
 30
0.0
 11
38.392780216446113
 21
72.465783026632437
 31
0.0
  0
LINE
  5
AF6
  8
3
 10
39.40907962541997
 20
72.138209815792834
 30
0.0
 11
38.720353427285659
 21
72.138209815792834
 31
0.0
  0
LINE
  5
AF7
  8
3
 10
39.736652836259623
 20
72.465783026632437
 30
0.0
 11
39.40907962541997
 21
72.138209815792834
 31
0.0
  0
LINE
  5
AF8
  8
3
 10
39.736652836259623
 20
72.465783026632437
 30
0.0
 11
38.392780216446113
 21
72.465783026632437
 31
0.0
  0
LINE
  5
AF9
  8
3
 10
38.392780216446113
 20
72.465783026632437
 30
0.0
 11
38.720353427285659
 21
72.79335623747204
 31
0.0
  0
LINE
  5
AFA
  8
3
 10
39.40907962541997
 20
72.79335623747204
 30
0.0
 11
39.736652836259623
 21
72.465783026632437
 31
0.0
  0
LINE
  5
AFB
  8
3
 10
38.720353427285659
 20
72.79335623747204
 30
0.0
 11
39.40907962541997
 21
72.79335623747204
 31
0.0
  0
LINE
  5
AFC
  8
3
 10
39.809446883112862
 20
72.465783026632437
 30
0.0
 11
40.137020093952401
 21
72.79335623747204
 31
0.0
  0
LINE
  5
AFD
  8
3
 10
40.825746292086592
 20
72.79335623747204
 30
0.0
 11
41.153319502926252
 21
72.465783026632437
 31
0.0
  0
LINE
  5
AFE
  8
3
 10
40.137020093952401
 20
72.79335623747204
 30
0.0
 11
40.825746292086592
 21
72.79335623747204
 31
0.0
  0
LINE
  5
AFF
  8
3
 10
41.226113549779477
 20
72.465783026632437
 30
0.0
 11
41.55368676061903
 21
72.79335623747204
 31
0.0
  0
LINE
  5
B00
  8
3
 10
42.242412958753327
 20
72.79335623747204
 30
0.0
 11
42.56998616959288
 21
72.465783026632437
 31
0.0
  0
LINE
  5
B01
  8
3
 10
41.55368676061903
 20
72.79335623747204
 30
0.0
 11
42.242412958753327
 21
72.79335623747204
 31
0.0
  0
LINE
  5
B02
  8
3
 10
42.642780216446113
 20
72.465783026632437
 30
0.0
 11
42.970353427285652
 21
72.79335623747204
 31
0.0
  0
LINE
  5
B03
  8
3
 10
43.659079625419963
 20
72.79335623747204
 30
0.0
 11
43.986652836259623
 21
72.465783026632437
 31
0.0
  0
LINE
  5
B04
  8
3
 10
42.970353427285652
 20
72.79335623747204
 30
0.0
 11
43.659079625419963
 21
72.79335623747204
 31
0.0
  0
LINE
  5
B05
  8
3
 10
44.059446883112862
 20
72.465783026632437
 30
0.0
 11
44.387020093952401
 21
72.79335623747204
 31
0.0
  0
LINE
  5
B06
  8
3
 10
45.075746292086592
 20
72.79335623747204
 30
0.0
 11
45.403319502926252
 21
72.465783026632437
 31
0.0
  0
LINE
  5
B07
  8
3
 10
44.387020093952401
 20
72.79335623747204
 30
0.0
 11
45.075746292086592
 21
72.79335623747204
 31
0.0
  0
LINE
  5
B08
  8
3
 10
45.476113549779477
 20
72.465783026632437
 30
0.0
 11
45.80368676061903
 21
72.79335623747204
 31
0.0
  0
LINE
  5
B09
  8
3
 10
46.492412958753327
 20
72.79335623747204
 30
0.0
 11
46.81998616959288
 21
72.465783026632437
 31
0.0
  0
LINE
  5
B0A
  8
3
 10
45.80368676061903
 20
72.79335623747204
 30
0.0
 11
46.492412958753327
 21
72.79335623747204
 31
0.0
  0
LINE
  5
B0B
  8
3
 10
46.892780216446113
 20
72.465783026632437
 30
0.0
 11
47.220353427285659
 21
72.79335623747204
 31
0.0
  0
LINE
  5
B0C
  8
3
 10
47.909079625419963
 20
72.79335623747204
 30
0.0
 11
48.236652836259623
 21
72.465783026632437
 31
0.0
  0
LINE
  5
B0D
  8
3
 10
47.220353427285659
 20
72.79335623747204
 30
0.0
 11
47.909079625419963
 21
72.79335623747204
 31
0.0
  0
LINE
  5
B0E
  8
3
 10
48.309446883112848
 20
72.465783026632437
 30
0.0
 11
48.637020093952401
 21
72.79335623747204
 31
0.0
  0
LINE
  5
B0F
  8
3
 10
49.325746292086592
 20
72.79335623747204
 30
0.0
 11
49.653319502926252
 21
72.465783026632437
 31
0.0
  0
LINE
  5
B10
  8
3
 10
48.637020093952401
 20
72.79335623747204
 30
0.0
 11
49.325746292086592
 21
72.79335623747204
 31
0.0
  0
LINE
  5
B11
  8
3
 10
49.726113549779477
 20
72.465783026632437
 30
0.0
 11
50.05368676061903
 21
72.79335623747204
 31
0.0
  0
LINE
  5
B12
  8
3
 10
50.742412958753327
 20
72.79335623747204
 30
0.0
 11
51.06998616959288
 21
72.465783026632437
 31
0.0
  0
LINE
  5
B13
  8
3
 10
50.05368676061903
 20
72.79335623747204
 30
0.0
 11
50.742412958753327
 21
72.79335623747204
 31
0.0
  0
LINE
  5
B14
  8
3
 10
51.142780216446113
 20
72.465783026632437
 30
0.0
 11
51.470353427285659
 21
72.79335623747204
 31
0.0
  0
LINE
  5
B15
  8
3
 10
52.159079625419963
 20
72.79335623747204
 30
0.0
 11
52.38884705065027
 21
72.563588812241733
 31
0.0
  0
LINE
  5
B16
  8
3
 10
51.470353427285659
 20
72.79335623747204
 30
0.0
 11
52.159079625419963
 21
72.79335623747204
 31
0.0
  0
LINE
  5
B17
  8
3
 10
36.575746292086592
 20
72.79335623747204
 30
0.0
 11
36.903319502926252
 21
72.465783026632437
 31
0.0
  0
LINE
  5
B18
  8
3
 10
35.887020093952401
 20
72.79335623747204
 30
0.0
 11
36.575746292086592
 21
72.79335623747204
 31
0.0
  0
LINE
  5
B19
  8
3
 10
35.657252668722101
 20
72.563588812241733
 30
0.0
 11
35.887020093952401
 21
72.79335623747204
 31
0.0
  0
LINE
  5
B1A
  8
3
 10
36.976113549779491
 20
72.465783026632437
 30
0.0
 11
37.30368676061903
 21
72.79335623747204
 31
0.0
  0
LINE
  5
B1B
  8
3
 10
38.31998616959288
 20
72.465783026632437
 30
0.0
 11
36.976113549779491
 21
72.465783026632437
 31
0.0
  0
LINE
  5
B1C
  8
3
 10
37.992412958753327
 20
72.79335623747204
 30
0.0
 11
38.31998616959288
 21
72.465783026632437
 31
0.0
  0
LINE
  5
B1D
  8
3
 10
37.30368676061903
 20
72.79335623747204
 30
0.0
 11
37.992412958753327
 21
72.79335623747204
 31
0.0
  0
LINE
  5
B1E
  8
3
 10
49.726113549779477
 20
73.882449693299122
 30
0.0
 11
50.05368676061903
 21
74.210022904138654
 31
0.0
  0
LINE
  5
B1F
  8
3
 10
51.06998616959288
 20
73.882449693299122
 30
0.0
 11
49.726113549779477
 21
73.882449693299122
 31
0.0
  0
LINE
  5
B20
  8
3
 10
50.742412958753327
 20
74.210022904138654
 30
0.0
 11
51.06998616959288
 21
73.882449693299122
 31
0.0
  0
LINE
  5
B21
  8
3
 10
50.05368676061903
 20
74.210022904138654
 30
0.0
 11
50.742412958753327
 21
74.210022904138654
 31
0.0
  0
LINE
  5
B22
  8
3
 10
48.309446883112848
 20
73.882449693299122
 30
0.0
 11
48.637020093952401
 21
74.210022904138654
 31
0.0
  0
LINE
  5
B23
  8
3
 10
49.653319502926252
 20
73.882449693299122
 30
0.0
 11
48.309446883112848
 21
73.882449693299122
 31
0.0
  0
LINE
  5
B24
  8
3
 10
49.325746292086592
 20
74.210022904138654
 30
0.0
 11
49.653319502926252
 21
73.882449693299122
 31
0.0
  0
LINE
  5
B25
  8
3
 10
48.637020093952401
 20
74.210022904138654
 30
0.0
 11
49.325746292086592
 21
74.210022904138654
 31
0.0
  0
LINE
  5
B26
  8
3
 10
46.892780216446113
 20
73.882449693299122
 30
0.0
 11
47.220353427285659
 21
74.210022904138654
 31
0.0
  0
LINE
  5
B27
  8
3
 10
48.236652836259623
 20
73.882449693299122
 30
0.0
 11
46.892780216446113
 21
73.882449693299122
 31
0.0
  0
LINE
  5
B28
  8
3
 10
47.909079625419963
 20
74.210022904138654
 30
0.0
 11
48.236652836259623
 21
73.882449693299122
 31
0.0
  0
LINE
  5
B29
  8
3
 10
47.220353427285659
 20
74.210022904138654
 30
0.0
 11
47.909079625419963
 21
74.210022904138654
 31
0.0
  0
LINE
  5
B2A
  8
3
 10
45.476113549779477
 20
73.882449693299122
 30
0.0
 11
45.80368676061903
 21
74.210022904138654
 31
0.0
  0
LINE
  5
B2B
  8
3
 10
46.81998616959288
 20
73.882449693299122
 30
0.0
 11
45.476113549779477
 21
73.882449693299122
 31
0.0
  0
LINE
  5
B2C
  8
3
 10
46.492412958753327
 20
74.210022904138654
 30
0.0
 11
46.81998616959288
 21
73.882449693299122
 31
0.0
  0
LINE
  5
B2D
  8
3
 10
45.80368676061903
 20
74.210022904138654
 30
0.0
 11
46.492412958753327
 21
74.210022904138654
 31
0.0
  0
LINE
  5
B2E
  8
3
 10
44.059446883112862
 20
73.882449693299122
 30
0.0
 11
44.387020093952401
 21
74.210022904138654
 31
0.0
  0
LINE
  5
B2F
  8
3
 10
45.403319502926252
 20
73.882449693299122
 30
0.0
 11
44.059446883112862
 21
73.882449693299122
 31
0.0
  0
LINE
  5
B30
  8
3
 10
45.075746292086592
 20
74.210022904138654
 30
0.0
 11
45.403319502926252
 21
73.882449693299122
 31
0.0
  0
LINE
  5
B31
  8
3
 10
44.387020093952401
 20
74.210022904138654
 30
0.0
 11
45.075746292086592
 21
74.210022904138654
 31
0.0
  0
LINE
  5
B32
  8
3
 10
42.642780216446113
 20
73.882449693299122
 30
0.0
 11
42.970353427285652
 21
74.210022904138654
 31
0.0
  0
LINE
  5
B33
  8
3
 10
43.986652836259623
 20
73.882449693299122
 30
0.0
 11
42.642780216446113
 21
73.882449693299122
 31
0.0
  0
LINE
  5
B34
  8
3
 10
43.659079625419963
 20
74.210022904138654
 30
0.0
 11
43.986652836259623
 21
73.882449693299122
 31
0.0
  0
LINE
  5
B35
  8
3
 10
42.970353427285652
 20
74.210022904138654
 30
0.0
 11
43.659079625419963
 21
74.210022904138654
 31
0.0
  0
LINE
  5
B36
  8
3
 10
41.226113549779477
 20
73.882449693299122
 30
0.0
 11
41.55368676061903
 21
74.210022904138654
 31
0.0
  0
LINE
  5
B37
  8
3
 10
42.56998616959288
 20
73.882449693299122
 30
0.0
 11
41.226113549779477
 21
73.882449693299122
 31
0.0
  0
LINE
  5
B38
  8
3
 10
42.242412958753327
 20
74.210022904138654
 30
0.0
 11
42.56998616959288
 21
73.882449693299122
 31
0.0
  0
LINE
  5
B39
  8
3
 10
41.55368676061903
 20
74.210022904138654
 30
0.0
 11
42.242412958753327
 21
74.210022904138654
 31
0.0
  0
LINE
  5
B3A
  8
3
 10
39.809446883112862
 20
73.882449693299122
 30
0.0
 11
40.137020093952401
 21
74.210022904138654
 31
0.0
  0
LINE
  5
B3B
  8
3
 10
41.153319502926252
 20
73.882449693299122
 30
0.0
 11
39.809446883112862
 21
73.882449693299122
 31
0.0
  0
LINE
  5
B3C
  8
3
 10
40.825746292086592
 20
74.210022904138654
 30
0.0
 11
41.153319502926252
 21
73.882449693299122
 31
0.0
  0
LINE
  5
B3D
  8
3
 10
40.137020093952401
 20
74.210022904138654
 30
0.0
 11
40.825746292086592
 21
74.210022904138654
 31
0.0
  0
LINE
  5
B3E
  8
3
 10
38.392780216446113
 20
73.882449693299122
 30
0.0
 11
38.720353427285659
 21
74.210022904138654
 31
0.0
  0
LINE
  5
B3F
  8
3
 10
39.736652836259623
 20
73.882449693299122
 30
0.0
 11
38.392780216446113
 21
73.882449693299122
 31
0.0
  0
LINE
  5
B40
  8
3
 10
39.40907962541997
 20
74.210022904138654
 30
0.0
 11
39.736652836259623
 21
73.882449693299122
 31
0.0
  0
LINE
  5
B41
  8
3
 10
38.720353427285659
 20
74.210022904138654
 30
0.0
 11
39.40907962541997
 21
74.210022904138654
 31
0.0
  0
LINE
  5
B42
  8
3
 10
36.976113549779491
 20
73.882449693299122
 30
0.0
 11
37.30368676061903
 21
74.210022904138654
 31
0.0
  0
LINE
  5
B43
  8
3
 10
38.31998616959288
 20
73.882449693299122
 30
0.0
 11
36.976113549779491
 21
73.882449693299122
 31
0.0
  0
LINE
  5
B44
  8
3
 10
37.992412958753327
 20
74.210022904138654
 30
0.0
 11
38.31998616959288
 21
73.882449693299122
 31
0.0
  0
LINE
  5
B45
  8
3
 10
37.30368676061903
 20
74.210022904138654
 30
0.0
 11
37.992412958753327
 21
74.210022904138654
 31
0.0
  0
LINE
  5
B46
  8
3
 10
36.903319502926252
 20
73.882449693299122
 30
0.0
 11
36.00564448831517
 21
73.882449693299122
 31
0.0
  0
LINE
  5
B47
  8
3
 10
36.575746292086592
 20
74.210022904138654
 30
0.0
 11
36.903319502926252
 21
73.882449693299122
 31
0.0
  0
LINE
  5
B48
  8
3
 10
36.128634875034777
 20
74.210022904138654
 30
0.0
 11
36.575746292086592
 21
74.210022904138654
 31
0.0
  0
LINE
  5
B49
  8
3
 10
50.05368676061903
 20
73.55487648245952
 30
0.0
 11
49.726113549779477
 21
73.882449693299122
 31
0.0
  0
LINE
  5
B4A
  8
3
 10
50.742412958753327
 20
73.55487648245952
 30
0.0
 11
50.05368676061903
 21
73.55487648245952
 31
0.0
  0
LINE
  5
B4B
  8
3
 10
51.06998616959288
 20
73.882449693299122
 30
0.0
 11
50.742412958753327
 21
73.55487648245952
 31
0.0
  0
LINE
  5
B4C
  8
3
 10
48.637020093952401
 20
73.55487648245952
 30
0.0
 11
48.309446883112848
 21
73.882449693299122
 31
0.0
  0
LINE
  5
B4D
  8
3
 10
49.325746292086592
 20
73.55487648245952
 30
0.0
 11
48.637020093952401
 21
73.55487648245952
 31
0.0
  0
LINE
  5
B4E
  8
3
 10
49.653319502926252
 20
73.882449693299122
 30
0.0
 11
49.325746292086592
 21
73.55487648245952
 31
0.0
  0
LINE
  5
B4F
  8
3
 10
47.220353427285659
 20
73.55487648245952
 30
0.0
 11
46.892780216446113
 21
73.882449693299122
 31
0.0
  0
LINE
  5
B50
  8
3
 10
47.909079625419963
 20
73.55487648245952
 30
0.0
 11
47.220353427285659
 21
73.55487648245952
 31
0.0
  0
LINE
  5
B51
  8
3
 10
48.236652836259623
 20
73.882449693299122
 30
0.0
 11
47.909079625419963
 21
73.55487648245952
 31
0.0
  0
LINE
  5
B52
  8
3
 10
45.80368676061903
 20
73.55487648245952
 30
0.0
 11
45.476113549779477
 21
73.882449693299122
 31
0.0
  0
LINE
  5
B53
  8
3
 10
46.492412958753327
 20
73.55487648245952
 30
0.0
 11
45.80368676061903
 21
73.55487648245952
 31
0.0
  0
LINE
  5
B54
  8
3
 10
46.81998616959288
 20
73.882449693299122
 30
0.0
 11
46.492412958753327
 21
73.55487648245952
 31
0.0
  0
LINE
  5
B55
  8
3
 10
44.387020093952401
 20
73.55487648245952
 30
0.0
 11
44.059446883112862
 21
73.882449693299122
 31
0.0
  0
LINE
  5
B56
  8
3
 10
45.075746292086592
 20
73.55487648245952
 30
0.0
 11
44.387020093952401
 21
73.55487648245952
 31
0.0
  0
LINE
  5
B57
  8
3
 10
45.403319502926252
 20
73.882449693299122
 30
0.0
 11
45.075746292086592
 21
73.55487648245952
 31
0.0
  0
LINE
  5
B58
  8
3
 10
42.970353427285652
 20
73.55487648245952
 30
0.0
 11
42.642780216446113
 21
73.882449693299122
 31
0.0
  0
LINE
  5
B59
  8
3
 10
43.659079625419963
 20
73.55487648245952
 30
0.0
 11
42.970353427285652
 21
73.55487648245952
 31
0.0
  0
LINE
  5
B5A
  8
3
 10
43.986652836259623
 20
73.882449693299122
 30
0.0
 11
43.659079625419963
 21
73.55487648245952
 31
0.0
  0
LINE
  5
B5B
  8
3
 10
41.55368676061903
 20
73.55487648245952
 30
0.0
 11
41.226113549779477
 21
73.882449693299122
 31
0.0
  0
LINE
  5
B5C
  8
3
 10
42.242412958753327
 20
73.55487648245952
 30
0.0
 11
41.55368676061903
 21
73.55487648245952
 31
0.0
  0
LINE
  5
B5D
  8
3
 10
42.56998616959288
 20
73.882449693299122
 30
0.0
 11
42.242412958753327
 21
73.55487648245952
 31
0.0
  0
LINE
  5
B5E
  8
3
 10
40.137020093952401
 20
73.55487648245952
 30
0.0
 11
39.809446883112862
 21
73.882449693299122
 31
0.0
  0
LINE
  5
B5F
  8
3
 10
40.825746292086592
 20
73.55487648245952
 30
0.0
 11
40.137020093952401
 21
73.55487648245952
 31
0.0
  0
LINE
  5
B60
  8
3
 10
41.153319502926252
 20
73.882449693299122
 30
0.0
 11
40.825746292086592
 21
73.55487648245952
 31
0.0
  0
LINE
  5
B61
  8
3
 10
38.720353427285659
 20
73.55487648245952
 30
0.0
 11
38.392780216446113
 21
73.882449693299122
 31
0.0
  0
LINE
  5
B62
  8
3
 10
39.40907962541997
 20
73.55487648245952
 30
0.0
 11
38.720353427285659
 21
73.55487648245952
 31
0.0
  0
LINE
  5
B63
  8
3
 10
39.736652836259623
 20
73.882449693299122
 30
0.0
 11
39.40907962541997
 21
73.55487648245952
 31
0.0
  0
LINE
  5
B64
  8
3
 10
37.30368676061903
 20
73.55487648245952
 30
0.0
 11
36.976113549779491
 21
73.882449693299122
 31
0.0
  0
LINE
  5
B65
  8
3
 10
37.992412958753327
 20
73.55487648245952
 30
0.0
 11
37.30368676061903
 21
73.55487648245952
 31
0.0
  0
LINE
  5
B66
  8
3
 10
38.31998616959288
 20
73.882449693299122
 30
0.0
 11
37.992412958753327
 21
73.55487648245952
 31
0.0
  0
LINE
  5
B67
  8
3
 10
36.575746292086592
 20
73.55487648245952
 30
0.0
 11
35.897707933898012
 21
73.55487648245952
 31
0.0
  0
LINE
  5
B68
  8
3
 10
36.903319502926252
 20
73.882449693299122
 30
0.0
 11
36.575746292086592
 21
73.55487648245952
 31
0.0
  0
LINE
  5
B69
  8
3
 10
52.040455231057187
 20
73.882449693299122
 30
0.0
 11
51.142780216446113
 21
73.882449693299122
 31
0.0
  0
LINE
  5
B6A
  8
3
 10
51.470353427285659
 20
73.55487648245952
 30
0.0
 11
51.142780216446113
 21
73.882449693299122
 31
0.0
  0
LINE
  5
B6B
  8
3
 10
52.148391785474253
 20
73.55487648245952
 30
0.0
 11
51.470353427285659
 21
73.55487648245952
 31
0.0
  0
LINE
  5
B6C
  8
3
 10
49.726113549779477
 20
75.299116359965751
 30
0.0
 11
50.05368676061903
 21
75.626689570805297
 31
0.0
  0
LINE
  5
B6D
  8
3
 10
51.06998616959288
 20
75.299116359965751
 30
0.0
 11
49.726113549779477
 21
75.299116359965751
 31
0.0
  0
LINE
  5
B6E
  8
3
 10
50.742412958753327
 20
75.626689570805297
 30
0.0
 11
51.06998616959288
 21
75.299116359965751
 31
0.0
  0
LINE
  5
B6F
  8
3
 10
50.05368676061903
 20
75.626689570805297
 30
0.0
 11
50.742412958753327
 21
75.626689570805297
 31
0.0
  0
LINE
  5
B70
  8
3
 10
48.309446883112848
 20
75.299116359965751
 30
0.0
 11
48.637020093952401
 21
75.626689570805297
 31
0.0
  0
LINE
  5
B71
  8
3
 10
49.653319502926252
 20
75.299116359965751
 30
0.0
 11
48.309446883112848
 21
75.299116359965751
 31
0.0
  0
LINE
  5
B72
  8
3
 10
49.325746292086592
 20
75.626689570805297
 30
0.0
 11
49.653319502926252
 21
75.299116359965751
 31
0.0
  0
LINE
  5
B73
  8
3
 10
48.637020093952401
 20
75.626689570805297
 30
0.0
 11
49.325746292086592
 21
75.626689570805297
 31
0.0
  0
LINE
  5
B74
  8
3
 10
46.892780216446113
 20
75.299116359965751
 30
0.0
 11
47.220353427285659
 21
75.626689570805297
 31
0.0
  0
LINE
  5
B75
  8
3
 10
48.236652836259623
 20
75.299116359965751
 30
0.0
 11
46.892780216446113
 21
75.299116359965751
 31
0.0
  0
LINE
  5
B76
  8
3
 10
47.909079625419963
 20
75.626689570805297
 30
0.0
 11
48.236652836259623
 21
75.299116359965751
 31
0.0
  0
LINE
  5
B77
  8
3
 10
47.220353427285659
 20
75.626689570805297
 30
0.0
 11
47.909079625419963
 21
75.626689570805297
 31
0.0
  0
LINE
  5
B78
  8
3
 10
45.476113549779477
 20
75.299116359965751
 30
0.0
 11
45.80368676061903
 21
75.626689570805297
 31
0.0
  0
LINE
  5
B79
  8
3
 10
46.81998616959288
 20
75.299116359965751
 30
0.0
 11
45.476113549779477
 21
75.299116359965751
 31
0.0
  0
LINE
  5
B7A
  8
3
 10
46.492412958753327
 20
75.626689570805297
 30
0.0
 11
46.81998616959288
 21
75.299116359965751
 31
0.0
  0
LINE
  5
B7B
  8
3
 10
45.80368676061903
 20
75.626689570805297
 30
0.0
 11
46.492412958753327
 21
75.626689570805297
 31
0.0
  0
LINE
  5
B7C
  8
3
 10
44.059446883112862
 20
75.299116359965751
 30
0.0
 11
44.387020093952401
 21
75.626689570805297
 31
0.0
  0
LINE
  5
B7D
  8
3
 10
45.403319502926252
 20
75.299116359965751
 30
0.0
 11
44.059446883112862
 21
75.299116359965751
 31
0.0
  0
LINE
  5
B7E
  8
3
 10
45.075746292086592
 20
75.626689570805297
 30
0.0
 11
45.403319502926252
 21
75.299116359965751
 31
0.0
  0
LINE
  5
B7F
  8
3
 10
44.387020093952401
 20
75.626689570805297
 30
0.0
 11
45.075746292086592
 21
75.626689570805297
 31
0.0
  0
LINE
  5
B80
  8
3
 10
42.642780216446113
 20
75.299116359965751
 30
0.0
 11
42.970353427285652
 21
75.626689570805297
 31
0.0
  0
LINE
  5
B81
  8
3
 10
43.986652836259623
 20
75.299116359965751
 30
0.0
 11
42.642780216446113
 21
75.299116359965751
 31
0.0
  0
LINE
  5
B82
  8
3
 10
43.659079625419963
 20
75.626689570805297
 30
0.0
 11
43.986652836259623
 21
75.299116359965751
 31
0.0
  0
LINE
  5
B83
  8
3
 10
42.970353427285652
 20
75.626689570805297
 30
0.0
 11
43.659079625419963
 21
75.626689570805297
 31
0.0
  0
LINE
  5
B84
  8
3
 10
41.226113549779477
 20
75.299116359965751
 30
0.0
 11
41.55368676061903
 21
75.626689570805297
 31
0.0
  0
LINE
  5
B85
  8
3
 10
42.56998616959288
 20
75.299116359965751
 30
0.0
 11
41.226113549779477
 21
75.299116359965751
 31
0.0
  0
LINE
  5
B86
  8
3
 10
42.242412958753327
 20
75.626689570805297
 30
0.0
 11
42.56998616959288
 21
75.299116359965751
 31
0.0
  0
LINE
  5
B87
  8
3
 10
41.55368676061903
 20
75.626689570805297
 30
0.0
 11
42.242412958753327
 21
75.626689570805297
 31
0.0
  0
LINE
  5
B88
  8
3
 10
39.809446883112862
 20
75.299116359965751
 30
0.0
 11
40.137020093952401
 21
75.626689570805297
 31
0.0
  0
LINE
  5
B89
  8
3
 10
41.153319502926252
 20
75.299116359965751
 30
0.0
 11
39.809446883112862
 21
75.299116359965751
 31
0.0
  0
LINE
  5
B8A
  8
3
 10
40.825746292086592
 20
75.626689570805297
 30
0.0
 11
41.153319502926252
 21
75.299116359965751
 31
0.0
  0
LINE
  5
B8B
  8
3
 10
40.137020093952401
 20
75.626689570805297
 30
0.0
 11
40.825746292086592
 21
75.626689570805297
 31
0.0
  0
LINE
  5
B8C
  8
3
 10
38.392780216446113
 20
75.299116359965751
 30
0.0
 11
38.720353427285659
 21
75.626689570805297
 31
0.0
  0
LINE
  5
B8D
  8
3
 10
39.736652836259623
 20
75.299116359965751
 30
0.0
 11
38.392780216446113
 21
75.299116359965751
 31
0.0
  0
LINE
  5
B8E
  8
3
 10
39.40907962541997
 20
75.626689570805297
 30
0.0
 11
39.736652836259623
 21
75.299116359965751
 31
0.0
  0
LINE
  5
B8F
  8
3
 10
38.720353427285659
 20
75.626689570805297
 30
0.0
 11
39.40907962541997
 21
75.626689570805297
 31
0.0
  0
LINE
  5
B90
  8
3
 10
36.976113549779491
 20
75.299116359965751
 30
0.0
 11
37.30368676061903
 21
75.626689570805297
 31
0.0
  0
LINE
  5
B91
  8
3
 10
38.31998616959288
 20
75.299116359965751
 30
0.0
 11
36.976113549779491
 21
75.299116359965751
 31
0.0
  0
LINE
  5
B92
  8
3
 10
37.992412958753327
 20
75.626689570805297
 30
0.0
 11
38.31998616959288
 21
75.299116359965751
 31
0.0
  0
LINE
  5
B93
  8
3
 10
37.30368676061903
 20
75.626689570805297
 30
0.0
 11
37.992412958753327
 21
75.626689570805297
 31
0.0
  0
LINE
  5
B94
  8
3
 10
36.903319502926252
 20
75.299116359965751
 30
0.0
 11
36.656069474209403
 21
75.299116359965751
 31
0.0
  0
LINE
  5
B95
  8
3
 10
36.747793668864233
 20
75.45464219402777
 30
0.0
 11
36.903319502926252
 21
75.299116359965751
 31
0.0
  0
LINE
  5
B96
  8
3
 10
50.05368676061903
 20
74.971543149126205
 30
0.0
 11
49.726113549779477
 21
75.299116359965751
 31
0.0
  0
LINE
  5
B97
  8
3
 10
50.742412958753327
 20
74.971543149126205
 30
0.0
 11
50.05368676061903
 21
74.971543149126205
 31
0.0
  0
LINE
  5
B98
  8
3
 10
51.06998616959288
 20
75.299116359965751
 30
0.0
 11
50.742412958753327
 21
74.971543149126205
 31
0.0
  0
LINE
  5
B99
  8
3
 10
48.637020093952401
 20
74.971543149126205
 30
0.0
 11
48.309446883112848
 21
75.299116359965751
 31
0.0
  0
LINE
  5
B9A
  8
3
 10
49.325746292086592
 20
74.971543149126205
 30
0.0
 11
48.637020093952401
 21
74.971543149126205
 31
0.0
  0
LINE
  5
B9B
  8
3
 10
49.653319502926252
 20
75.299116359965751
 30
0.0
 11
49.325746292086592
 21
74.971543149126205
 31
0.0
  0
LINE
  5
B9C
  8
3
 10
47.220353427285659
 20
74.971543149126205
 30
0.0
 11
46.892780216446113
 21
75.299116359965751
 31
0.0
  0
LINE
  5
B9D
  8
3
 10
47.909079625419963
 20
74.971543149126205
 30
0.0
 11
47.220353427285659
 21
74.971543149126205
 31
0.0
  0
LINE
  5
B9E
  8
3
 10
48.236652836259623
 20
75.299116359965751
 30
0.0
 11
47.909079625419963
 21
74.971543149126205
 31
0.0
  0
LINE
  5
B9F
  8
3
 10
45.80368676061903
 20
74.971543149126205
 30
0.0
 11
45.476113549779477
 21
75.299116359965751
 31
0.0
  0
LINE
  5
BA0
  8
3
 10
46.492412958753327
 20
74.971543149126205
 30
0.0
 11
45.80368676061903
 21
74.971543149126205
 31
0.0
  0
LINE
  5
BA1
  8
3
 10
46.81998616959288
 20
75.299116359965751
 30
0.0
 11
46.492412958753327
 21
74.971543149126205
 31
0.0
  0
LINE
  5
BA2
  8
3
 10
44.387020093952401
 20
74.971543149126205
 30
0.0
 11
44.059446883112862
 21
75.299116359965751
 31
0.0
  0
LINE
  5
BA3
  8
3
 10
45.075746292086592
 20
74.971543149126205
 30
0.0
 11
44.387020093952401
 21
74.971543149126205
 31
0.0
  0
LINE
  5
BA4
  8
3
 10
45.403319502926252
 20
75.299116359965751
 30
0.0
 11
45.075746292086592
 21
74.971543149126205
 31
0.0
  0
LINE
  5
BA5
  8
3
 10
42.970353427285652
 20
74.971543149126205
 30
0.0
 11
42.642780216446113
 21
75.299116359965751
 31
0.0
  0
LINE
  5
BA6
  8
3
 10
43.659079625419963
 20
74.971543149126205
 30
0.0
 11
42.970353427285652
 21
74.971543149126205
 31
0.0
  0
LINE
  5
BA7
  8
3
 10
43.986652836259623
 20
75.299116359965751
 30
0.0
 11
43.659079625419963
 21
74.971543149126205
 31
0.0
  0
LINE
  5
BA8
  8
3
 10
41.55368676061903
 20
74.971543149126205
 30
0.0
 11
41.226113549779477
 21
75.299116359965751
 31
0.0
  0
LINE
  5
BA9
  8
3
 10
42.242412958753327
 20
74.971543149126205
 30
0.0
 11
41.55368676061903
 21
74.971543149126205
 31
0.0
  0
LINE
  5
BAA
  8
3
 10
42.56998616959288
 20
75.299116359965751
 30
0.0
 11
42.242412958753327
 21
74.971543149126205
 31
0.0
  0
LINE
  5
BAB
  8
3
 10
40.137020093952401
 20
74.971543149126205
 30
0.0
 11
39.809446883112862
 21
75.299116359965751
 31
0.0
  0
LINE
  5
BAC
  8
3
 10
40.825746292086592
 20
74.971543149126205
 30
0.0
 11
40.137020093952401
 21
74.971543149126205
 31
0.0
  0
LINE
  5
BAD
  8
3
 10
41.153319502926252
 20
75.299116359965751
 30
0.0
 11
40.825746292086592
 21
74.971543149126205
 31
0.0
  0
LINE
  5
BAE
  8
3
 10
38.720353427285659
 20
74.971543149126205
 30
0.0
 11
38.392780216446113
 21
75.299116359965751
 31
0.0
  0
LINE
  5
BAF
  8
3
 10
39.40907962541997
 20
74.971543149126205
 30
0.0
 11
38.720353427285659
 21
74.971543149126205
 31
0.0
  0
LINE
  5
BB0
  8
3
 10
39.736652836259623
 20
75.299116359965751
 30
0.0
 11
39.40907962541997
 21
74.971543149126205
 31
0.0
  0
LINE
  5
BB1
  8
3
 10
37.30368676061903
 20
74.971543149126205
 30
0.0
 11
36.976113549779491
 21
75.299116359965751
 31
0.0
  0
LINE
  5
BB2
  8
3
 10
37.992412958753327
 20
74.971543149126205
 30
0.0
 11
37.30368676061903
 21
74.971543149126205
 31
0.0
  0
LINE
  5
BB3
  8
3
 10
38.31998616959288
 20
75.299116359965751
 30
0.0
 11
37.992412958753327
 21
74.971543149126205
 31
0.0
  0
LINE
  5
BB4
  8
3
 10
36.575746292086592
 20
74.971543149126205
 30
0.0
 11
36.476996810610792
 21
74.971543149126205
 31
0.0
  0
LINE
  5
BB5
  8
3
 10
36.903319502926252
 20
75.299116359965751
 30
0.0
 11
36.575746292086592
 21
74.971543149126205
 31
0.0
  0
LINE
  5
BB6
  8
3
 10
51.390030245163068
 20
75.299116359965751
 30
0.0
 11
51.142780216446113
 21
75.299116359965751
 31
0.0
  0
LINE
  5
BB7
  8
3
 10
51.470353427285659
 20
74.971543149126205
 30
0.0
 11
51.142780216446113
 21
75.299116359965751
 31
0.0
  0
LINE
  5
BB8
  8
3
 10
51.569102908761579
 20
74.971543149126205
 30
0.0
 11
51.470353427285659
 21
74.971543149126205
 31
0.0
  0
LINE
  5
BB9
  8
3
 10
48.309446883112848
 20
76.71578302663238
 30
0.0
 11
48.637020093952401
 21
77.04335623747204
 31
0.0
  0
LINE
  5
BBA
  8
3
 10
49.653319502926252
 20
76.71578302663238
 30
0.0
 11
48.309446883112848
 21
76.71578302663238
 31
0.0
  0
LINE
  5
BBB
  8
3
 10
49.325746292086592
 20
77.04335623747204
 30
0.0
 11
49.653319502926252
 21
76.71578302663238
 31
0.0
  0
LINE
  5
BBC
  8
3
 10
48.637020093952401
 20
77.04335623747204
 30
0.0
 11
49.325746292086592
 21
77.04335623747204
 31
0.0
  0
LINE
  5
BBD
  8
3
 10
46.892780216446113
 20
76.71578302663238
 30
0.0
 11
47.220353427285659
 21
77.04335623747204
 31
0.0
  0
LINE
  5
BBE
  8
3
 10
48.236652836259623
 20
76.71578302663238
 30
0.0
 11
46.892780216446113
 21
76.71578302663238
 31
0.0
  0
LINE
  5
BBF
  8
3
 10
47.909079625419963
 20
77.04335623747204
 30
0.0
 11
48.236652836259623
 21
76.71578302663238
 31
0.0
  0
LINE
  5
BC0
  8
3
 10
47.220353427285659
 20
77.04335623747204
 30
0.0
 11
47.909079625419963
 21
77.04335623747204
 31
0.0
  0
LINE
  5
BC1
  8
3
 10
45.476113549779477
 20
76.71578302663238
 30
0.0
 11
45.80368676061903
 21
77.04335623747204
 31
0.0
  0
LINE
  5
BC2
  8
3
 10
46.81998616959288
 20
76.71578302663238
 30
0.0
 11
45.476113549779477
 21
76.71578302663238
 31
0.0
  0
LINE
  5
BC3
  8
3
 10
46.492412958753327
 20
77.04335623747204
 30
0.0
 11
46.81998616959288
 21
76.71578302663238
 31
0.0
  0
LINE
  5
BC4
  8
3
 10
45.80368676061903
 20
77.04335623747204
 30
0.0
 11
46.492412958753327
 21
77.04335623747204
 31
0.0
  0
LINE
  5
BC5
  8
3
 10
44.059446883112862
 20
76.71578302663238
 30
0.0
 11
44.387020093952401
 21
77.04335623747204
 31
0.0
  0
LINE
  5
BC6
  8
3
 10
45.403319502926252
 20
76.71578302663238
 30
0.0
 11
44.059446883112862
 21
76.71578302663238
 31
0.0
  0
LINE
  5
BC7
  8
3
 10
45.075746292086592
 20
77.04335623747204
 30
0.0
 11
45.403319502926252
 21
76.71578302663238
 31
0.0
  0
LINE
  5
BC8
  8
3
 10
44.387020093952401
 20
77.04335623747204
 30
0.0
 11
45.075746292086592
 21
77.04335623747204
 31
0.0
  0
LINE
  5
BC9
  8
3
 10
42.642780216446113
 20
76.71578302663238
 30
0.0
 11
42.970353427285652
 21
77.04335623747204
 31
0.0
  0
LINE
  5
BCA
  8
3
 10
43.986652836259623
 20
76.71578302663238
 30
0.0
 11
42.642780216446113
 21
76.71578302663238
 31
0.0
  0
LINE
  5
BCB
  8
3
 10
43.659079625419963
 20
77.04335623747204
 30
0.0
 11
43.986652836259623
 21
76.71578302663238
 31
0.0
  0
LINE
  5
BCC
  8
3
 10
42.970353427285652
 20
77.04335623747204
 30
0.0
 11
43.659079625419963
 21
77.04335623747204
 31
0.0
  0
LINE
  5
BCD
  8
3
 10
41.226113549779477
 20
76.71578302663238
 30
0.0
 11
41.55368676061903
 21
77.04335623747204
 31
0.0
  0
LINE
  5
BCE
  8
3
 10
42.56998616959288
 20
76.71578302663238
 30
0.0
 11
41.226113549779477
 21
76.71578302663238
 31
0.0
  0
LINE
  5
BCF
  8
3
 10
42.242412958753327
 20
77.04335623747204
 30
0.0
 11
42.56998616959288
 21
76.71578302663238
 31
0.0
  0
LINE
  5
BD0
  8
3
 10
41.55368676061903
 20
77.04335623747204
 30
0.0
 11
42.242412958753327
 21
77.04335623747204
 31
0.0
  0
LINE
  5
BD1
  8
3
 10
39.809446883112862
 20
76.71578302663238
 30
0.0
 11
40.137020093952401
 21
77.04335623747204
 31
0.0
  0
LINE
  5
BD2
  8
3
 10
41.153319502926252
 20
76.71578302663238
 30
0.0
 11
39.809446883112862
 21
76.71578302663238
 31
0.0
  0
LINE
  5
BD3
  8
3
 10
40.825746292086592
 20
77.04335623747204
 30
0.0
 11
41.153319502926252
 21
76.71578302663238
 31
0.0
  0
LINE
  5
BD4
  8
3
 10
40.137020093952401
 20
77.04335623747204
 30
0.0
 11
40.825746292086592
 21
77.04335623747204
 31
0.0
  0
LINE
  5
BD5
  8
3
 10
38.392780216446113
 20
76.71578302663238
 30
0.0
 11
38.720353427285659
 21
77.04335623747204
 31
0.0
  0
LINE
  5
BD6
  8
3
 10
39.736652836259623
 20
76.71578302663238
 30
0.0
 11
38.392780216446113
 21
76.71578302663238
 31
0.0
  0
LINE
  5
BD7
  8
3
 10
39.40907962541997
 20
77.04335623747204
 30
0.0
 11
39.736652836259623
 21
76.71578302663238
 31
0.0
  0
LINE
  5
BD8
  8
3
 10
38.720353427285659
 20
77.04335623747204
 30
0.0
 11
39.40907962541997
 21
77.04335623747204
 31
0.0
  0
LINE
  5
BD9
  8
3
 10
38.31998616959288
 20
76.71578302663238
 30
0.0
 11
37.678593837124247
 21
76.71578302663238
 31
0.0
  0
LINE
  5
BDA
  8
3
 10
37.992412958753327
 20
77.04335623747204
 30
0.0
 11
38.31998616959288
 21
76.71578302663238
 31
0.0
  0
LINE
  5
BDB
  8
3
 10
37.986587891905401
 20
77.04335623747204
 30
0.0
 11
37.992412958753327
 21
77.04335623747204
 31
0.0
  0
LINE
  5
BDC
  8
3
 10
48.637020093952401
 20
76.388209815792834
 30
0.0
 11
48.309446883112848
 21
76.71578302663238
 31
0.0
  0
LINE
  5
BDD
  8
3
 10
49.325746292086592
 20
76.388209815792834
 30
0.0
 11
48.637020093952401
 21
76.388209815792834
 31
0.0
  0
LINE
  5
BDE
  8
3
 10
49.653319502926252
 20
76.71578302663238
 30
0.0
 11
49.325746292086592
 21
76.388209815792834
 31
0.0
  0
LINE
  5
BDF
  8
3
 10
47.220353427285659
 20
76.388209815792834
 30
0.0
 11
46.892780216446113
 21
76.71578302663238
 31
0.0
  0
LINE
  5
BE0
  8
3
 10
47.909079625419963
 20
76.388209815792834
 30
0.0
 11
47.220353427285659
 21
76.388209815792834
 31
0.0
  0
LINE
  5
BE1
  8
3
 10
48.236652836259623
 20
76.71578302663238
 30
0.0
 11
47.909079625419963
 21
76.388209815792834
 31
0.0
  0
LINE
  5
BE2
  8
3
 10
45.80368676061903
 20
76.388209815792834
 30
0.0
 11
45.476113549779477
 21
76.71578302663238
 31
0.0
  0
LINE
  5
BE3
  8
3
 10
46.492412958753327
 20
76.388209815792834
 30
0.0
 11
45.80368676061903
 21
76.388209815792834
 31
0.0
  0
LINE
  5
BE4
  8
3
 10
46.81998616959288
 20
76.71578302663238
 30
0.0
 11
46.492412958753327
 21
76.388209815792834
 31
0.0
  0
LINE
  5
BE5
  8
3
 10
44.387020093952401
 20
76.388209815792834
 30
0.0
 11
44.059446883112862
 21
76.71578302663238
 31
0.0
  0
LINE
  5
BE6
  8
3
 10
45.075746292086592
 20
76.388209815792834
 30
0.0
 11
44.387020093952401
 21
76.388209815792834
 31
0.0
  0
LINE
  5
BE7
  8
3
 10
45.403319502926252
 20
76.71578302663238
 30
0.0
 11
45.075746292086592
 21
76.388209815792834
 31
0.0
  0
LINE
  5
BE8
  8
3
 10
42.970353427285652
 20
76.388209815792834
 30
0.0
 11
42.642780216446113
 21
76.71578302663238
 31
0.0
  0
LINE
  5
BE9
  8
3
 10
43.659079625419963
 20
76.388209815792834
 30
0.0
 11
42.970353427285652
 21
76.388209815792834
 31
0.0
  0
LINE
  5
BEA
  8
3
 10
43.986652836259623
 20
76.71578302663238
 30
0.0
 11
43.659079625419963
 21
76.388209815792834
 31
0.0
  0
LINE
  5
BEB
  8
3
 10
41.55368676061903
 20
76.388209815792834
 30
0.0
 11
41.226113549779477
 21
76.71578302663238
 31
0.0
  0
LINE
  5
BEC
  8
3
 10
42.242412958753327
 20
76.388209815792834
 30
0.0
 11
41.55368676061903
 21
76.388209815792834
 31
0.0
  0
LINE
  5
BED
  8
3
 10
42.56998616959288
 20
76.71578302663238
 30
0.0
 11
42.242412958753327
 21
76.388209815792834
 31
0.0
  0
LINE
  5
BEE
  8
3
 10
40.137020093952401
 20
76.388209815792834
 30
0.0
 11
39.809446883112862
 21
76.71578302663238
 31
0.0
  0
LINE
  5
BEF
  8
3
 10
40.825746292086592
 20
76.388209815792834
 30
0.0
 11
40.137020093952401
 21
76.388209815792834
 31
0.0
  0
LINE
  5
BF0
  8
3
 10
41.153319502926252
 20
76.71578302663238
 30
0.0
 11
40.825746292086592
 21
76.388209815792834
 31
0.0
  0
LINE
  5
BF1
  8
3
 10
38.720353427285659
 20
76.388209815792834
 30
0.0
 11
38.392780216446113
 21
76.71578302663238
 31
0.0
  0
LINE
  5
BF2
  8
3
 10
39.40907962541997
 20
76.388209815792834
 30
0.0
 11
38.720353427285659
 21
76.388209815792834
 31
0.0
  0
LINE
  5
BF3
  8
3
 10
39.736652836259623
 20
76.71578302663238
 30
0.0
 11
39.40907962541997
 21
76.388209815792834
 31
0.0
  0
LINE
  5
BF4
  8
3
 10
37.992412958753327
 20
76.388209815792834
 30
0.0
 11
37.4010590005064
 21
76.388209815792834
 31
0.0
  0
LINE
  5
BF5
  8
3
 10
38.31998616959288
 20
76.71578302663238
 30
0.0
 11
37.992412958753327
 21
76.388209815792834
 31
0.0
  0
LINE
  5
BF6
  8
3
 10
50.367505882248111
 20
76.71578302663238
 30
0.0
 11
49.726113549779477
 21
76.71578302663238
 31
0.0
  0
LINE
  5
BF7
  8
3
 10
50.05368676061903
 20
76.388209815792834
 30
0.0
 11
49.726113549779477
 21
76.71578302663238
 31
0.0
  0
LINE
  5
BF8
  8
3
 10
50.645040718865971
 20
76.388209815792834
 30
0.0
 11
50.05368676061903
 21
76.388209815792834
 31
0.0
  0
LINE
  5
BF9
  8
3
 10
46.892780216446113
 20
78.132449693299122
 30
0.0
 11
47.220353427285659
 21
78.460022904138668
 31
0.0
  0
LINE
  5
BFA
  8
3
 10
48.236652836259623
 20
78.132449693299122
 30
0.0
 11
46.892780216446113
 21
78.132449693299122
 31
0.0
  0
LINE
  5
BFB
  8
3
 10
47.909079625419963
 20
78.460022904138668
 30
0.0
 11
48.236652836259623
 21
78.132449693299122
 31
0.0
  0
LINE
  5
BFC
  8
3
 10
47.220353427285659
 20
78.460022904138668
 30
0.0
 11
47.909079625419963
 21
78.460022904138668
 31
0.0
  0
LINE
  5
BFD
  8
3
 10
45.476113549779477
 20
78.132449693299122
 30
0.0
 11
45.80368676061903
 21
78.460022904138668
 31
0.0
  0
LINE
  5
BFE
  8
3
 10
46.81998616959288
 20
78.132449693299122
 30
0.0
 11
45.476113549779477
 21
78.132449693299122
 31
0.0
  0
LINE
  5
BFF
  8
3
 10
46.492412958753327
 20
78.460022904138668
 30
0.0
 11
46.81998616959288
 21
78.132449693299122
 31
0.0
  0
LINE
  5
C00
  8
3
 10
45.80368676061903
 20
78.460022904138668
 30
0.0
 11
46.492412958753327
 21
78.460022904138668
 31
0.0
  0
LINE
  5
C01
  8
3
 10
44.059446883112862
 20
78.132449693299122
 30
0.0
 11
44.387020093952401
 21
78.460022904138668
 31
0.0
  0
LINE
  5
C02
  8
3
 10
45.403319502926252
 20
78.132449693299122
 30
0.0
 11
44.059446883112862
 21
78.132449693299122
 31
0.0
  0
LINE
  5
C03
  8
3
 10
45.075746292086592
 20
78.460022904138668
 30
0.0
 11
45.403319502926252
 21
78.132449693299122
 31
0.0
  0
LINE
  5
C04
  8
3
 10
44.387020093952401
 20
78.460022904138668
 30
0.0
 11
45.075746292086592
 21
78.460022904138668
 31
0.0
  0
LINE
  5
C05
  8
3
 10
42.642780216446113
 20
78.132449693299122
 30
0.0
 11
42.970353427285652
 21
78.460022904138668
 31
0.0
  0
LINE
  5
C06
  8
3
 10
43.986652836259623
 20
78.132449693299122
 30
0.0
 11
42.642780216446113
 21
78.132449693299122
 31
0.0
  0
LINE
  5
C07
  8
3
 10
43.659079625419963
 20
78.460022904138668
 30
0.0
 11
43.986652836259623
 21
78.132449693299122
 31
0.0
  0
LINE
  5
C08
  8
3
 10
42.970353427285652
 20
78.460022904138668
 30
0.0
 11
43.659079625419963
 21
78.460022904138668
 31
0.0
  0
LINE
  5
C09
  8
3
 10
41.226113549779477
 20
78.132449693299122
 30
0.0
 11
41.55368676061903
 21
78.460022904138668
 31
0.0
  0
LINE
  5
C0A
  8
3
 10
42.56998616959288
 20
78.132449693299122
 30
0.0
 11
41.226113549779477
 21
78.132449693299122
 31
0.0
  0
LINE
  5
C0B
  8
3
 10
42.242412958753327
 20
78.460022904138668
 30
0.0
 11
42.56998616959288
 21
78.132449693299122
 31
0.0
  0
LINE
  5
C0C
  8
3
 10
41.55368676061903
 20
78.460022904138668
 30
0.0
 11
42.242412958753327
 21
78.460022904138668
 31
0.0
  0
LINE
  5
C0D
  8
3
 10
39.809446883112862
 20
78.132449693299122
 30
0.0
 11
40.137020093952401
 21
78.460022904138668
 31
0.0
  0
LINE
  5
C0E
  8
3
 10
41.153319502926252
 20
78.132449693299122
 30
0.0
 11
39.809446883112862
 21
78.132449693299122
 31
0.0
  0
LINE
  5
C0F
  8
3
 10
40.825746292086592
 20
78.460022904138668
 30
0.0
 11
41.153319502926252
 21
78.132449693299122
 31
0.0
  0
LINE
  5
C10
  8
3
 10
40.137020093952401
 20
78.460022904138668
 30
0.0
 11
40.825746292086592
 21
78.460022904138668
 31
0.0
  0
LINE
  5
C11
  8
3
 10
39.736652836259623
 20
78.132449693299122
 30
0.0
 11
39.309457221840262
 21
78.132449693299122
 31
0.0
  0
LINE
  5
C12
  8
3
 10
39.569873977148397
 20
78.299228552410213
 30
0.0
 11
39.736652836259623
 21
78.132449693299122
 31
0.0
  0
LINE
  5
C13
  8
3
 10
47.220353427285659
 20
77.804876482459463
 30
0.0
 11
46.892780216446113
 21
78.132449693299122
 31
0.0
  0
LINE
  5
C14
  8
3
 10
47.909079625419963
 20
77.804876482459463
 30
0.0
 11
47.220353427285659
 21
77.804876482459463
 31
0.0
  0
LINE
  5
C15
  8
3
 10
48.236652836259623
 20
78.132449693299122
 30
0.0
 11
47.909079625419963
 21
77.804876482459463
 31
0.0
  0
LINE
  5
C16
  8
3
 10
45.80368676061903
 20
77.804876482459463
 30
0.0
 11
45.476113549779477
 21
78.132449693299122
 31
0.0
  0
LINE
  5
C17
  8
3
 10
46.492412958753327
 20
77.804876482459463
 30
0.0
 11
45.80368676061903
 21
77.804876482459463
 31
0.0
  0
LINE
  5
C18
  8
3
 10
46.81998616959288
 20
78.132449693299122
 30
0.0
 11
46.492412958753327
 21
77.804876482459463
 31
0.0
  0
LINE
  5
C19
  8
3
 10
44.387020093952401
 20
77.804876482459463
 30
0.0
 11
44.059446883112862
 21
78.132449693299122
 31
0.0
  0
LINE
  5
C1A
  8
3
 10
45.075746292086592
 20
77.804876482459463
 30
0.0
 11
44.387020093952401
 21
77.804876482459463
 31
0.0
  0
LINE
  5
C1B
  8
3
 10
45.403319502926252
 20
78.132449693299122
 30
0.0
 11
45.075746292086592
 21
77.804876482459463
 31
0.0
  0
LINE
  5
C1C
  8
3
 10
42.970353427285652
 20
77.804876482459463
 30
0.0
 11
42.642780216446113
 21
78.132449693299122
 31
0.0
  0
LINE
  5
C1D
  8
3
 10
43.659079625419963
 20
77.804876482459463
 30
0.0
 11
42.970353427285652
 21
77.804876482459463
 31
0.0
  0
LINE
  5
C1E
  8
3
 10
43.986652836259623
 20
78.132449693299122
 30
0.0
 11
43.659079625419963
 21
77.804876482459463
 31
0.0
  0
LINE
  5
C1F
  8
3
 10
41.55368676061903
 20
77.804876482459463
 30
0.0
 11
41.226113549779477
 21
78.132449693299122
 31
0.0
  0
LINE
  5
C20
  8
3
 10
42.242412958753327
 20
77.804876482459463
 30
0.0
 11
41.55368676061903
 21
77.804876482459463
 31
0.0
  0
LINE
  5
C21
  8
3
 10
42.56998616959288
 20
78.132449693299122
 30
0.0
 11
42.242412958753327
 21
77.804876482459463
 31
0.0
  0
LINE
  5
C22
  8
3
 10
40.137020093952401
 20
77.804876482459463
 30
0.0
 11
39.809446883112862
 21
78.132449693299122
 31
0.0
  0
LINE
  5
C23
  8
3
 10
40.825746292086592
 20
77.804876482459463
 30
0.0
 11
40.137020093952401
 21
77.804876482459463
 31
0.0
  0
LINE
  5
C24
  8
3
 10
41.153319502926252
 20
78.132449693299122
 30
0.0
 11
40.825746292086592
 21
77.804876482459463
 31
0.0
  0
LINE
  5
C25
  8
3
 10
39.40907962541997
 20
77.804876482459463
 30
0.0
 11
38.851520069597662
 21
77.804876482459463
 31
0.0
  0
LINE
  5
C26
  8
3
 10
39.736652836259623
 20
78.132449693299122
 30
0.0
 11
39.40907962541997
 21
77.804876482459463
 31
0.0
  0
LINE
  5
C27
  8
3
 10
48.736642497532223
 20
78.132449693299122
 30
0.0
 11
48.309446883112848
 21
78.132449693299122
 31
0.0
  0
LINE
  5
C28
  8
3
 10
48.637020093952401
 20
77.804876482459463
 30
0.0
 11
48.309446883112848
 21
78.132449693299122
 31
0.0
  0
LINE
  5
C29
  8
3
 10
49.19457964977471
 20
77.804876482459463
 30
0.0
 11
48.637020093952401
 21
77.804876482459463
 31
0.0
  0
LINE
  5
C2A
  8
3
 10
45.075746292086592
 20
62.876689570805347
 30
0.0
 11
45.297268919049309
 21
62.655166943842687
 31
0.0
  0
LINE
  5
C2B
  8
3
 10
44.387020093952401
 20
62.876689570805347
 30
0.0
 11
45.075746292086592
 21
62.876689570805347
 31
0.0
  0
LINE
  5
C2C
  8
3
 10
44.069574208480041
 20
62.559243685332937
 30
0.0
 11
44.387020093952401
 21
62.876689570805347
 31
0.0
  0
LINE
  5
C2D
  8
3
 10
43.659079625419963
 20
62.876689570805347
 30
0.0
 11
43.976525510892429
 21
62.559243685332937
 31
0.0
  0
LINE
  5
C2E
  8
3
 10
42.970353427285652
 20
62.876689570805347
 30
0.0
 11
43.659079625419963
 21
62.876689570805347
 31
0.0
  0
LINE
  5
C2F
  8
3
 10
42.748830800323049
 20
62.655166943842687
 30
0.0
 11
42.970353427285652
 21
62.876689570805347
 31
0.0
  0
LINE
  5
C30
  8
3
 10
42.242412958753327
 20
62.876689570805347
 30
0.0
 11
42.404454302585812
 21
62.71464822697282
 31
0.0
  0
LINE
  5
C31
  8
3
 10
41.72133488166866
 20
62.876689570805347
 30
0.0
 11
42.242412958753327
 21
62.876689570805347
 31
0.0
  0
LINE
  5
C32
  8
3
 10
42.429220060955572
 20
79.408350251328329
 30
0.0
 11
42.242412958753327
 21
79.221543149126205
 31
0.0
  0
LINE
  5
C33
  8
3
 10
42.242412958753327
 20
79.221543149126205
 30
0.0
 11
41.651386116320282
 21
79.221543149126205
 31
0.0
  0
LINE
  5
C34
  8
3
 10
44.387020093952401
 20
79.221543149126205
 30
0.0
 11
44.059446883112862
 21
79.549116359965751
 31
0.0
  0
LINE
  5
C35
  8
3
 10
45.075746292086592
 20
79.221543149126205
 30
0.0
 11
44.387020093952401
 21
79.221543149126205
 31
0.0
  0
LINE
  5
C36
  8
3
 10
45.314619821029169
 20
79.460416678068654
 30
0.0
 11
45.075746292086592
 21
79.221543149126205
 31
0.0
  0
LINE
  5
C37
  8
3
 10
45.80368676061903
 20
79.221543149126205
 30
0.0
 11
45.616879658416913
 21
79.408350251328329
 31
0.0
  0
LINE
  5
C38
  8
3
 10
46.394713603052082
 20
79.221543149126205
 30
0.0
 11
45.80368676061903
 21
79.221543149126205
 31
0.0
  0
LINE
  5
C39
  8
3
 10
45.641645416786439
 20
62.71464822697282
 30
0.0
 11
45.80368676061903
 21
62.876689570805347
 31
0.0
  0
LINE
  5
C3A
  8
3
 10
45.80368676061903
 20
62.876689570805347
 30
0.0
 11
46.324764837703583
 21
62.876689570805347
 31
0.0
  0
LINE
  5
C3B
  8
3
 10
48.637020093952401
 20
64.29335623747204
 30
0.0
 11
49.168386579947871
 21
64.29335623747204
 31
0.0
  0
LINE
  5
C3C
  8
3
 10
48.309446883112848
 20
63.96578302663243
 30
0.0
 11
48.637020093952401
 21
64.29335623747204
 31
0.0
  0
LINE
  5
C3D
  8
3
 10
50.05368676061903
 20
65.710022904138668
 30
0.0
 11
50.62889569506774
 21
65.710022904138668
 31
0.0
  0
LINE
  5
C3E
  8
3
 10
49.726113549779477
 20
65.382449693299122
 30
0.0
 11
50.05368676061903
 21
65.710022904138668
 31
0.0
  0
LINE
  5
C3F
  8
3
 10
51.470353427285659
 20
67.126689570805354
 30
0.0
 11
51.5586997684793
 21
67.126689570805354
 31
0.0
  0
LINE
  5
C40
  8
3
 10
51.142780216446113
 20
66.799116359965751
 30
0.0
 11
51.470353427285659
 21
67.126689570805354
 31
0.0
  0
LINE
  5
C41
  8
3
 10
51.470353427285659
 20
68.543356237472025
 30
0.0
 11
52.142221677431507
 21
68.543356237472025
 31
0.0
  0
LINE
  5
C42
  8
3
 10
51.142780216446113
 20
68.215783026632437
 30
0.0
 11
51.470353427285659
 21
68.543356237472025
 31
0.0
  0
LINE
  5
C43
  8
3
 10
37.30368676061903
 20
69.30487648245952
 30
0.0
 11
36.976113549779491
 21
69.632449693299122
 31
0.0
  0
LINE
  5
C44
  8
3
 10
37.992412958753327
 20
69.30487648245952
 30
0.0
 11
37.30368676061903
 21
69.30487648245952
 31
0.0
  0
LINE
  5
C45
  8
3
 10
38.31998616959288
 20
69.632449693299122
 30
0.0
 11
37.992412958753327
 21
69.30487648245952
 31
0.0
  0
LINE
  5
C46
  8
3
 10
35.887020093952401
 20
70.721543149126205
 30
0.0
 11
35.559446883112848
 21
71.049116359965751
 31
0.0
  0
LINE
  5
C47
  8
3
 10
36.575746292086592
 20
70.721543149126205
 30
0.0
 11
35.887020093952401
 21
70.721543149126205
 31
0.0
  0
LINE
  5
C48
  8
3
 10
36.903319502926252
 20
71.049116359965751
 30
0.0
 11
36.575746292086592
 21
70.721543149126205
 31
0.0
  0
LINE
  5
C49
  8
3
 10
37.30368676061903
 20
72.138209815792834
 30
0.0
 11
36.976113549779491
 21
72.465783026632437
 31
0.0
  0
LINE
  5
C4A
  8
3
 10
37.992412958753327
 20
72.138209815792834
 30
0.0
 11
37.30368676061903
 21
72.138209815792834
 31
0.0
  0
LINE
  5
C4B
  8
3
 10
38.31998616959288
 20
72.465783026632437
 30
0.0
 11
37.992412958753327
 21
72.138209815792834
 31
0.0
  0
LINE
  5
C4C
  8
3
 10
51.470353427285659
 20
74.210022904138654
 30
0.0
 11
51.917464844337587
 21
74.210022904138654
 31
0.0
  0
LINE
  5
C4D
  8
3
 10
51.142780216446113
 20
73.882449693299122
 30
0.0
 11
51.470353427285659
 21
74.210022904138654
 31
0.0
  0
LINE
  5
C4E
  8
3
 10
51.142780216446113
 20
75.299116359965751
 30
0.0
 11
51.298306050508131
 21
75.45464219402777
 31
0.0
  0
LINE
  5
C4F
  8
3
 10
49.726113549779477
 20
76.71578302663238
 30
0.0
 11
50.05368676061903
 21
77.04335623747204
 31
0.0
  0
LINE
  5
C50
  8
3
 10
48.309446883112848
 20
78.132449693299122
 30
0.0
 11
48.47622574222396
 21
78.299228552410213
 31
0.0
  0
LINE
  5
C51
  8
3
 10
42.970353427285652
 20
79.221543149126205
 30
0.0
 11
42.731479898343203
 21
79.460416678068654
 31
0.0
  0
LINE
  5
C52
  8
3
 10
43.659079625419963
 20
79.221543149126205
 30
0.0
 11
42.970353427285652
 21
79.221543149126205
 31
0.0
  0
LINE
  5
C53
  8
3
 10
43.986652836259623
 20
79.549116359965751
 30
0.0
 11
43.659079625419963
 21
79.221543149126205
 31
0.0
  0
LINE
  5
C54
  8
3
 10
35.887020093952401
 20
73.519811312838556
 30
0.0
 11
35.887020093952401
 21
72.79335623747204
 31
0.0
  0
LINE
  5
C55
  8
3
 10
35.887020093952401
 20
70.721543149126205
 30
0.0
 11
35.887020093952401
 21
69.960022904138668
 31
0.0
  0
LINE
  5
C56
  8
3
 10
35.887020093952401
 20
72.138209815792834
 30
0.0
 11
35.887020093952401
 21
71.376689570805354
 31
0.0
  0
LINE
  5
C57
  8
3
 10
35.887020093952401
 20
69.30487648245952
 30
0.0
 11
35.887020093952401
 21
68.598421407092985
 31
0.0
  0
LINE
  5
C58
  8
3
 10
52.159079625419963
 20
72.79335623747204
 30
0.0
 11
52.159079625419963
 21
73.519811312838556
 31
0.0
  0
LINE
  5
C59
  8
3
 10
52.159079625419963
 20
71.376689570805354
 30
0.0
 11
52.159079625419963
 21
72.138209815792834
 31
0.0
  0
LINE
  5
C5A
  8
3
 10
52.159079625419963
 20
69.960022904138668
 30
0.0
 11
52.159079625419963
 21
70.721543149126205
 31
0.0
  0
LINE
  5
C5B
  8
3
 10
51.470353427285659
 20
74.971543149126205
 30
0.0
 11
51.470353427285659
 21
74.210022904138654
 31
0.0
  0
ARC
  5
C5C
  8
3
 10
44.023049859890193
 20
71.059116360027929
 30
0.0
 40
8.4999999997868052
 50
16.827636469867159
 51
17.074735318767669
  0
LINE
  5
C5D
  8
3
 10
51.470353427285659
 20
73.55487648245952
 30
0.0
 11
51.470353427285659
 21
72.79335623747204
 31
0.0
  0
LINE
  5
C5E
  8
3
 10
51.470353427285659
 20
70.721543149126205
 30
0.0
 11
51.470353427285659
 21
69.960022904138668
 31
0.0
  0
LINE
  5
C5F
  8
3
 10
51.470353427285659
 20
72.138209815792834
 30
0.0
 11
51.470353427285659
 21
71.376689570805354
 31
0.0
  0
LINE
  5
C60
  8
3
 10
52.159079625419963
 20
68.598421407092985
 30
0.0
 11
52.159079625419963
 21
69.30487648245952
 31
0.0
  0
LINE
  5
C61
  8
3
 10
51.470353427285659
 20
69.30487648245952
 30
0.0
 11
51.470353427285659
 21
68.543356237472025
 31
0.0
  0
LINE
  5
C62
  8
3
 10
36.575746292086592
 20
74.210022904138654
 30
0.0
 11
36.575746292086592
 21
74.971543149126205
 31
0.0
  0
LINE
  5
C63
  8
3
 10
36.575746292086592
 20
72.79335623747204
 30
0.0
 11
36.575746292086592
 21
73.55487648245952
 31
0.0
  0
ARC
  5
C64
  8
3
 10
44.023049860181573
 20
71.059116359814766
 30
0.0
 40
8.5000000005178951
 50
162.92526468124359
 51
163.1723635301235
  0
LINE
  5
C65
  8
3
 10
36.575746292086592
 20
71.376689570805354
 30
0.0
 11
36.575746292086592
 21
72.138209815792834
 31
0.0
  0
LINE
  5
C66
  8
3
 10
36.575746292086592
 20
69.960022904138668
 30
0.0
 11
36.575746292086592
 21
70.721543149126205
 31
0.0
  0
LINE
  5
C67
  8
3
 10
36.575746292086592
 20
68.543356237472025
 30
0.0
 11
36.575746292086592
 21
69.30487648245952
 31
0.0
  0
ARC
  5
C68
  8
3
 10
44.023049859447489
 20
71.059116359892855
 30
0.0
 40
8.4999999997503952
 50
196.82763646986211
 51
197.2158186444251
  0
LINE
  5
C69
  8
3
 10
36.575746292086592
 20
67.126689570805354
 30
0.0
 11
36.575746292086592
 21
67.888209815792834
 31
0.0
  0
LINE
  5
C6A
  8
3
 10
36.939716526352868
 20
66.360564573628949
 30
0.0
 11
36.939716526352868
 21
75.757668146302535
 31
0.0
  0
LINE
  5
C6B
  8
3
 10
50.742412958753327
 20
65.853335002388917
 30
0.0
 11
50.742412958753327
 21
66.471543149126205
 31
0.0
  0
LINE
  5
C6C
  8
3
 10
51.106383193019497
 20
66.360564573628949
 30
0.0
 11
51.106383193019497
 21
75.757668146302535
 31
0.0
  0
LINE
  5
C6D
  8
3
 10
50.742412958753327
 20
75.626689570805297
 30
0.0
 11
50.742412958753327
 21
76.264897717542681
 31
0.0
  0
LINE
  5
C6E
  8
3
 10
50.742412958753327
 20
74.210022904138654
 30
0.0
 11
50.742412958753327
 21
74.971543149126205
 31
0.0
  0
LINE
  5
C6F
  8
3
 10
50.742412958753327
 20
72.79335623747204
 30
0.0
 11
50.742412958753327
 21
73.55487648245952
 31
0.0
  0
LINE
  5
C70
  8
3
 10
50.742412958753327
 20
71.376689570805354
 30
0.0
 11
50.742412958753327
 21
72.138209815792834
 31
0.0
  0
LINE
  5
C71
  8
3
 10
50.742412958753327
 20
69.960022904138668
 30
0.0
 11
50.742412958753327
 21
70.721543149126205
 31
0.0
  0
LINE
  5
C72
  8
3
 10
50.742412958753327
 20
68.543356237472025
 30
0.0
 11
50.742412958753327
 21
69.30487648245952
 31
0.0
  0
LINE
  5
C73
  8
3
 10
50.742412958753327
 20
67.126689570805354
 30
0.0
 11
50.742412958753327
 21
67.888209815792834
 31
0.0
  0
LINE
  5
C74
  8
3
 10
50.05368676061903
 20
76.388209815792834
 30
0.0
 11
50.05368676061903
 21
75.626689570805297
 31
0.0
  0
LINE
  5
C75
  8
3
 10
50.05368676061903
 20
74.971543149126205
 30
0.0
 11
50.05368676061903
 21
74.210022904138654
 31
0.0
  0
LINE
  5
C76
  8
3
 10
50.05368676061903
 20
73.55487648245952
 30
0.0
 11
50.05368676061903
 21
72.79335623747204
 31
0.0
  0
LINE
  5
C77
  8
3
 10
50.05368676061903
 20
72.138209815792834
 30
0.0
 11
50.05368676061903
 21
71.376689570805354
 31
0.0
  0
LINE
  5
C78
  8
3
 10
50.05368676061903
 20
70.721543149126205
 30
0.0
 11
50.05368676061903
 21
69.960022904138668
 31
0.0
  0
LINE
  5
C79
  8
3
 10
50.05368676061903
 20
67.888209815792834
 30
0.0
 11
50.05368676061903
 21
67.126689570805354
 31
0.0
  0
LINE
  5
C7A
  8
3
 10
50.05368676061903
 20
69.30487648245952
 30
0.0
 11
50.05368676061903
 21
68.543356237472025
 31
0.0
  0
LINE
  5
C7B
  8
3
 10
37.992412958753327
 20
77.04335623747204
 30
0.0
 11
37.992412958753327
 21
77.049226423153868
 31
0.0
  0
ARC
  5
C7C
  8
3
 10
44.023049855126033
 20
71.059116364489569
 30
0.0
 40
8.4999999935766315
 50
135.19316669494771
 51
135.24891113557959
  0
LINE
  5
C7D
  8
3
 10
37.992412958753327
 20
75.626689570805297
 30
0.0
 11
37.992412958753327
 21
76.388209815792834
 31
0.0
  0
LINE
  5
C7E
  8
3
 10
37.30368676061903
 20
76.264897717542681
 30
0.0
 11
37.30368676061903
 21
75.626689570805297
 31
0.0
  0
LINE
  5
C7F
  8
3
 10
37.992412958753327
 20
74.210022904138654
 30
0.0
 11
37.992412958753327
 21
74.971543149126205
 31
0.0
  0
LINE
  5
C80
  8
3
 10
37.30368676061903
 20
74.971543149126205
 30
0.0
 11
37.30368676061903
 21
74.210022904138654
 31
0.0
  0
LINE
  5
C81
  8
3
 10
37.992412958753327
 20
72.79335623747204
 30
0.0
 11
37.992412958753327
 21
73.55487648245952
 31
0.0
  0
LINE
  5
C82
  8
3
 10
37.30368676061903
 20
73.55487648245952
 30
0.0
 11
37.30368676061903
 21
72.79335623747204
 31
0.0
  0
LINE
  5
C83
  8
3
 10
37.992412958753327
 20
71.376689570805354
 30
0.0
 11
37.992412958753327
 21
72.138209815792834
 31
0.0
  0
LINE
  5
C84
  8
3
 10
37.30368676061903
 20
72.138209815792834
 30
0.0
 11
37.30368676061903
 21
71.376689570805354
 31
0.0
  0
LINE
  5
C85
  8
3
 10
37.992412958753327
 20
69.960022904138668
 30
0.0
 11
37.992412958753327
 21
70.721543149126205
 31
0.0
  0
LINE
  5
C86
  8
3
 10
37.30368676061903
 20
70.721543149126205
 30
0.0
 11
37.30368676061903
 21
69.960022904138668
 31
0.0
  0
LINE
  5
C87
  8
3
 10
37.992412958753327
 20
68.543356237472025
 30
0.0
 11
37.992412958753327
 21
69.30487648245952
 31
0.0
  0
LINE
  5
C88
  8
3
 10
37.30368676061903
 20
69.30487648245952
 30
0.0
 11
37.30368676061903
 21
68.543356237472025
 31
0.0
  0
LINE
  5
C89
  8
3
 10
37.992412958753327
 20
67.126689570805354
 30
0.0
 11
37.992412958753327
 21
67.888209815792834
 31
0.0
  0
LINE
  5
C8A
  8
3
 10
37.30368676061903
 20
67.888209815792834
 30
0.0
 11
37.30368676061903
 21
67.126689570805354
 31
0.0
  0
LINE
  5
C8B
  8
3
 10
37.992412958753327
 20
65.710022904138668
 30
0.0
 11
37.992412958753327
 21
66.471543149126205
 31
0.0
  0
LINE
  5
C8C
  8
3
 10
37.30368676061903
 20
66.471543149126205
 30
0.0
 11
37.30368676061903
 21
65.853335002388917
 31
0.0
  0
LINE
  5
C8D
  8
3
 10
38.356383193019497
 20
64.723590423716345
 30
0.0
 11
38.356383193019497
 21
77.394642296215125
 31
0.0
  0
LINE
  5
C8E
  8
3
 10
49.325746292086592
 20
64.415968721548595
 30
0.0
 11
49.325746292086592
 21
65.05487648245952
 31
0.0
  0
LINE
  5
C8F
  8
3
 10
49.689716526352861
 20
64.723590423716345
 30
0.0
 11
49.689716526352861
 21
77.394642296215125
 31
0.0
  0
LINE
  5
C90
  8
3
 10
49.325746292086592
 20
77.04335623747204
 30
0.0
 11
49.325746292086592
 21
77.702263998382932
 31
0.0
  0
LINE
  5
C91
  8
3
 10
49.325746292086592
 20
75.626689570805297
 30
0.0
 11
49.325746292086592
 21
76.388209815792834
 31
0.0
  0
LINE
  5
C92
  8
3
 10
49.325746292086592
 20
74.210022904138654
 30
0.0
 11
49.325746292086592
 21
74.971543149126205
 31
0.0
  0
LINE
  5
C93
  8
3
 10
49.325746292086592
 20
72.79335623747204
 30
0.0
 11
49.325746292086592
 21
73.55487648245952
 31
0.0
  0
LINE
  5
C94
  8
3
 10
49.325746292086592
 20
71.376689570805354
 30
0.0
 11
49.325746292086592
 21
72.138209815792834
 31
0.0
  0
LINE
  5
C95
  8
3
 10
49.325746292086592
 20
69.960022904138668
 30
0.0
 11
49.325746292086592
 21
70.721543149126205
 31
0.0
  0
LINE
  5
C96
  8
3
 10
49.325746292086592
 20
68.543356237472025
 30
0.0
 11
49.325746292086592
 21
69.30487648245952
 31
0.0
  0
LINE
  5
C97
  8
3
 10
49.325746292086592
 20
67.126689570805354
 30
0.0
 11
49.325746292086592
 21
67.888209815792834
 31
0.0
  0
LINE
  5
C98
  8
3
 10
49.325746292086592
 20
65.710022904138668
 30
0.0
 11
49.325746292086592
 21
66.471543149126205
 31
0.0
  0
LINE
  5
C99
  8
3
 10
48.637020093952401
 20
77.804876482459463
 30
0.0
 11
48.637020093952401
 21
77.04335623747204
 31
0.0
  0
LINE
  5
C9A
  8
3
 10
48.637020093952401
 20
76.388209815792834
 30
0.0
 11
48.637020093952401
 21
75.626689570805297
 31
0.0
  0
LINE
  5
C9B
  8
3
 10
48.637020093952401
 20
74.971543149126205
 30
0.0
 11
48.637020093952401
 21
74.210022904138654
 31
0.0
  0
LINE
  5
C9C
  8
3
 10
48.637020093952401
 20
73.55487648245952
 30
0.0
 11
48.637020093952401
 21
72.79335623747204
 31
0.0
  0
LINE
  5
C9D
  8
3
 10
48.637020093952401
 20
72.138209815792834
 30
0.0
 11
48.637020093952401
 21
71.376689570805354
 31
0.0
  0
LINE
  5
C9E
  8
3
 10
48.637020093952401
 20
70.721543149126205
 30
0.0
 11
48.637020093952401
 21
69.960022904138668
 31
0.0
  0
LINE
  5
C9F
  8
3
 10
48.637020093952401
 20
69.30487648245952
 30
0.0
 11
48.637020093952401
 21
68.543356237472025
 31
0.0
  0
LINE
  5
CA0
  8
3
 10
48.637020093952401
 20
66.471543149126205
 30
0.0
 11
48.637020093952401
 21
65.710022904138668
 31
0.0
  0
LINE
  5
CA1
  8
3
 10
48.637020093952401
 20
67.888209815792834
 30
0.0
 11
48.637020093952401
 21
67.126689570805354
 31
0.0
  0
LINE
  5
CA2
  8
3
 10
39.40907962541997
 20
77.04335623747204
 30
0.0
 11
39.40907962541997
 21
77.804876482459463
 31
0.0
  0
LINE
  5
CA3
  8
3
 10
38.720353427285659
 20
77.702263998382932
 30
0.0
 11
38.720353427285659
 21
77.04335623747204
 31
0.0
  0
LINE
  5
CA4
  8
3
 10
39.40907962541997
 20
75.626689570805297
 30
0.0
 11
39.40907962541997
 21
76.388209815792834
 31
0.0
  0
LINE
  5
CA5
  8
3
 10
38.720353427285659
 20
76.388209815792834
 30
0.0
 11
38.720353427285659
 21
75.626689570805297
 31
0.0
  0
LINE
  5
CA6
  8
3
 10
39.40907962541997
 20
74.210022904138654
 30
0.0
 11
39.40907962541997
 21
74.971543149126205
 31
0.0
  0
LINE
  5
CA7
  8
3
 10
38.720353427285659
 20
74.971543149126205
 30
0.0
 11
38.720353427285659
 21
74.210022904138654
 31
0.0
  0
LINE
  5
CA8
  8
3
 10
39.40907962541997
 20
72.79335623747204
 30
0.0
 11
39.40907962541997
 21
73.55487648245952
 31
0.0
  0
LINE
  5
CA9
  8
3
 10
38.720353427285659
 20
73.55487648245952
 30
0.0
 11
38.720353427285659
 21
72.79335623747204
 31
0.0
  0
LINE
  5
CAA
  8
3
 10
39.40907962541997
 20
71.376689570805354
 30
0.0
 11
39.40907962541997
 21
72.138209815792834
 31
0.0
  0
LINE
  5
CAB
  8
3
 10
38.720353427285659
 20
72.138209815792834
 30
0.0
 11
38.720353427285659
 21
71.376689570805354
 31
0.0
  0
LINE
  5
CAC
  8
3
 10
39.40907962541997
 20
69.960022904138668
 30
0.0
 11
39.40907962541997
 21
70.721543149126205
 31
0.0
  0
LINE
  5
CAD
  8
3
 10
38.720353427285659
 20
70.721543149126205
 30
0.0
 11
38.720353427285659
 21
69.960022904138668
 31
0.0
  0
LINE
  5
CAE
  8
3
 10
39.40907962541997
 20
68.543356237472025
 30
0.0
 11
39.40907962541997
 21
69.30487648245952
 31
0.0
  0
LINE
  5
CAF
  8
3
 10
38.720353427285659
 20
69.30487648245952
 30
0.0
 11
38.720353427285659
 21
68.543356237472025
 31
0.0
  0
LINE
  5
CB0
  8
3
 10
39.40907962541997
 20
67.126689570805354
 30
0.0
 11
39.40907962541997
 21
67.888209815792834
 31
0.0
  0
LINE
  5
CB1
  8
3
 10
38.720353427285659
 20
67.888209815792834
 30
0.0
 11
38.720353427285659
 21
67.126689570805354
 31
0.0
  0
LINE
  5
CB2
  8
3
 10
39.40907962541997
 20
65.710022904138668
 30
0.0
 11
39.40907962541997
 21
66.471543149126205
 31
0.0
  0
LINE
  5
CB3
  8
3
 10
38.720353427285659
 20
66.471543149126205
 30
0.0
 11
38.720353427285659
 21
65.710022904138668
 31
0.0
  0
LINE
  5
CB4
  8
3
 10
39.40907962541997
 20
64.29335623747204
 30
0.0
 11
39.40907962541997
 21
65.05487648245952
 31
0.0
  0
LINE
  5
CB5
  8
3
 10
38.720353427285659
 20
65.05487648245952
 30
0.0
 11
38.720353427285659
 21
64.415968721548595
 31
0.0
  0
LINE
  5
CB6
  8
3
 10
39.773049859686239
 20
63.697900427798011
 30
0.0
 11
39.773049859686239
 21
78.42033229213348
 31
0.0
  0
LINE
  5
CB7
  8
3
 10
40.825746292086592
 20
78.460022904138668
 30
0.0
 11
40.825746292086592
 21
78.934854414054143
 31
0.0
  0
LINE
  5
CB8
  8
3
 10
40.137020093952401
 20
78.618797084694165
 30
0.0
 11
40.137020093952401
 21
78.460022904138668
 31
0.0
  0
LINE
  5
CB9
  8
3
 10
40.825746292086592
 20
77.04335623747204
 30
0.0
 11
40.825746292086592
 21
77.804876482459463
 31
0.0
  0
LINE
  5
CBA
  8
3
 10
40.137020093952401
 20
77.804876482459463
 30
0.0
 11
40.137020093952401
 21
77.04335623747204
 31
0.0
  0
LINE
  5
CBB
  8
3
 10
40.825746292086592
 20
75.626689570805297
 30
0.0
 11
40.825746292086592
 21
76.388209815792834
 31
0.0
  0
LINE
  5
CBC
  8
3
 10
40.137020093952401
 20
76.388209815792834
 30
0.0
 11
40.137020093952401
 21
75.626689570805297
 31
0.0
  0
LINE
  5
CBD
  8
3
 10
40.825746292086592
 20
74.210022904138654
 30
0.0
 11
40.825746292086592
 21
74.971543149126205
 31
0.0
  0
LINE
  5
CBE
  8
3
 10
40.137020093952401
 20
74.971543149126205
 30
0.0
 11
40.137020093952401
 21
74.210022904138654
 31
0.0
  0
LINE
  5
CBF
  8
3
 10
40.825746292086592
 20
72.79335623747204
 30
0.0
 11
40.825746292086592
 21
73.55487648245952
 31
0.0
  0
LINE
  5
CC0
  8
3
 10
40.137020093952401
 20
73.55487648245952
 30
0.0
 11
40.137020093952401
 21
72.79335623747204
 31
0.0
  0
LINE
  5
CC1
  8
3
 10
40.825746292086592
 20
71.376689570805354
 30
0.0
 11
40.825746292086592
 21
72.138209815792834
 31
0.0
  0
LINE
  5
CC2
  8
3
 10
40.137020093952401
 20
72.138209815792834
 30
0.0
 11
40.137020093952401
 21
71.376689570805354
 31
0.0
  0
LINE
  5
CC3
  8
3
 10
40.825746292086592
 20
69.960022904138668
 30
0.0
 11
40.825746292086592
 21
70.721543149126205
 31
0.0
  0
LINE
  5
CC4
  8
3
 10
40.137020093952401
 20
70.721543149126205
 30
0.0
 11
40.137020093952401
 21
69.960022904138668
 31
0.0
  0
LINE
  5
CC5
  8
3
 10
40.825746292086592
 20
68.543356237472025
 30
0.0
 11
40.825746292086592
 21
69.30487648245952
 31
0.0
  0
LINE
  5
CC6
  8
3
 10
40.137020093952401
 20
69.30487648245952
 30
0.0
 11
40.137020093952401
 21
68.543356237472025
 31
0.0
  0
LINE
  5
CC7
  8
3
 10
40.825746292086592
 20
67.126689570805354
 30
0.0
 11
40.825746292086592
 21
67.888209815792834
 31
0.0
  0
LINE
  5
CC8
  8
3
 10
40.137020093952401
 20
67.888209815792834
 30
0.0
 11
40.137020093952401
 21
67.126689570805354
 31
0.0
  0
LINE
  5
CC9
  8
3
 10
40.825746292086592
 20
65.710022904138668
 30
0.0
 11
40.825746292086592
 21
66.471543149126205
 31
0.0
  0
LINE
  5
CCA
  8
3
 10
40.137020093952401
 20
66.471543149126205
 30
0.0
 11
40.137020093952401
 21
65.710022904138668
 31
0.0
  0
LINE
  5
CCB
  8
3
 10
40.137020093952401
 20
63.638209815792841
 30
0.0
 11
40.137020093952401
 21
63.499435635237319
 31
0.0
  0
LINE
  5
CCC
  8
3
 10
40.825746292086592
 20
63.183378305877447
 30
0.0
 11
40.825746292086592
 21
63.638209815792841
 31
0.0
  0
LINE
  5
CCD
  8
3
 10
40.825746292086592
 20
64.29335623747204
 30
0.0
 11
40.825746292086592
 21
65.05487648245952
 31
0.0
  0
LINE
  5
CCE
  8
3
 10
40.137020093952401
 20
65.05487648245952
 30
0.0
 11
40.137020093952401
 21
64.29335623747204
 31
0.0
  0
LINE
  5
CCF
  8
3
 10
41.189716526352868
 20
63.045239506518207
 30
0.0
 11
41.189716526352868
 21
79.072993213413255
 31
0.0
  0
LINE
  5
CD0
  8
3
 10
46.492412958753327
 20
62.925713266243861
 30
0.0
 11
46.492412958753327
 21
63.638209815792841
 31
0.0
  0
LINE
  5
CD1
  8
3
 10
46.856383193019497
 20
63.045239506518207
 30
0.0
 11
46.856383193019497
 21
79.072993213413255
 31
0.0
  0
LINE
  5
CD2
  8
3
 10
46.492412958753327
 20
78.460022904138668
 30
0.0
 11
46.492412958753327
 21
79.192519453687737
 31
0.0
  0
LINE
  5
CD3
  8
3
 10
46.492412958753327
 20
77.04335623747204
 30
0.0
 11
46.492412958753327
 21
77.804876482459463
 31
0.0
  0
LINE
  5
CD4
  8
3
 10
46.492412958753327
 20
75.626689570805297
 30
0.0
 11
46.492412958753327
 21
76.388209815792834
 31
0.0
  0
LINE
  5
CD5
  8
3
 10
46.492412958753327
 20
74.210022904138654
 30
0.0
 11
46.492412958753327
 21
74.971543149126205
 31
0.0
  0
LINE
  5
CD6
  8
3
 10
46.492412958753327
 20
72.79335623747204
 30
0.0
 11
46.492412958753327
 21
73.55487648245952
 31
0.0
  0
LINE
  5
CD7
  8
3
 10
46.492412958753327
 20
71.376689570805354
 30
0.0
 11
46.492412958753327
 21
72.138209815792834
 31
0.0
  0
LINE
  5
CD8
  8
3
 10
46.492412958753327
 20
69.960022904138668
 30
0.0
 11
46.492412958753327
 21
70.721543149126205
 31
0.0
  0
LINE
  5
CD9
  8
3
 10
46.492412958753327
 20
68.543356237472025
 30
0.0
 11
46.492412958753327
 21
69.30487648245952
 31
0.0
  0
LINE
  5
CDA
  8
3
 10
46.492412958753327
 20
67.126689570805354
 30
0.0
 11
46.492412958753327
 21
67.888209815792834
 31
0.0
  0
LINE
  5
CDB
  8
3
 10
46.492412958753327
 20
65.710022904138668
 30
0.0
 11
46.492412958753327
 21
66.471543149126205
 31
0.0
  0
LINE
  5
CDC
  8
3
 10
46.492412958753327
 20
64.29335623747204
 30
0.0
 11
46.492412958753327
 21
65.05487648245952
 31
0.0
  0
LINE
  5
CDD
  8
3
 10
47.909079625419963
 20
78.460022904138668
 30
0.0
 11
47.909079625419963
 21
78.618797084694165
 31
0.0
  0
LINE
  5
CDE
  8
3
 10
47.220353427285659
 20
78.934854414054143
 30
0.0
 11
47.220353427285659
 21
78.460022904138668
 31
0.0
  0
LINE
  5
CDF
  8
3
 10
47.909079625419963
 20
77.04335623747204
 30
0.0
 11
47.909079625419963
 21
77.804876482459463
 31
0.0
  0
LINE
  5
CE0
  8
3
 10
47.220353427285659
 20
77.804876482459463
 30
0.0
 11
47.220353427285659
 21
77.04335623747204
 31
0.0
  0
LINE
  5
CE1
  8
3
 10
47.909079625419963
 20
75.626689570805297
 30
0.0
 11
47.909079625419963
 21
76.388209815792834
 31
0.0
  0
LINE
  5
CE2
  8
3
 10
47.220353427285659
 20
76.388209815792834
 30
0.0
 11
47.220353427285659
 21
75.626689570805297
 31
0.0
  0
LINE
  5
CE3
  8
3
 10
47.909079625419963
 20
74.210022904138654
 30
0.0
 11
47.909079625419963
 21
74.971543149126205
 31
0.0
  0
LINE
  5
CE4
  8
3
 10
47.220353427285659
 20
74.971543149126205
 30
0.0
 11
47.220353427285659
 21
74.210022904138654
 31
0.0
  0
LINE
  5
CE5
  8
3
 10
47.909079625419963
 20
72.79335623747204
 30
0.0
 11
47.909079625419963
 21
73.55487648245952
 31
0.0
  0
LINE
  5
CE6
  8
3
 10
47.220353427285659
 20
73.55487648245952
 30
0.0
 11
47.220353427285659
 21
72.79335623747204
 31
0.0
  0
LINE
  5
CE7
  8
3
 10
47.909079625419963
 20
71.376689570805354
 30
0.0
 11
47.909079625419963
 21
72.138209815792834
 31
0.0
  0
LINE
  5
CE8
  8
3
 10
47.220353427285659
 20
72.138209815792834
 30
0.0
 11
47.220353427285659
 21
71.376689570805354
 31
0.0
  0
LINE
  5
CE9
  8
3
 10
47.909079625419963
 20
69.960022904138668
 30
0.0
 11
47.909079625419963
 21
70.721543149126205
 31
0.0
  0
LINE
  5
CEA
  8
3
 10
47.220353427285659
 20
70.721543149126205
 30
0.0
 11
47.220353427285659
 21
69.960022904138668
 31
0.0
  0
LINE
  5
CEB
  8
3
 10
47.909079625419963
 20
68.543356237472025
 30
0.0
 11
47.909079625419963
 21
69.30487648245952
 31
0.0
  0
LINE
  5
CEC
  8
3
 10
47.220353427285659
 20
69.30487648245952
 30
0.0
 11
47.220353427285659
 21
68.543356237472025
 31
0.0
  0
LINE
  5
CED
  8
3
 10
47.909079625419963
 20
67.126689570805354
 30
0.0
 11
47.909079625419963
 21
67.888209815792834
 31
0.0
  0
LINE
  5
CEE
  8
3
 10
47.220353427285659
 20
67.888209815792834
 30
0.0
 11
47.220353427285659
 21
67.126689570805354
 31
0.0
  0
LINE
  5
CEF
  8
3
 10
47.909079625419963
 20
65.710022904138668
 30
0.0
 11
47.909079625419963
 21
66.471543149126205
 31
0.0
  0
LINE
  5
CF0
  8
3
 10
47.220353427285659
 20
66.471543149126205
 30
0.0
 11
47.220353427285659
 21
65.710022904138668
 31
0.0
  0
LINE
  5
CF1
  8
3
 10
47.220353427285659
 20
63.638209815792841
 30
0.0
 11
47.220353427285659
 21
63.183378305877447
 31
0.0
  0
LINE
  5
CF2
  8
3
 10
47.909079625419963
 20
63.499435635237319
 30
0.0
 11
47.909079625419963
 21
63.638209815792841
 31
0.0
  0
LINE
  5
CF3
  8
3
 10
47.909079625419963
 20
64.29335623747204
 30
0.0
 11
47.909079625419963
 21
65.05487648245952
 31
0.0
  0
LINE
  5
CF4
  8
3
 10
47.220353427285659
 20
65.05487648245952
 30
0.0
 11
47.220353427285659
 21
64.29335623747204
 31
0.0
  0
LINE
  5
CF5
  8
3
 10
48.273049859686232
 20
63.697900427798011
 30
0.0
 11
48.273049859686232
 21
78.42033229213348
 31
0.0
  0
LINE
  5
CF6
  8
3
 10
45.80368676061903
 20
79.221543149126205
 30
0.0
 11
45.80368676061903
 21
78.460022904138668
 31
0.0
  0
LINE
  5
CF7
  8
3
 10
45.80368676061903
 20
77.804876482459463
 30
0.0
 11
45.80368676061903
 21
77.04335623747204
 31
0.0
  0
LINE
  5
CF8
  8
3
 10
45.80368676061903
 20
76.388209815792834
 30
0.0
 11
45.80368676061903
 21
75.626689570805297
 31
0.0
  0
LINE
  5
CF9
  8
3
 10
45.80368676061903
 20
74.971543149126205
 30
0.0
 11
45.80368676061903
 21
74.210022904138654
 31
0.0
  0
LINE
  5
CFA
  8
3
 10
45.80368676061903
 20
73.55487648245952
 30
0.0
 11
45.80368676061903
 21
72.79335623747204
 31
0.0
  0
LINE
  5
CFB
  8
3
 10
45.80368676061903
 20
72.138209815792834
 30
0.0
 11
45.80368676061903
 21
71.376689570805354
 31
0.0
  0
LINE
  5
CFC
  8
3
 10
45.80368676061903
 20
70.721543149126205
 30
0.0
 11
45.80368676061903
 21
69.960022904138668
 31
0.0
  0
LINE
  5
CFD
  8
3
 10
45.80368676061903
 20
69.30487648245952
 30
0.0
 11
45.80368676061903
 21
68.543356237472025
 31
0.0
  0
LINE
  5
CFE
  8
3
 10
45.80368676061903
 20
67.888209815792834
 30
0.0
 11
45.80368676061903
 21
67.126689570805354
 31
0.0
  0
LINE
  5
CFF
  8
3
 10
45.80368676061903
 20
65.05487648245952
 30
0.0
 11
45.80368676061903
 21
64.29335623747204
 31
0.0
  0
LINE
  5
D00
  8
3
 10
45.80368676061903
 20
66.471543149126205
 30
0.0
 11
45.80368676061903
 21
65.710022904138668
 31
0.0
  0
LINE
  5
D01
  8
3
 10
42.242412958753327
 20
78.460022904138668
 30
0.0
 11
42.242412958753327
 21
79.221543149126205
 31
0.0
  0
LINE
  5
D02
  8
3
 10
41.55368676061903
 20
79.192519453687737
 30
0.0
 11
41.55368676061903
 21
78.460022904138668
 31
0.0
  0
LINE
  5
D03
  8
3
 10
42.242412958753327
 20
77.04335623747204
 30
0.0
 11
42.242412958753327
 21
77.804876482459463
 31
0.0
  0
LINE
  5
D04
  8
3
 10
41.55368676061903
 20
77.804876482459463
 30
0.0
 11
41.55368676061903
 21
77.04335623747204
 31
0.0
  0
LINE
  5
D05
  8
3
 10
42.242412958753327
 20
75.626689570805297
 30
0.0
 11
42.242412958753327
 21
76.388209815792834
 31
0.0
  0
LINE
  5
D06
  8
3
 10
41.55368676061903
 20
76.388209815792834
 30
0.0
 11
41.55368676061903
 21
75.626689570805297
 31
0.0
  0
LINE
  5
D07
  8
3
 10
42.242412958753327
 20
74.210022904138654
 30
0.0
 11
42.242412958753327
 21
74.971543149126205
 31
0.0
  0
LINE
  5
D08
  8
3
 10
41.55368676061903
 20
74.971543149126205
 30
0.0
 11
41.55368676061903
 21
74.210022904138654
 31
0.0
  0
LINE
  5
D09
  8
3
 10
42.242412958753327
 20
72.79335623747204
 30
0.0
 11
42.242412958753327
 21
73.55487648245952
 31
0.0
  0
LINE
  5
D0A
  8
3
 10
41.55368676061903
 20
73.55487648245952
 30
0.0
 11
41.55368676061903
 21
72.79335623747204
 31
0.0
  0
LINE
  5
D0B
  8
3
 10
42.242412958753327
 20
71.376689570805354
 30
0.0
 11
42.242412958753327
 21
72.138209815792834
 31
0.0
  0
LINE
  5
D0C
  8
3
 10
41.55368676061903
 20
72.138209815792834
 30
0.0
 11
41.55368676061903
 21
71.376689570805354
 31
0.0
  0
LINE
  5
D0D
  8
3
 10
42.242412958753327
 20
69.960022904138668
 30
0.0
 11
42.242412958753327
 21
70.721543149126205
 31
0.0
  0
LINE
  5
D0E
  8
3
 10
41.55368676061903
 20
70.721543149126205
 30
0.0
 11
41.55368676061903
 21
69.960022904138668
 31
0.0
  0
LINE
  5
D0F
  8
3
 10
42.242412958753327
 20
68.543356237472025
 30
0.0
 11
42.242412958753327
 21
69.30487648245952
 31
0.0
  0
LINE
  5
D10
  8
3
 10
41.55368676061903
 20
69.30487648245952
 30
0.0
 11
41.55368676061903
 21
68.543356237472025
 31
0.0
  0
LINE
  5
D11
  8
3
 10
42.242412958753327
 20
67.126689570805354
 30
0.0
 11
42.242412958753327
 21
67.888209815792834
 31
0.0
  0
LINE
  5
D12
  8
3
 10
41.55368676061903
 20
67.888209815792834
 30
0.0
 11
41.55368676061903
 21
67.126689570805354
 31
0.0
  0
LINE
  5
D13
  8
3
 10
42.242412958753327
 20
65.710022904138668
 30
0.0
 11
42.242412958753327
 21
66.471543149126205
 31
0.0
  0
LINE
  5
D14
  8
3
 10
41.55368676061903
 20
66.471543149126205
 30
0.0
 11
41.55368676061903
 21
65.710022904138668
 31
0.0
  0
LINE
  5
D15
  8
3
 10
42.242412958753327
 20
64.29335623747204
 30
0.0
 11
42.242412958753327
 21
65.05487648245952
 31
0.0
  0
LINE
  5
D16
  8
3
 10
41.55368676061903
 20
65.05487648245952
 30
0.0
 11
41.55368676061903
 21
64.29335623747204
 31
0.0
  0
LINE
  5
D17
  8
3
 10
42.242412958753327
 20
62.876689570805347
 30
0.0
 11
42.242412958753327
 21
63.638209815792841
 31
0.0
  0
LINE
  5
D18
  8
3
 10
41.55368676061903
 20
63.638209815792841
 30
0.0
 11
41.55368676061903
 21
62.925713266243861
 31
0.0
  0
LINE
  5
D19
  8
3
 10
42.970353427285652
 20
63.638209815792841
 30
0.0
 11
42.970353427285652
 21
62.876689570805347
 31
0.0
  0
LINE
  5
D1A
  8
3
 10
42.970353427285652
 20
65.05487648245952
 30
0.0
 11
42.970353427285652
 21
64.29335623747204
 31
0.0
  0
LINE
  5
D1B
  8
3
 10
42.970353427285652
 20
66.471543149126205
 30
0.0
 11
42.970353427285652
 21
65.710022904138668
 31
0.0
  0
LINE
  5
D1C
  8
3
 10
42.970353427285652
 20
67.888209815792834
 30
0.0
 11
42.970353427285652
 21
67.126689570805354
 31
0.0
  0
LINE
  5
D1D
  8
3
 10
42.970353427285652
 20
69.30487648245952
 30
0.0
 11
42.970353427285652
 21
68.543356237472025
 31
0.0
  0
LINE
  5
D1E
  8
3
 10
42.970353427285652
 20
70.721543149126205
 30
0.0
 11
42.970353427285652
 21
69.960022904138668
 31
0.0
  0
LINE
  5
D1F
  8
3
 10
42.970353427285652
 20
72.138209815792834
 30
0.0
 11
42.970353427285652
 21
71.376689570805354
 31
0.0
  0
LINE
  5
D20
  8
3
 10
42.970353427285652
 20
73.55487648245952
 30
0.0
 11
42.970353427285652
 21
72.79335623747204
 31
0.0
  0
LINE
  5
D21
  8
3
 10
42.970353427285652
 20
74.971543149126205
 30
0.0
 11
42.970353427285652
 21
74.210022904138654
 31
0.0
  0
LINE
  5
D22
  8
3
 10
42.970353427285652
 20
76.388209815792834
 30
0.0
 11
42.970353427285652
 21
75.626689570805297
 31
0.0
  0
LINE
  5
D23
  8
3
 10
42.970353427285652
 20
77.804876482459463
 30
0.0
 11
42.970353427285652
 21
77.04335623747204
 31
0.0
  0
LINE
  5
D24
  8
3
 10
42.970353427285652
 20
79.221543149126205
 30
0.0
 11
42.970353427285652
 21
78.460022904138668
 31
0.0
  0
LINE
  5
D25
  8
3
 10
42.606383193019489
 20
62.678003333908009
 30
0.0
 11
42.606383193019489
 21
79.440229386023574
 31
0.0
  0
LINE
  5
D26
  8
3
 10
43.659079625419963
 20
78.460022904138668
 30
0.0
 11
43.659079625419963
 21
79.221543149126205
 31
0.0
  0
LINE
  5
D27
  8
3
 10
43.659079625419963
 20
77.04335623747204
 30
0.0
 11
43.659079625419963
 21
77.804876482459463
 31
0.0
  0
LINE
  5
D28
  8
3
 10
43.659079625419963
 20
75.626689570805297
 30
0.0
 11
43.659079625419963
 21
76.388209815792834
 31
0.0
  0
LINE
  5
D29
  8
3
 10
43.659079625419963
 20
74.210022904138654
 30
0.0
 11
43.659079625419963
 21
74.971543149126205
 31
0.0
  0
LINE
  5
D2A
  8
3
 10
43.659079625419963
 20
72.79335623747204
 30
0.0
 11
43.659079625419963
 21
73.55487648245952
 31
0.0
  0
LINE
  5
D2B
  8
3
 10
43.659079625419963
 20
71.376689570805354
 30
0.0
 11
43.659079625419963
 21
72.138209815792834
 31
0.0
  0
LINE
  5
D2C
  8
3
 10
43.659079625419963
 20
69.960022904138668
 30
0.0
 11
43.659079625419963
 21
70.721543149126205
 31
0.0
  0
LINE
  5
D2D
  8
3
 10
43.659079625419963
 20
68.543356237472025
 30
0.0
 11
43.659079625419963
 21
69.30487648245952
 31
0.0
  0
LINE
  5
D2E
  8
3
 10
43.659079625419963
 20
67.126689570805354
 30
0.0
 11
43.659079625419963
 21
67.888209815792834
 31
0.0
  0
LINE
  5
D2F
  8
3
 10
43.659079625419963
 20
65.710022904138668
 30
0.0
 11
43.659079625419963
 21
66.471543149126205
 31
0.0
  0
LINE
  5
D30
  8
3
 10
43.659079625419963
 20
64.29335623747204
 30
0.0
 11
43.659079625419963
 21
65.05487648245952
 31
0.0
  0
LINE
  5
D31
  8
3
 10
43.659079625419963
 20
62.876689570805347
 30
0.0
 11
43.659079625419963
 21
63.638209815792841
 31
0.0
  0
LINE
  5
D32
  8
3
 10
44.387020093952401
 20
63.638209815792841
 30
0.0
 11
44.387020093952401
 21
62.876689570805347
 31
0.0
  0
LINE
  5
D33
  8
3
 10
44.387020093952401
 20
65.05487648245952
 30
0.0
 11
44.387020093952401
 21
64.29335623747204
 31
0.0
  0
LINE
  5
D34
  8
3
 10
44.387020093952401
 20
66.471543149126205
 30
0.0
 11
44.387020093952401
 21
65.710022904138668
 31
0.0
  0
LINE
  5
D35
  8
3
 10
44.387020093952401
 20
67.888209815792834
 30
0.0
 11
44.387020093952401
 21
67.126689570805354
 31
0.0
  0
LINE
  5
D36
  8
3
 10
44.387020093952401
 20
69.30487648245952
 30
0.0
 11
44.387020093952401
 21
68.543356237472025
 31
0.0
  0
LINE
  5
D37
  8
3
 10
44.387020093952401
 20
70.721543149126205
 30
0.0
 11
44.387020093952401
 21
69.960022904138668
 31
0.0
  0
LINE
  5
D38
  8
3
 10
44.387020093952401
 20
72.138209815792834
 30
0.0
 11
44.387020093952401
 21
71.376689570805354
 31
0.0
  0
LINE
  5
D39
  8
3
 10
44.387020093952401
 20
73.55487648245952
 30
0.0
 11
44.387020093952401
 21
72.79335623747204
 31
0.0
  0
LINE
  5
D3A
  8
3
 10
44.387020093952401
 20
74.971543149126205
 30
0.0
 11
44.387020093952401
 21
74.210022904138654
 31
0.0
  0
LINE
  5
D3B
  8
3
 10
44.387020093952401
 20
76.388209815792834
 30
0.0
 11
44.387020093952401
 21
75.626689570805297
 31
0.0
  0
LINE
  5
D3C
  8
3
 10
44.387020093952401
 20
77.804876482459463
 30
0.0
 11
44.387020093952401
 21
77.04335623747204
 31
0.0
  0
LINE
  5
D3D
  8
3
 10
44.387020093952401
 20
79.221543149126205
 30
0.0
 11
44.387020093952401
 21
78.460022904138668
 31
0.0
  0
LINE
  5
D3E
  8
3
 10
44.023049859686239
 20
62.559116359965742
 30
0.0
 11
44.023049859686239
 21
79.559116359965742
 31
0.0
  0
LINE
  5
D3F
  8
3
 10
45.075746292086592
 20
78.460022904138668
 30
0.0
 11
45.075746292086592
 21
79.221543149126205
 31
0.0
  0
LINE
  5
D40
  8
3
 10
45.075746292086592
 20
77.04335623747204
 30
0.0
 11
45.075746292086592
 21
77.804876482459463
 31
0.0
  0
LINE
  5
D41
  8
3
 10
45.075746292086592
 20
75.626689570805297
 30
0.0
 11
45.075746292086592
 21
76.388209815792834
 31
0.0
  0
LINE
  5
D42
  8
3
 10
45.075746292086592
 20
74.210022904138654
 30
0.0
 11
45.075746292086592
 21
74.971543149126205
 31
0.0
  0
LINE
  5
D43
  8
3
 10
45.075746292086592
 20
72.79335623747204
 30
0.0
 11
45.075746292086592
 21
73.55487648245952
 31
0.0
  0
LINE
  5
D44
  8
3
 10
45.075746292086592
 20
71.376689570805354
 30
0.0
 11
45.075746292086592
 21
72.138209815792834
 31
0.0
  0
LINE
  5
D45
  8
3
 10
45.075746292086592
 20
69.960022904138668
 30
0.0
 11
45.075746292086592
 21
70.721543149126205
 31
0.0
  0
LINE
  5
D46
  8
3
 10
45.075746292086592
 20
68.543356237472025
 30
0.0
 11
45.075746292086592
 21
69.30487648245952
 31
0.0
  0
LINE
  5
D47
  8
3
 10
45.075746292086592
 20
67.126689570805354
 30
0.0
 11
45.075746292086592
 21
67.888209815792834
 31
0.0
  0
LINE
  5
D48
  8
3
 10
45.075746292086592
 20
65.710022904138668
 30
0.0
 11
45.075746292086592
 21
66.471543149126205
 31
0.0
  0
LINE
  5
D49
  8
3
 10
45.075746292086592
 20
64.29335623747204
 30
0.0
 11
45.075746292086592
 21
65.05487648245952
 31
0.0
  0
LINE
  5
D4A
  8
3
 10
45.075746292086592
 20
62.876689570805347
 30
0.0
 11
45.075746292086592
 21
63.638209815792841
 31
0.0
  0
LINE
  5
D4B
  8
3
 10
45.80368676061903
 20
63.638209815792841
 30
0.0
 11
45.80368676061903
 21
62.876689570805347
 31
0.0
  0
LINE
  5
D4C
  8
3
 10
45.439716526352868
 20
62.678003333908009
 30
0.0
 11
45.439716526352868
 21
79.440229386023574
 31
0.0
  0
LINE
  5
D4D
  8
3
 10
48.637020093952401
 20
65.05487648245952
 30
0.0
 11
48.637020093952401
 21
64.29335623747204
 31
0.0
  0
LINE
  5
D4E
  8
3
 10
50.05368676061903
 20
66.471543149126205
 30
0.0
 11
50.05368676061903
 21
65.710022904138668
 31
0.0
  0
LINE
  5
D4F
  8
3
 10
51.470353427285659
 20
67.888209815792834
 30
0.0
 11
51.470353427285659
 21
67.126689570805354
 31
0.0
  0
CIRCLE
  5
D66
  8
0
 10
44.023049859686353
 20
71.059116359965856
 30
0.0
 40
8.5
  0
LINE
  5
D67
  8
0
 10
44.023049859686353
 20
61.244161783742243
 30
0.0
 11
52.523049859686353
 21
66.151639071853992
 31
0.0
  0
LINE
  5
D68
  8
0
 10
52.523049859686239
 20
66.151639071854035
 30
0.0
 11
52.523049859686353
 21
75.966593648077833
 31
0.0
  0
LINE
  5
D69
  8
0
 10
52.523049859686353
 20
75.966593648077833
 30
0.0
 11
44.023049859686239
 21
80.874070936189469
 31
0.0
  0
LINE
  5
D6A
  8
0
 10
35.523049859686473
 20
75.966593648077719
 30
0.0
 11
35.523049859686473
 21
66.151639071853992
 31
0.0
  0
LINE
  5
D6B
  8
0
 10
44.023049859686473
 20
80.874070936189582
 30
0.0
 11
35.523049859686473
 21
75.966593648077719
 31
0.0
  0
LINE
  5
D6C
  8
0
 10
35.523049859686473
 20
66.151639071853992
 30
0.0
 11
44.023049859686473
 21
61.244161783742243
 31
0.0
  0
LINE
  5
D6D
  8
1
 10
33.023049859686473
 20
71.059116359965856
 30
0.0
 11
55.023049859686239
 21
71.059116359965856
 31
0.0
  0
LINE
  5
D6E
  8
1
 10
44.023049859686473
 20
58.357410437794158
 30
0.0
 11
44.023049859686353
 21
83.76082228213761
 31
0.0
  0
LINE
  5
D91
  8
0
 10
72.523049859686694
 20
21.657410437794169
 30
0.0
 11
73.323049859686648
 21
20.857410437794162
 31
0.0
  0
LINE
  5
D92
  8
0
 10
73.323049859686876
 20
20.857410437794162
 30
0.0
 11
91.352959012133724
 21
20.857410437794162
 31
0.0
  0
LINE
  5
D93
  8
0
 10
92.152959012133934
 20
21.657410437794169
 30
0.0
 11
91.352959012133724
 21
20.857410437794162
 31
0.0
  0
LINE
  5
D94
  8
0
 10
72.523049859686694
 20
21.657410437794169
 30
0.0
 11
92.152959012133934
 21
21.657410437794169
 31
0.0
  0
LINE
  5
D95
  8
2
 10
78.33800443591042
 20
21.380910437794231
 30
0.0
 11
78.33800443591042
 21
36.857410437794158
 31
0.0
  0
LINE
  5
D96
  8
2
 10
86.338004435910307
 20
21.380910437794171
 30
0.0
 11
86.33800443591042
 21
36.857410437794158
 31
0.0
  0
LINE
  5
D97
  8
2
 10
78.33800443591042
 20
36.857410437794158
 30
0.0
 11
86.33800443591042
 21
36.857410437794158
 31
0.0
  0
LINE
  5
D98
  8
2
 10
86.33800443591042
 20
36.857410437794158
 30
0.0
 11
85.661504435910388
 21
38.029142809114319
 31
0.0
  0
LINE
  5
D99
  8
2
 10
78.33800443591042
 20
36.857410437794158
 30
0.0
 11
79.014504435910226
 21
38.029142809114319
 31
0.0
  0
LINE
  5
D9A
  8
2
 10
85.661504435910388
 20
22.05741043779415
 30
0.0
 11
79.014504435910226
 21
22.05741043779415
 31
0.0
  0
LINE
  5
D9B
  8
2
 10
85.661504435910388
 20
22.05741043779415
 30
0.0
 11
86.861504435910433
 21
20.857410437794162
 31
0.0
  0
LINE
  5
D9C
  8
2
 10
79.014504435910226
 20
22.05741043779415
 30
0.0
 11
77.814504435910393
 21
20.857410437794162
 31
0.0
  0
LINE
  5
D9D
  8
2
 10
79.014504435910226
 20
41.857410437794151
 30
0.0
 11
82.338004435910406
 21
43.854370705132403
 31
0.0
  0
LINE
  5
D9E
  8
2
 10
79.014504435910226
 20
22.05741043779415
 30
0.0
 11
79.014504435910226
 21
41.857410437794151
 31
0.0
  0
LINE
  5
D9F
  8
2
 10
79.014504435910226
 20
41.857410437794151
 30
0.0
 11
85.661504435910388
 21
41.857410437794151
 31
0.0
  0
LINE
  5
DA0
  8
2
 10
85.661504435910615
 20
41.857410437794151
 30
0.0
 11
82.338004435910406
 21
43.854370705132403
 31
0.0
  0
LINE
  5
DA1
  8
2
 10
85.661504435910388
 20
22.05741043779415
 30
0.0
 11
85.661504435910388
 21
41.857410437794151
 31
0.0
  0
LINE
  5
DA2
  8
0
 10
35.523049859686473
 20
21.657410437794169
 30
0.0
 11
52.523049859686459
 21
21.657410437794169
 31
0.0
  0
LINE
  5
DA3
  8
0
 10
35.523049859686473
 20
21.657410437794169
 30
0.0
 11
36.323049859686421
 21
20.857410437794162
 31
0.0
  0
LINE
  5
DA4
  8
0
 10
52.523049859686459
 20
21.657410437794169
 30
0.0
 11
51.723049859686512
 21
20.857410437794162
 31
0.0
  0
LINE
  5
DA5
  8
0
 10
36.323049859686421
 20
20.857410437794162
 30
0.0
 11
51.723049859686512
 21
20.857410437794162
 31
0.0
  0
LINE
  5
DA6
  8
2
 10
40.699549859686272
 20
41.857410437794151
 30
0.0
 11
44.023049859686473
 21
43.854370705132403
 31
0.0
  0
LINE
  5
DA7
  8
2
 10
47.346549859686661
 20
41.857410437794151
 30
0.0
 11
44.023049859686473
 21
43.854370705132403
 31
0.0
  0
LINE
  5
DA8
  8
2
 10
40.699549859686492
 20
22.05741043779415
 30
0.0
 11
39.499549859686446
 21
20.857410437794162
 31
0.0
  0
LINE
  5
DA9
  8
2
 10
47.346549859686426
 20
22.05741043779415
 30
0.0
 11
48.546549859686479
 21
20.857410437794162
 31
0.0
  0
LINE
  5
DAA
  8
2
 10
47.346549859686426
 20
22.05741043779415
 30
0.0
 11
40.699549859686492
 21
22.05741043779415
 31
0.0
  0
LINE
  5
DAB
  8
2
 10
40.023049859686459
 20
36.857410437794158
 30
0.0
 11
40.699549859686492
 21
38.029142809114319
 31
0.0
  0
LINE
  5
DAC
  8
2
 10
48.023049859686459
 20
36.857410437794158
 30
0.0
 11
47.346549859686661
 21
38.029142809114319
 31
0.0
  0
LINE
  5
DAD
  8
2
 10
40.023049859686459
 20
36.857410437794158
 30
0.0
 11
48.023049859686459
 21
36.857410437794158
 31
0.0
  0
LINE
  5
DAE
  8
2
 10
48.023049859686239
 20
21.380910437794231
 30
0.0
 11
48.023049859686459
 21
36.857410437794158
 31
0.0
  0
LINE
  5
DAF
  8
2
 10
40.023049859686232
 20
21.380910437793769
 30
0.0
 11
40.023049859686459
 21
36.857410437794158
 31
0.0
  0
LINE
  5
DB0
  8
2
 10
40.699549859686492
 20
41.857410437794151
 30
0.0
 11
47.346549859686661
 21
41.857410437794151
 31
0.0
  0
LINE
  5
DB1
  8
2
 10
47.346549859686661
 20
22.057410437793859
 30
0.0
 11
47.346549859686661
 21
41.857410437794151
 31
0.0
  0
LINE
  5
DB2
  8
2
 10
40.699549859686492
 20
22.05741043779415
 30
0.0
 11
40.699549859686492
 21
41.857410437794151
 31
0.0
  0
LINE
  5
DB3
  8
0
 10
74.088004435910079
 20
43.857410437794321
 30
0.0
 11
90.58800443591042
 21
43.857410437794101
 31
0.0
  0
ARC
  5
DB4
  8
0
 10
89.699220368077818
 20
39.36817419817271
 30
0.0
 40
4.3448986723233833
 50
64.384247467891115
 51
124.3842474680059
  0
LINE
  5
DB5
  8
0
 10
92.152959012133692
 20
42.953883491942058
 30
0.0
 11
90.588004435910079
 21
43.857410437794321
 31
0.0
  0
LINE
  5
DB6
  8
0
 10
92.152959012133692
 20
42.953883491942058
 30
0.0
 11
92.152959012133564
 21
21.657410437794169
 31
0.0
  0
LINE
  5
DB7
  8
0
 10
87.245481724022838
 20
42.953883491942058
 30
0.0
 11
87.245481724019427
 21
21.657410437794169
 31
0.0
  0
LINE
  5
DB8
  8
0
 10
77.430527147797306
 20
42.953883491942058
 30
0.0
 11
77.430527147800262
 21
21.657410437794169
 31
0.0
  0
LINE
  5
DB9
  8
0
 10
72.523049859686466
 20
42.953883491942058
 30
0.0
 11
72.523049859686239
 21
21.657410437794169
 31
0.0
  0
LINE
  5
DBA
  8
0
 10
72.523049859686466
 20
42.953883491942058
 30
0.0
 11
74.088004435910079
 21
43.857410437794321
 31
0.0
  0
ARC
  5
DBB
  8
0
 10
82.338004435909511
 20
27.472262249029491
 30
0.0
 40
16.24081062146659
 50
72.412046226029489
 51
107.5879537739705
  0
ARC
  5
DBC
  8
0
 10
74.976788503742341
 20
39.36817419817271
 30
0.0
 40
4.3448986723233833
 50
55.615752531994112
 51
115.6157525321088
  0
LINE
  5
DBD
  8
1
 10
82.338004435910193
 20
48.357410437794208
 30
0.0
 11
82.338004435910307
 21
18.357410437794211
 31
0.0
  0
LINE
  5
DBE
  8
0
 10
73.838004435910193
 20
44.984885211988619
 30
0.0
 11
73.838004435910193
 21
43.713072870496937
 31
0.0
  0
LINE
  5
DBF
  8
0
 10
90.838004435910193
 20
43.713072870496831
 30
0.0
 11
90.838004435910193
 21
45.057410437794147
 31
0.0
  0
ARC
  5
DC0
  8
0
 10
48.273049859686459
 20
31.437566232079629
 30
0.0
 40
12.275506638416489
 50
69.743841999604015
 51
110.2561580003959
  0
LINE
  5
DC1
  8
0
 10
52.523049859686459
 20
43.713072870496148
 30
0.0
 11
52.273049859685329
 21
43.857410437794151
 31
0.0
  0
LINE
  5
DC2
  8
0
 10
52.523049859686459
 20
44.857410437794549
 30
0.0
 11
52.523049859686012
 21
21.657410437794109
 31
0.0
  0
LINE
  5
DC3
  8
0
 10
44.023049859686473
 20
42.953883491941781
 30
0.0
 11
44.023049859686687
 21
21.657410437794169
 31
0.0
  0
LINE
  5
DC4
  8
0
 10
35.523049859686239
 20
44.857410437794549
 30
0.0
 11
35.523049859686807
 21
21.657410437794109
 31
0.0
  0
LINE
  5
DC5
  8
0
 10
35.523049859686353
 20
43.713072870496148
 30
0.0
 11
35.773049859687383
 21
43.857410437794151
 31
0.0
  0
ARC
  5
DC6
  8
0
 10
39.773049859686473
 20
31.437566232079629
 30
0.0
 40
12.275506638416489
 50
69.743841999604015
 51
110.2561580003959
  0
LINE
  5
DC7
  8
0
 10
52.273049859685329
 20
43.857410437794151
 30
0.0
 11
35.773049859687383
 21
43.857410437794151
 31
0.0
  0
LINE
  5
DC8
  8
1
 10
44.023049859686473
 20
48.357410437794158
 30
0.0
 11
44.023049859686687
 21
18.357410437794211
 31
0.0
  0
LINE
  5
DC9
  8
0
 10
48.23665283625985
 20
44.957410437794117
 30
0.0
 11
46.89278021644634
 21
44.957410437794117
 31
0.0
  0
LINE
  5
DCA
  8
0
 10
46.819986169593108
 20
44.957410437794117
 30
0.0
 11
45.476113549779711
 21
44.957410437794117
 31
0.0
  0
LINE
  5
DCB
  8
0
 10
45.403319502926479
 20
44.957410437794117
 30
0.0
 11
44.059446883113083
 21
44.957410437794117
 31
0.0
  0
LINE
  5
DCC
  8
0
 10
43.98665283625985
 20
44.957410437794117
 30
0.0
 11
42.64278021644634
 21
44.957410437794117
 31
0.0
  0
LINE
  5
DCD
  8
0
 10
42.569986169593101
 20
44.957410437794117
 30
0.0
 11
41.226113549779711
 21
44.957410437794117
 31
0.0
  0
LINE
  5
DCE
  8
0
 10
41.153319502926479
 20
44.957410437794117
 30
0.0
 11
39.809446883113083
 21
44.957410437794117
 31
0.0
  0
LINE
  5
DCF
  8
0
 10
39.40907962542019
 20
45.857410437794158
 30
0.0
 11
39.773049859686473
 21
44.857410437794208
 31
0.0
  0
LINE
  5
DD0
  8
0
 10
49.653319502926479
 20
44.957410437794117
 30
0.0
 11
48.309446883113083
 21
44.957410437794117
 31
0.0
  0
LINE
  5
DD1
  8
0
 10
37.992412958753562
 20
45.857410437794158
 30
0.0
 11
37.999458199493688
 21
45.838053797946031
 31
0.0
  0
LINE
  5
DD2
  8
0
 10
51.069986169593108
 20
44.957410437794117
 30
0.0
 11
49.726113549779711
 21
44.957410437794117
 31
0.0
  0
LINE
  5
DD3
  8
0
 10
36.575746292086819
 20
45.857410437794158
 30
0.0
 11
36.939716526353102
 21
44.857410437794101
 31
0.0
  0
LINE
  5
DD4
  8
0
 10
52.48665283625985
 20
44.957410437794117
 30
0.0
 11
51.14278021644634
 21
44.957410437794117
 31
0.0
  0
LINE
  5
DD5
  8
0
 10
36.903319502926479
 20
44.957410437794117
 30
0.0
 11
35.55944688311309
 21
44.957410437794117
 31
0.0
  0
LINE
  5
DD6
  8
0
 10
38.319986169593108
 20
44.957410437794117
 30
0.0
 11
36.976113549779711
 21
44.957410437794117
 31
0.0
  0
LINE
  5
DD7
  8
0
 10
39.73665283625985
 20
44.957410437794117
 30
0.0
 11
38.39278021644634
 21
44.957410437794117
 31
0.0
  0
LINE
  5
DD8
  8
0
 10
45.075746292086819
 20
45.857410437794158
 30
0.0
 11
45.439716526353088
 21
44.857410437794101
 31
0.0
  0
LINE
  5
DD9
  8
0
 10
44.387020093952628
 20
45.857410437794158
 30
0.0
 11
45.075746292086819
 21
45.857410437794158
 31
0.0
  0
LINE
  5
DDA
  8
0
 10
44.023049859686473
 20
44.857410437794208
 30
0.0
 11
44.387020093952628
 21
45.857410437794158
 31
0.0
  0
LINE
  5
DDB
  8
0
 10
43.65907962542019
 20
45.857410437794158
 30
0.0
 11
44.023049859686473
 21
44.857410437794208
 31
0.0
  0
LINE
  5
DDC
  8
0
 10
42.970353427285879
 20
45.857410437794158
 30
0.0
 11
43.65907962542019
 21
45.857410437794158
 31
0.0
  0
LINE
  5
DDD
  8
0
 10
42.606383193019717
 20
44.857410437794101
 30
0.0
 11
42.970353427285879
 21
45.857410437794158
 31
0.0
  0
LINE
  5
DDE
  8
0
 10
42.242412958753562
 20
45.857410437794158
 30
0.0
 11
42.606383193019717
 21
44.857410437794101
 31
0.0
  0
LINE
  5
DDF
  8
0
 10
45.439716526353088
 20
44.857410437794101
 30
0.0
 11
45.80368676061925
 21
45.857410437794158
 31
0.0
  0
LINE
  5
DE0
  8
0
 10
48.273049859686353
 20
44.857410437794208
 30
0.0
 11
48.637020093952628
 21
45.857410437794158
 31
0.0
  0
LINE
  5
DE1
  8
0
 10
50.046641519879131
 20
45.838053797946031
 30
0.0
 11
50.053686760619257
 21
45.857410437794158
 31
0.0
  0
LINE
  5
DE2
  8
0
 10
51.106383193019731
 20
44.857410437794101
 30
0.0
 11
51.470353427285893
 21
45.857410437794158
 31
0.0
  0
POLYLINE
  5
DE3
  8
0
 66
     1
 10
0.0
 20
0.0
 30
0.0
  0
VERTEX
  5
F3F
  8
0
 10
35.887020093952628
 20
45.857410437794158
 30
0.0
  0
VERTEX
  5
F40
  8
0
 10
35.87934699699565
 20
45.83632877716763
 30
0.0
  0
VERTEX
  5
F41
  8
0
 10
35.864240917211987
 20
45.794825164065337
 30
0.0
  0
VERTEX
  5
F42
  8
0
 10
35.849455483021643
 20
45.754202517490739
 30
0.0
  0
VERTEX
  5
F43
  8
0
 10
35.842183190103022
 20
45.734222056909168
 30
0.0
  0
VERTEX
  5
F44
  8
0
 10
35.834991275500329
 20
45.714462433935687
 30
0.0
  0
VERTEX
  5
F45
  8
0
 10
35.820848863099293
 20
45.675606475207019
 30
0.0
  0
VERTEX
  5
F46
  8
0
 10
35.807028801622778
 20
45.637636168364907
 30
0.0
  0
VERTEX
  5
F47
  8
0
 10
35.793531634206722
 20
45.600553005662732
 30
0.0
  0
VERTEX
  5
F48
  8
0
 10
35.780357891297058
 20
45.564358444488903
 30
0.0
  0
VERTEX
  5
F49
  8
0
 10
35.767508090629121
 20
45.529053907309269
 30
0.0
  0
VERTEX
  5
F4A
  8
0
 10
35.761204826947392
 20
45.511735832674837
 30
0.0
  0
VERTEX
  5
F4B
  8
0
 10
35.754982737207001
 20
45.494640781611047
 30
0.0
  0
VERTEX
  5
F4C
  8
0
 10
35.742782323283677
 20
45.461120419848719
 30
0.0
  0
VERTEX
  5
F4D
  8
0
 10
35.730907328342141
 20
45.42849413939058
 30
0.0
  0
VERTEX
  5
F4E
  8
0
 10
35.719358219075957
 20
45.396763222467079
 30
0.0
  0
VERTEX
  5
F4F
  8
0
 10
35.708135449371518
 20
45.365928916120311
 30
0.0
  0
VERTEX
  5
F50
  8
0
 10
35.697239460289552
 20
45.335992432155187
 30
0.0
  0
VERTEX
  5
F51
  8
0
 10
35.691914142802382
 20
45.32136124260785
 30
0.0
  0
VERTEX
  5
F52
  8
0
 10
35.686670680048451
 20
45.306954947091747
 30
0.0
  0
VERTEX
  5
F53
  8
0
 10
35.676429524007062
 20
45.278817602118693
 30
0.0
  0
VERTEX
  5
F54
  8
0
 10
35.66651639464817
 20
45.251581503048953
 30
0.0
  0
VERTEX
  5
F55
  8
0
 10
35.523049859686473
 20
44.857410437794897
 30
0.0
  0
SEQEND
  5
F56
  8
0
  0
LINE
  5
DE4
  8
0
 10
51.470353427285893
 20
45.857410437794158
 30
0.0
 11
52.15907962542019
 21
45.857410437794158
 31
0.0
  0
LINE
  5
DE5
  8
0
 10
35.887020093952628
 20
45.857410437794158
 30
0.0
 11
36.575746292086819
 21
45.857410437794158
 31
0.0
  0
POLYLINE
  5
DE6
  8
0
 66
     1
 10
0.0
 20
0.0
 30
0.0
  0
VERTEX
  5
F57
  8
0
 10
51.106383193019731
 20
44.857410437794151
 30
0.0
  0
VERTEX
  5
F58
  8
0
 10
51.04832452801088
 20
45.016925308909769
 30
0.0
  0
VERTEX
  5
F59
  8
0
 10
50.929056495994807
 20
45.344611533736717
 30
0.0
  0
VERTEX
  5
F5A
  8
0
 10
50.805647387436352
 20
45.683675272856021
 30
0.0
  0
VERTEX
  5
F5B
  8
0
 10
50.742412958753562
 20
45.857410437794158
 30
0.0
  0
SEQEND
  5
F5C
  8
0
  0
LINE
  5
DE7
  8
0
 10
37.303686760619257
 20
45.857410437794158
 30
0.0
 11
37.992412958753562
 21
45.857410437794158
 31
0.0
  0
POLYLINE
  5
DE8
  8
0
 66
     1
 10
0.0
 20
0.0
 30
0.0
  0
VERTEX
  5
F5D
  8
0
 10
38.356383193019731
 20
44.857410437794151
 30
0.0
  0
VERTEX
  5
F5E
  8
0
 10
38.295545278599782
 20
45.024561233909772
 30
0.0
  0
VERTEX
  5
F5F
  8
0
 10
38.175473271540803
 20
45.354456362012897
 30
0.0
  0
VERTEX
  5
F60
  8
0
 10
38.057576837434112
 20
45.67837415255525
 30
0.0
  0
VERTEX
  5
F61
  8
0
 10
37.999458199493688
 20
45.838053797946031
 30
0.0
  0
SEQEND
  5
F62
  8
0
  0
POLYLINE
  5
DE9
  8
0
 66
     1
 10
0.0
 20
0.0
 30
0.0
  0
VERTEX
  5
F63
  8
0
 10
49.689716526353102
 20
44.857410437794151
 30
0.0
  0
VERTEX
  5
F64
  8
0
 10
49.630261555403301
 20
45.020761627952929
 30
0.0
  0
VERTEX
  5
F65
  8
0
 10
49.509887699253447
 20
45.351486079617302
 30
0.0
  0
VERTEX
  5
F66
  8
0
 10
49.387597071099663
 20
45.68747681908075
 30
0.0
  0
VERTEX
  5
F67
  8
0
 10
49.325746292086819
 20
45.857410437794158
 30
0.0
  0
SEQEND
  5
F68
  8
0
  0
LINE
  5
DEA
  8
0
 10
38.720353427285893
 20
45.857410437794158
 30
0.0
 11
39.40907962542019
 21
45.857410437794158
 31
0.0
  0
LINE
  5
DEB
  8
0
 10
40.137020093952621
 20
45.857410437794158
 30
0.0
 11
40.825746292086812
 21
45.857410437794158
 31
0.0
  0
POLYLINE
  5
DEC
  8
0
 66
     1
 10
0.0
 20
0.0
 30
0.0
  0
VERTEX
  5
F69
  8
0
 10
41.189716526353088
 20
44.857410437794151
 30
0.0
  0
VERTEX
  5
F6A
  8
0
 10
41.128621302735262
 20
45.025268185120581
 30
0.0
  0
VERTEX
  5
F6B
  8
0
 10
41.006940455222548
 20
45.35958356604192
 30
0.0
  0
VERTEX
  5
F6C
  8
0
 10
40.885962695002597
 20
45.691967230502478
 30
0.0
  0
VERTEX
  5
F6D
  8
0
 10
40.825746292086812
 20
45.857410437794158
 30
0.0
  0
SEQEND
  5
F6E
  8
0
  0
POLYLINE
  5
DED
  8
0
 66
     1
 10
0.0
 20
0.0
 30
0.0
  0
VERTEX
  5
F6F
  8
0
 10
46.856383193019717
 20
44.857410437794151
 30
0.0
  0
VERTEX
  5
F70
  8
0
 10
46.796101333073459
 20
45.023033486799363
 30
0.0
  0
VERTEX
  5
F71
  8
0
 10
46.675071540230647
 20
45.355560109716173
 30
0.0
  0
VERTEX
  5
F72
  8
0
 10
46.553443098338668
 20
45.689731507377871
 30
0.0
  0
VERTEX
  5
F73
  8
0
 10
46.492412958753562
 20
45.857410437794158
 30
0.0
  0
SEQEND
  5
F74
  8
0
  0
LINE
  5
DEE
  8
0
 10
47.220353427285879
 20
45.857410437794158
 30
0.0
 11
47.90907962542019
 21
45.857410437794158
 31
0.0
  0
POLYLINE
  5
DEF
  8
0
 66
     1
 10
0.0
 20
0.0
 30
0.0
  0
VERTEX
  5
F75
  8
0
 10
48.273049859686459
 20
44.857410437794151
 30
0.0
  0
VERTEX
  5
F76
  8
0
 10
48.213067112350238
 20
45.022211681657041
 30
0.0
  0
VERTEX
  5
F77
  8
0
 10
48.092274866453522
 20
45.354085649703791
 30
0.0
  0
VERTEX
  5
F78
  8
0
 10
47.970406925246493
 20
45.688915066325528
 30
0.0
  0
VERTEX
  5
F79
  8
0
 10
47.90907962542019
 20
45.857410437794158
 30
0.0
  0
SEQEND
  5
F7A
  8
0
  0
LINE
  5
DF0
  8
0
 10
41.55368676061925
 20
45.857410437794158
 30
0.0
 11
42.242412958753562
 21
45.857410437794158
 31
0.0
  0
POLYLINE
  5
DF1
  8
0
 66
     1
 10
0.0
 20
0.0
 30
0.0
  0
VERTEX
  5
F7B
  8
0
 10
41.55368676061925
 20
45.857410437794158
 30
0.0
  0
VERTEX
  5
F7C
  8
0
 10
41.492656621034143
 20
45.689731507377871
 30
0.0
  0
VERTEX
  5
F7D
  8
0
 10
41.371028179142172
 20
45.355560109716173
 30
0.0
  0
VERTEX
  5
F7E
  8
0
 10
41.249998386299353
 20
45.023033486799299
 30
0.0
  0
VERTEX
  5
F7F
  8
0
 10
41.189716526353088
 20
44.857410437794151
 30
0.0
  0
SEQEND
  5
F80
  8
0
  0
POLYLINE
  5
DF2
  8
0
 66
     1
 10
0.0
 20
0.0
 30
0.0
  0
VERTEX
  5
F81
  8
0
 10
40.137020093952621
 20
45.857410437794158
 30
0.0
  0
VERTEX
  5
F82
  8
0
 10
40.075692794126439
 20
45.688915066325528
 30
0.0
  0
VERTEX
  5
F83
  8
0
 10
39.953824852919411
 20
45.35408564970384
 30
0.0
  0
VERTEX
  5
F84
  8
0
 10
39.833032607022567
 20
45.022211681657041
 30
0.0
  0
VERTEX
  5
F85
  8
0
 10
39.773049859686473
 20
44.857410437794151
 30
0.0
  0
SEQEND
  5
F86
  8
0
  0
POLYLINE
  5
DF3
  8
0
 66
     1
 10
0.0
 20
0.0
 30
0.0
  0
VERTEX
  5
F87
  8
0
 10
38.720353427285893
 20
45.857410437794158
 30
0.0
  0
VERTEX
  5
F88
  8
0
 10
38.658502648273149
 20
45.68747681908075
 30
0.0
  0
VERTEX
  5
F89
  8
0
 10
38.536212020119358
 20
45.351486079617302
 30
0.0
  0
VERTEX
  5
F8A
  8
0
 10
38.415838163969511
 20
45.020761627952929
 30
0.0
  0
VERTEX
  5
F8B
  8
0
 10
38.356383193019731
 20
44.857410437794151
 30
0.0
  0
SEQEND
  5
F8C
  8
0
  0
POLYLINE
  5
DF4
  8
0
 66
     1
 10
0.0
 20
0.0
 30
0.0
  0
VERTEX
  5
F8D
  8
0
 10
37.303686760619257
 20
45.857410437794158
 30
0.0
  0
VERTEX
  5
F8E
  8
0
 10
37.240452331936467
 20
45.683675272856078
 30
0.0
  0
VERTEX
  5
F8F
  8
0
 10
37.117043223378118
 20
45.344611533736717
 30
0.0
  0
VERTEX
  5
F90
  8
0
 10
36.997775191361939
 20
45.016925308909769
 30
0.0
  0
VERTEX
  5
F91
  8
0
 10
36.939716526353102
 20
44.857410437794151
 30
0.0
  0
SEQEND
  5
F92
  8
0
  0
POLYLINE
  5
DF5
  8
0
 66
     1
 10
0.0
 20
0.0
 30
0.0
  0
VERTEX
  5
F93
  8
0
 10
52.523049859686459
 20
44.857410437794897
 30
0.0
  0
VERTEX
  5
F94
  8
0
 10
52.379583324724649
 20
45.251581503048953
 30
0.0
  0
VERTEX
  5
F95
  8
0
 10
52.36967019536575
 20
45.278817602118693
 30
0.0
  0
VERTEX
  5
F96
  8
0
 10
52.359429039324247
 20
45.306954947091747
 30
0.0
  0
VERTEX
  5
F97
  8
0
 10
52.35418557657033
 20
45.32136124260785
 30
0.0
  0
VERTEX
  5
F98
  8
0
 10
52.348860259083153
 20
45.335992432155187
 30
0.0
  0
VERTEX
  5
F99
  8
0
 10
52.3379642700014
 20
45.365928916120311
 30
0.0
  0
VERTEX
  5
F9A
  8
0
 10
52.326741500296862
 20
45.396763222467079
 30
0.0
  0
VERTEX
  5
F9B
  8
0
 10
52.315192391030791
 20
45.42849413939058
 30
0.0
  0
VERTEX
  5
F9C
  8
0
 10
52.303317396089142
 20
45.461120419848719
 30
0.0
  0
VERTEX
  5
F9D
  8
0
 10
52.291116982165811
 20
45.494640781611047
 30
0.0
  0
VERTEX
  5
F9E
  8
0
 10
52.284894892425307
 20
45.511735832674837
 30
0.0
  0
VERTEX
  5
F9F
  8
0
 10
52.278591628743577
 20
45.529053907309269
 30
0.0
  0
VERTEX
  5
FA0
  8
0
 10
52.26574182807564
 20
45.564358444488903
 30
0.0
  0
VERTEX
  5
FA1
  8
0
 10
52.252568085166097
 20
45.600553005662732
 30
0.0
  0
VERTEX
  5
FA2
  8
0
 10
52.239070917750041
 20
45.637636168364907
 30
0.0
  0
VERTEX
  5
FA3
  8
0
 10
52.225250856273639
 20
45.675606475207019
 30
0.0
  0
VERTEX
  5
FA4
  8
0
 10
52.211108443872369
 20
45.714462433935687
 30
0.0
  0
VERTEX
  5
FA5
  8
0
 10
52.203916529269812
 20
45.734222056909168
 30
0.0
  0
VERTEX
  5
FA6
  8
0
 10
52.196644236351169
 20
45.754202517490739
 30
0.0
  0
VERTEX
  5
FA7
  8
0
 10
52.181858802160939
 20
45.794825164065337
 30
0.0
  0
VERTEX
  5
FA8
  8
0
 10
52.166752722377169
 20
45.83632877716763
 30
0.0
  0
VERTEX
  5
FA9
  8
0
 10
52.15907962542019
 20
45.857410437794158
 30
0.0
  0
SEQEND
  5
FAA
  8
0
  0
LINE
  5
DF6
  8
0
 10
50.053686760619257
 20
45.857410437794158
 30
0.0
 11
50.742412958753562
 21
45.857410437794158
 31
0.0
  0
POLYLINE
  5
DF7
  8
0
 66
     1
 10
0.0
 20
0.0
 30
0.0
  0
VERTEX
  5
FAB
  8
0
 10
50.046641519879131
 20
45.838053797946031
 30
0.0
  0
VERTEX
  5
FAC
  8
0
 10
49.9885228819387
 20
45.67837415255525
 30
0.0
  0
VERTEX
  5
FAD
  8
0
 10
49.870626447832016
 20
45.354456362012897
 30
0.0
  0
VERTEX
  5
FAE
  8
0
 10
49.750554440773037
 20
45.024561233909772
 30
0.0
  0
VERTEX
  5
FAF
  8
0
 10
49.689716526353102
 20
44.857410437794151
 30
0.0
  0
SEQEND
  5
FB0
  8
0
  0
LINE
  5
DF8
  8
0
 10
48.637020093952628
 20
45.857410437794158
 30
0.0
 11
49.325746292086819
 21
45.857410437794158
 31
0.0
  0
POLYLINE
  5
DF9
  8
0
 66
     1
 10
0.0
 20
0.0
 30
0.0
  0
VERTEX
  5
FB1
  8
0
 10
47.220353427285879
 20
45.857410437794158
 30
0.0
  0
VERTEX
  5
FB2
  8
0
 10
47.160137024370208
 20
45.691967230502478
 30
0.0
  0
VERTEX
  5
FB3
  8
0
 10
47.039159264150271
 20
45.35958356604192
 30
0.0
  0
VERTEX
  5
FB4
  8
0
 10
46.91747841663755
 20
45.025268185120581
 30
0.0
  0
VERTEX
  5
FB5
  8
0
 10
46.856383193019717
 20
44.857410437794151
 30
0.0
  0
SEQEND
  5
FB6
  8
0
  0
LINE
  5
DFA
  8
0
 10
45.80368676061925
 20
45.857410437794158
 30
0.0
 11
46.492412958753562
 21
45.857410437794158
 31
0.0
  0
LINE
  5
DFB
  8
0
 10
75.244671102576945
 20
44.957410437794117
 30
0.0
 11
74.917097891737384
 21
45.857410437794208
 31
0.0
  0
LINE
  5
DFC
  8
0
 10
76.340809799144154
 20
45.838053797946031
 30
0.0
 11
76.333764558404013
 21
45.857410437794208
 31
0.0
  0
POLYLINE
  5
DFD
  8
0
 66
     1
 10
0.0
 20
0.0
 30
0.0
  0
VERTEX
  5
FB7
  8
0
 10
76.661337769243573
 20
44.957410437794181
 30
0.0
  0
VERTEX
  5
FB8
  8
0
 10
76.606831196918733
 20
45.107166014468469
 30
0.0
  0
VERTEX
  5
FB9
  8
0
 10
76.499108306201606
 20
45.403132224272269
 30
0.0
  0
VERTEX
  5
FBA
  8
0
 10
76.39313256149137
 20
45.69429818987345
 30
0.0
  0
VERTEX
  5
FBB
  8
0
 10
76.34080979914404
 20
45.838053797946031
 30
0.0
  0
SEQEND
  5
FBC
  8
0
  0
LINE
  5
DFE
  8
0
 10
78.078004435910202
 20
44.957410437794117
 30
0.0
 11
77.750431225070656
 21
45.857410437794208
 31
0.0
  0
POLYLINE
  5
DFF
  8
0
 66
     1
 10
0.0
 20
0.0
 30
0.0
  0
VERTEX
  5
FBD
  8
0
 10
79.494671102576945
 20
44.957410437794181
 30
0.0
  0
VERTEX
  5
FBE
  8
0
 10
79.439725212591043
 20
45.10837302982236
 30
0.0
  0
VERTEX
  5
FBF
  8
0
 10
79.330246122816902
 20
45.40916435687916
 30
0.0
  0
VERTEX
  5
FC0
  8
0
 10
79.221334488052776
 20
45.708396614109454
 30
0.0
  0
VERTEX
  5
FC1
  8
0
 10
79.167097891737399
 20
45.857410437794208
 30
0.0
  0
SEQEND
  5
FC2
  8
0
  0
LINE
  5
E00
  8
0
 10
80.91133776924346
 20
44.957410437794117
 30
0.0
 11
80.583764558404013
 21
45.857410437794208
 31
0.0
  0
LINE
  5
E01
  8
0
 10
81.238910980083233
 20
45.857410437794208
 30
0.0
 11
80.91133776924346
 21
44.957410437794117
 31
0.0
  0
LINE
  5
E02
  8
0
 10
82.655577646749848
 20
45.857410437794208
 30
0.0
 11
82.328004435910202
 21
44.957410437794181
 31
0.0
  0
LINE
  5
E03
  8
0
 10
82.328004435910202
 20
44.957410437794181
 30
0.0
 11
82.000431225070656
 21
45.857410437794208
 31
0.0
  0
LINE
  5
E04
  8
0
 10
83.744671102576945
 20
44.957410437794181
 30
0.0
 11
83.417097891737384
 21
45.857410437794208
 31
0.0
  0
LINE
  5
E05
  8
0
 10
84.072244313416491
 20
45.857410437794208
 30
0.0
 11
83.744671102576945
 21
44.957410437794181
 31
0.0
  0
POLYLINE
  5
E06
  8
0
 66
     1
 10
0.0
 20
0.0
 30
0.0
  0
VERTEX
  5
FC3
  8
0
 10
85.161337769243573
 20
44.957410437794181
 30
0.0
  0
VERTEX
  5
FC4
  8
0
 10
85.107050565800819
 20
45.106563303418511
 30
0.0
  0
VERTEX
  5
FC5
  8
0
 10
84.998098677267194
 20
45.405906156971582
 30
0.0
  0
VERTEX
  5
FC6
  8
0
 10
84.888660100841776
 20
45.706586174517831
 30
0.0
  0
VERTEX
  5
FC7
  8
0
 10
84.833764558404027
 20
45.857410437794208
 30
0.0
  0
SEQEND
  5
FC8
  8
0
  0
LINE
  5
E07
  8
0
 10
86.905577646749862
 20
45.857410437794208
 30
0.0
 11
86.578004435910188
 21
44.957410437794238
 31
0.0
  0
POLYLINE
  5
E08
  8
0
 66
     1
 10
0.0
 20
0.0
 30
0.0
  0
VERTEX
  5
FC9
  8
0
 10
86.578004435910188
 20
44.957410437794181
 30
0.0
  0
VERTEX
  5
FCA
  8
0
 10
86.523960011897657
 20
45.10589627241643
 30
0.0
  0
VERTEX
  5
FCB
  8
0
 10
86.415201069979616
 20
45.404709009499577
 30
0.0
  0
VERTEX
  5
FCC
  8
0
 10
86.305568117888015
 20
45.705923069799603
 30
0.0
  0
VERTEX
  5
FCD
  8
0
 10
86.250431225070656
 20
45.857410437794208
 30
0.0
  0
SEQEND
  5
FCE
  8
0
  0
POLYLINE
  5
E09
  8
0
 66
     1
 10
0.0
 20
0.0
 30
0.0
  0
VERTEX
  5
FCF
  8
0
 10
87.994671102576945
 20
44.957410437794181
 30
0.0
  0
VERTEX
  5
FD0
  8
0
 10
87.941055645295705
 20
45.104717696008088
 30
0.0
  0
VERTEX
  5
FD1
  8
0
 10
87.832637068182166
 20
45.402595288476839
 30
0.0
  0
VERTEX
  5
FD2
  8
0
 10
87.722660604145744
 20
45.704753140088478
 30
0.0
  0
VERTEX
  5
FD3
  8
0
 10
87.667097891737399
 20
45.857410437794208
 30
0.0
  0
SEQEND
  5
FD4
  8
0
  0
LINE
  5
E0A
  8
0
 10
89.738910980083233
 20
45.857410437794208
 30
0.0
 11
89.411337769243573
 21
44.957410437794238
 31
0.0
  0
POLYLINE
  5
E0B
  8
0
 66
     1
 10
0.0
 20
0.0
 30
0.0
  0
VERTEX
  5
FD5
  8
0
 10
89.411337769243573
 20
44.957410437794181
 30
0.0
  0
VERTEX
  5
FD6
  8
0
 10
89.358860321467674
 20
45.101591040588907
 30
0.0
  0
VERTEX
  5
FD7
  8
0
 10
89.251343903495453
 20
45.396989971188297
 30
0.0
  0
VERTEX
  5
FD8
  8
0
 10
89.140455990093869
 20
45.701652009349679
 30
0.0
  0
VERTEX
  5
FD9
  8
0
 10
89.083764558404013
 20
45.857410437794208
 30
0.0
  0
SEQEND
  5
FDA
  8
0
  0
POLYLINE
  5
E0C
  8
0
 66
     1
 10
0.0
 20
0.0
 30
0.0
  0
VERTEX
  5
FDB
  8
0
 10
90.838004435910193
 20
44.929935663598251
 30
0.0
  0
VERTEX
  5
FDC
  8
0
 10
90.683041618675816
 20
45.355692504806257
 30
0.0
  0
VERTEX
  5
FDD
  8
0
 10
90.674477010514011
 20
45.37922357233731
 30
0.0
  0
VERTEX
  5
FDE
  8
0
 10
90.665684343628755
 20
45.403381226061462
 30
0.0
  0
VERTEX
  5
FDF
  8
0
 10
90.66120256308966
 20
45.41569481689168
 30
0.0
  0
VERTEX
  5
FE0
  8
0
 10
90.656663858558659
 20
45.428164805103961
 30
0.0
  0
VERTEX
  5
FE1
  8
0
 10
90.647415802074988
 20
45.453573631466952
 30
0.0
  0
VERTEX
  5
FE2
  8
0
 10
90.637940427174158
 20
45.479607010047737
 30
0.0
  0
VERTEX
  5
FE3
  8
0
 10
90.602990280939821
 20
45.575631747633111
 30
0.0
  0
VERTEX
  5
FE4
  8
0
 10
90.536638937379948
 20
45.757930565814263
 30
0.0
  0
VERTEX
  5
FE5
  8
0
 10
90.500431225070656
 20
45.857410437794208
 30
0.0
  0
SEQEND
  5
FE6
  8
0
  0
POLYLINE
  5
E0D
  8
0
 66
     1
 10
0.0
 20
0.0
 30
0.0
  0
VERTEX
  5
FE7
  8
0
 10
74.155577646749748
 20
45.857410437794208
 30
0.0
  0
VERTEX
  5
FE8
  8
0
 10
74.124659557670725
 20
45.772463686196822
 30
0.0
  0
VERTEX
  5
FE9
  8
0
 10
74.067501006385314
 20
45.615421857211338
 30
0.0
  0
VERTEX
  5
FEA
  8
0
 10
74.016614922610074
 20
45.475613491074171
 30
0.0
  0
VERTEX
  5
FEB
  8
0
 10
73.838004435910193
 20
44.98488521198874
 30
0.0
  0
SEQEND
  5
FEC
  8
0
  0
POLYLINE
  5
E0E
  8
0
 66
     1
 10
0.0
 20
0.0
 30
0.0
  0
VERTEX
  5
FED
  8
0
 10
75.572244313416491
 20
45.857410437794208
 30
0.0
  0
VERTEX
  5
FEE
  8
0
 10
75.51552262173675
 20
45.70156887071073
 30
0.0
  0
VERTEX
  5
FEF
  8
0
 10
75.404610266832947
 20
45.396839680074088
 30
0.0
  0
VERTEX
  5
FF0
  8
0
 10
75.297118035373728
 20
45.10150720137289
 30
0.0
  0
VERTEX
  5
FF1
  8
0
 10
75.244671102576945
 20
44.957410437794181
 30
0.0
  0
SEQEND
  5
FF2
  8
0
  0
POLYLINE
  5
E0F
  8
0
 66
     1
 10
0.0
 20
0.0
 30
0.0
  0
VERTEX
  5
FF3
  8
0
 10
76.988910980083233
 20
45.857410437794208
 30
0.0
  0
VERTEX
  5
FF4
  8
0
 10
76.933339607628227
 20
45.704729346806062
 30
0.0
  0
VERTEX
  5
FF5
  8
0
 10
76.823356153796908
 20
45.40255229089086
 30
0.0
  0
VERTEX
  5
FF6
  8
0
 10
76.714944498514114
 20
45.104693715995722
 30
0.0
  0
VERTEX
  5
FF7
  8
0
 10
76.661337769243573
 20
44.957410437794181
 30
0.0
  0
SEQEND
  5
FF8
  8
0
  0
POLYLINE
  5
E10
  8
0
 66
     1
 10
0.0
 20
0.0
 30
0.0
  0
VERTEX
  5
FF9
  8
0
 10
78.405577646749748
 20
45.857410437794208
 30
0.0
  0
VERTEX
  5
FFA
  8
0
 10
78.350436468989415
 20
45.705911297015518
 30
0.0
  0
VERTEX
  5
FFB
  8
0
 10
78.240800062862377
 20
45.40468774683108
 30
0.0
  0
VERTEX
  5
FFC
  8
0
 10
78.132044546212555
 20
45.105884420594741
 30
0.0
  0
VERTEX
  5
FFD
  8
0
 10
78.078004435910202
 20
44.957410437794181
 30
0.0
  0
SEQEND
  5
FFE
  8
0
  0
POLYLINE
  5
E11
  8
0
 66
     1
 10
0.0
 20
0.0
 30
0.0
  0
VERTEX
  5
FFF
  8
0
 10
79.822244313416491
 20
45.857410437794208
 30
0.0
  0
VERTEX
  5
1000
  8
0
 10
79.767345987129474
 20
45.706578525954797
 30
0.0
  0
VERTEX
  5
1001
  8
0
 10
79.657905171231278
 20
45.40589235550771
 30
0.0
  0
VERTEX
  5
1002
  8
0
 10
79.548955508500512
 20
45.106555617297879
 30
0.0
  0
VERTEX
  5
1003
  8
0
 10
79.494671102576945
 20
44.957410437794181
 30
0.0
  0
SEQEND
  5
1004
  8
0
  0
POLYLINE
  5
E12
  8
0
 66
     1
 10
0.0
 20
0.0
 30
0.0
  0
VERTEX
  5
1005
  8
0
 10
85.488910980083233
 20
45.857410437794208
 30
0.0
  0
VERTEX
  5
1006
  8
0
 10
85.434671349439796
 20
45.708388277362019
 30
0.0
  0
VERTEX
  5
1007
  8
0
 10
85.325757301744844
 20
45.409149390658683
 30
0.0
  0
VERTEX
  5
1008
  8
0
 10
85.216280641163735
 20
45.108364737754862
 30
0.0
  0
VERTEX
  5
1009
  8
0
 10
85.161337769243573
 20
44.957410437794181
 30
0.0
  0
SEQEND
  5
100A
  8
0
  0
POLYLINE
  5
E13
  8
0
 66
     1
 10
0.0
 20
0.0
 30
0.0
  0
VERTEX
  5
100B
  8
0
 10
88.322244313416476
 20
45.857410437794208
 30
0.0
  0
VERTEX
  5
100C
  8
0
 10
88.268787414265944
 20
45.710538814463909
 30
0.0
  0
VERTEX
  5
100D
  8
0
 10
88.160494571323738
 20
45.413006673791642
 30
0.0
  0
VERTEX
  5
100E
  8
0
 10
88.050391124551084
 20
45.110499939979597
 30
0.0
  0
VERTEX
  5
100F
  8
0
 10
87.994671102576945
 20
44.957410437794181
 30
0.0
  0
SEQEND
  5
1010
  8
0
  0
LINE
  5
E14
  8
0
 10
82.655577646749748
 20
45.857410437794208
 30
0.0
 11
83.417097891737384
 21
45.857410437794208
 31
0.0
  0
LINE
  5
E15
  8
0
 10
81.238910980083233
 20
45.857410437794208
 30
0.0
 11
82.000431225070656
 21
45.857410437794208
 31
0.0
  0
LINE
  5
E16
  8
0
 10
85.488910980083233
 20
45.857410437794208
 30
0.0
 11
86.250431225070656
 21
45.857410437794208
 31
0.0
  0
LINE
  5
E17
  8
0
 10
84.072244313416491
 20
45.857410437794208
 30
0.0
 11
84.833764558404027
 21
45.857410437794208
 31
0.0
  0
LINE
  5
E18
  8
0
 10
79.822244313416491
 20
45.857410437794208
 30
0.0
 11
80.583764558404013
 21
45.857410437794208
 31
0.0
  0
LINE
  5
E19
  8
0
 10
88.322244313416476
 20
45.857410437794208
 30
0.0
 11
89.083764558404013
 21
45.857410437794208
 31
0.0
  0
LINE
  5
E1A
  8
0
 10
86.905577646749748
 20
45.857410437794208
 30
0.0
 11
87.667097891737399
 21
45.857410437794208
 31
0.0
  0
LINE
  5
E1B
  8
0
 10
74.155577646749748
 20
45.857410437794208
 30
0.0
 11
74.917097891737384
 21
45.857410437794208
 31
0.0
  0
LINE
  5
E1C
  8
0
 10
89.738910980083233
 20
45.857410437794208
 30
0.0
 11
90.500431225070656
 21
45.857410437794208
 31
0.0
  0
LINE
  5
E1D
  8
0
 10
73.838004435910193
 20
44.857410437794208
 30
0.0
 11
90.838004435910193
 21
44.857410437794208
 31
0.0
  0
LINE
  5
E1E
  8
0
 10
78.405577646749748
 20
45.857410437794208
 30
0.0
 11
79.167097891737399
 21
45.857410437794208
 31
0.0
  0
LINE
  5
E1F
  8
0
 10
76.988910980083233
 20
45.857410437794208
 30
0.0
 11
77.750431225070656
 21
45.857410437794208
 31
0.0
  0
LINE
  5
E20
  8
0
 10
75.572244313416491
 20
45.857410437794208
 30
0.0
 11
76.333764558404013
 21
45.857410437794208
 31
0.0
  0
TEXT
  5
EE3
  8
0
 62
     3
 10
0.0
 20
0.0
 30
0.0
 40
5.0
  1
BJ812-08025-S
  7
STANDARD1
  0
ENDSEC
  0
EOF
