  0
SECTION
  2
HEADER
  9
$ACADVER
  1
AC1009
  9
$INSBASE
 10
0.0
 20
0.0
 30
0.0
  9
$EXTMIN
 10
0.0
 20
-1.4802182810368341
 30
0.0
  9
$EXTMAX
 10
100.4264617040305
 20
115.30782766592991
 30
0.0
  9
$LIMMIN
 10
0.0
 20
0.0
  9
$LIMMAX
 10
12.0
 20
9.0
  9
$ORTHOMODE
 70
     0
  9
$REGENMODE
 70
     1
  9
$FILLMODE
 70
     1
  9
$QTEXTMODE
 70
     0
  9
$MIRRTEXT
 70
     0
  9
$DRAGMODE
 70
     2
  9
$LTSCALE
 40
5.0
  9
$OSMODE
 70
  3071
  9
$ATTMODE
 70
     1
  9
$TEXTSIZE
 40
0.2
  9
$TRACEWID
 40
0.05
  9
$TEXTSTYLE
  7
STANDARD
  9
$CLAYER
  8
0
  9
$CELTYPE
  6
BYLAYER
  9
$CECOLOR
 62
   256
  9
$DIMSCALE
 40
1.0
  9
$DIMASZ
 40
0.18
  9
$DIMEXO
 40
0.0625
  9
$DIMDLI
 40
0.38
  9
$DIMRND
 40
0.0
  9
$DIMDLE
 40
0.0
  9
$DIMEXE
 40
0.18
  9
$DIMTP
 40
0.0
  9
$DIMTM
 40
0.0
  9
$DIMTXT
 40
0.18
  9
$DIMCEN
 40
0.09
  9
$DIMTSZ
 40
0.0
  9
$DIMTOL
 70
     0
  9
$DIMLIM
 70
     0
  9
$DIMTIH
 70
     1
  9
$DIMTOH
 70
     1
  9
$DIMSE1
 70
     0
  9
$DIMSE2
 70
     0
  9
$DIMTAD
 70
     0
  9
$DIMZIN
 70
     0
  9
$DIMBLK
  1

  9
$DIMASO
 70
     1
  9
$DIMSHO
 70
     1
  9
$DIMPOST
  1

  9
$DIMAPOST
  1

  9
$DIMALT
 70
     0
  9
$DIMALTD
 70
     2
  9
$DIMALTF
 40
25.399999999999999
  9
$DIMLFAC
 40
1.0
  9
$DIMTOFL
 70
     0
  9
$DIMTVP
 40
0.0
  9
$DIMTIX
 70
     0
  9
$DIMSOXD
 70
     0
  9
$DIMSAH
 70
     0
  9
$DIMBLK1
  1

  9
$DIMBLK2
  1

  9
$DIMSTYLE
  2
STANDARD
  9
$DIMCLRD
 70
     0
  9
$DIMCLRE
 70
     0
  9
$DIMCLRT
 70
     0
  9
$DIMTFAC
 40
1.0
  9
$DIMGAP
 40
0.09
  9
$LUNITS
 70
     2
  9
$LUPREC
 70
     4
  9
$SKETCHINC
 40
0.1
  9
$FILLETRAD
 40
0.0
  9
$AUNITS
 70
     0
  9
$AUPREC
 70
     0
  9
$MENU
  1
.
  9
$ELEVATION
 40
0.0
  9
$PELEVATION
 40
0.0
  9
$THICKNESS
 40
0.0
  9
$LIMCHECK
 70
     0
  9
$BLIPMODE
 70
     0
  9
$CHAMFERA
 40
0.0
  9
$CHAMFERB
 40
0.0
  9
$SKPOLY
 70
     0
  9
$TDCREATE
 40
2453083.4120647679
  9
$TDUPDATE
 40
2456598.4309388078
  9
$TDINDWG
 40
0.1552902662
  9
$TDUSRTIMER
 40
0.1552901505
  9
$USRTIMER
 70
     1
  9
$ANGBASE
 50
0.0
  9
$ANGDIR
 70
     0
  9
$PDMODE
 70
     0
  9
$PDSIZE
 40
0.0
  9
$PLINEWID
 40
0.0
  9
$COORDS
 70
     1
  9
$SPLFRAME
 70
     0
  9
$SPLINETYPE
 70
     6
  9
$SPLINESEGS
 70
     8
  9
$ATTDIA
 70
     0
  9
$ATTREQ
 70
     1
  9
$HANDLING
 70
     1
  9
$HANDSEED
  5
189C
  9
$SURFTAB1
 70
     6
  9
$SURFTAB2
 70
     6
  9
$SURFTYPE
 70
     6
  9
$SURFU
 70
     6
  9
$SURFV
 70
     6
  9
$UCSNAME
  2

  9
$UCSORG
 10
0.0
 20
0.0
 30
0.0
  9
$UCSXDIR
 10
1.0
 20
0.0
 30
0.0
  9
$UCSYDIR
 10
0.0
 20
1.0
 30
0.0
  9
$PUCSNAME
  2

  9
$PUCSORG
 10
0.0
 20
0.0
 30
0.0
  9
$PUCSXDIR
 10
1.0
 20
0.0
 30
0.0
  9
$PUCSYDIR
 10
0.0
 20
1.0
 30
0.0
  9
$USERI1
 70
     0
  9
$USERI2
 70
     1
  9
$USERI3
 70
     0
  9
$USERI4
 70
     0
  9
$USERI5
 70
     0
  9
$USERR1
 40
0.0
  9
$USERR2
 40
0.0
  9
$USERR3
 40
0.0
  9
$USERR4
 40
0.0
  9
$USERR5
 40
0.0
  9
$WORLDVIEW
 70
     1
  9
$SHADEDGE
 70
     3
  9
$SHADEDIF
 70
    70
  9
$TILEMODE
 70
     1
  9
$MAXACTVP
 70
    64
  9
$PLIMCHECK
 70
     0
  9
$PEXTMIN
 10
0.0
 20
0.0
 30
0.0
  9
$PEXTMAX
 10
0.0
 20
0.0
 30
0.0
  9
$PLIMMIN
 10
0.0
 20
0.0
  9
$PLIMMAX
 10
12.0
 20
9.0
  9
$UNITMODE
 70
     0
  9
$VISRETAIN
 70
     1
  9
$PLINEGEN
 70
     0
  9
$PSLTSCALE
 70
     1
  0
ENDSEC
  0
SECTION
  2
TABLES
  0
TABLE
  2
VPORT
 70
     1
  0
VPORT
  2
*ACTIVE
 70
     0
 10
0.0
 20
0.0
 11
1.0
 21
1.0
 12
53.449433732305373
 22
56.914941816340672
 13
0.0
 23
0.0
 14
0.5
 24
0.5
 15
0.5
 25
0.5
 16
0.0
 26
0.0
 36
1.0
 17
0.0
 27
0.0
 37
0.0
 40
117.84027921599581
 41
1.831871345029239
 42
50.0
 43
0.0
 44
0.0
 50
0.0
 51
0.0
 71
     0
 72
  1000
 73
     1
 74
     2
 75
     0
 76
     0
 77
     0
 78
     0
  0
ENDTAB
  0
TABLE
  2
LTYPE
 70
     4
  0
LTYPE
  2
CONTINUOUS
 70
     0
  3
Solid Line
 72
    65
 73
     0
 40
0.0
  0
LTYPE
  2
CENTER
 70
     0
  3
____ _ ____ _ ____ _ ____ _ ____ _ ____ _ ____
 72
    65
 73
     4
 40
2.0
 49
1.25
 49
-0.25
 49
0.25
 49
-0.25
  0
LTYPE
  2
HIDDEN
 70
     0
  3
_ _ _ _ _ _ _ _ _ _ _ _ _ _ _ _ _ _ _ _ _ _ _
 72
    65
 73
     2
 40
0.375
 49
0.25
 49
-0.125
  0
LTYPE
  2
PHANTOM2
 70
     0
  3
___ _ _ ___ _ _ ___ _ _ ___ _ _
 72
    65
 73
     6
 40
1.25
 49
0.625
 49
-0.125
 49
0.125
 49
-0.125
 49
0.125
 49
-0.125
  0
ENDTAB
  0
TABLE
  2
LAYER
 70
     4
  0
LAYER
  2
0
 70
     0
 62
     7
  6
CONTINUOUS
  0
LAYER
  2
1
 70
     0
 62
     1
  6
CENTER
  0
LAYER
  2
2
 70
     0
 62
     2
  6
HIDDEN
  0
LAYER
  2
3
 70
     0
 62
     3
  6
CONTINUOUS
  0
ENDTAB
  0
TABLE
  2
STYLE
 70
     2
  0
STYLE
  2
STANDARD
 70
     0
 40
0.0
 41
1.0
 50
0.0
 71
     0
 42
0.2
  3
simplex.shx
  4
bigfont.shx
  0
STYLE
  2
STANDARD1
 70
     0
 40
0.0
 41
1.0
 50
0.0
 71
     0
 42
3.0
  3
txt
  4

  0
ENDTAB
  0
TABLE
  2
VIEW
 70
     0
  0
ENDTAB
  0
TABLE
  2
UCS
 70
     0
  0
ENDTAB
  0
TABLE
  2
APPID
 70
     3
  0
APPID
  2
ACAD
 70
     0
  0
APPID
  2
ACAD_MLEADERVER
 70
     0
  0
APPID
  2
ACAD_NAV_VCDISPLAY
 70
     0
  0
ENDTAB
  0
TABLE
  2
DIMSTYLE
 70
     1
  0
DIMSTYLE
  2
STANDARD
 70
     0
  3

  4

  5

  6

  7

 40
1.0
 41
0.18
 42
0.0625
 43
0.38
 44
0.18
 45
0.0
 46
0.0
 47
0.0
 48
0.0
140
0.18
141
0.09
142
0.0
143
25.399999999999999
144
1.0
145
0.0
146
1.0
147
0.09
 71
     0
 72
     0
 73
     1
 74
     1
 75
     0
 76
     0
 77
     0
 78
     0
170
     0
171
     2
172
     0
173
     0
174
     0
175
     0
176
     0
177
     0
178
     0
  0
ENDTAB
  0
ENDSEC
  0
SECTION
  2
BLOCKS
  0
BLOCK
  8
0
  2
$MODEL_SPACE
 70
     0
 10
0.0
 20
0.0
 30
0.0
  3
$MODEL_SPACE
  1

  0
ENDBLK
  5
21
  8
0
  0
BLOCK
 67
     1
  8
0
  2
$PAPER_SPACE
 70
     0
 10
0.0
 20
0.0
 30
0.0
  3
$PAPER_SPACE
  1

  0
ENDBLK
  5
5B
 67
     1
  8
0
  0
ENDSEC
  0
SECTION
  2
ENTITIES
  0
LINE
  5
F8F
  8
0
 10
80.708995659364845
 20
58.357410437794329
 30
0.0
 11
81.887182571019025
 21
58.357410437794329
 31
0.0
  0
LINE
  5
F90
  8
0
 10
82.542328992698117
 20
58.357410437794329
 30
0.0
 11
83.720515904352283
 21
58.357410437794329
 31
0.0
  0
LINE
  5
F91
  8
0
 10
76.724755781858562
 20
57.357410437794329
 30
0.0
 11
98.724755781858562
 21
57.357410437794329
 31
0.0
  0
LINE
  5
F92
  8
0
 10
97.208995659364859
 20
58.357410437794329
 30
0.0
 11
98.387182571019025
 21
58.357410437794329
 31
0.0
  0
LINE
  5
F93
  8
0
 10
77.042328992698117
 20
58.357410437794329
 30
0.0
 11
78.220515904352283
 21
58.357410437794329
 31
0.0
  0
LINE
  5
F94
  8
0
 10
78.875662326031474
 20
58.357410437794329
 30
0.0
 11
80.053849237685654
 21
58.357410437794329
 31
0.0
  0
LINE
  5
F95
  8
0
 10
93.542328992698117
 20
58.357410437794329
 30
0.0
 11
94.720515904352283
 21
58.357410437794329
 31
0.0
  0
LINE
  5
F96
  8
0
 10
95.375662326031488
 20
58.357410437794329
 30
0.0
 11
96.553849237685654
 21
58.357410437794329
 31
0.0
  0
LINE
  5
F97
  8
0
 10
84.375662326031488
 20
58.357410437794329
 30
0.0
 11
85.553849237685654
 21
58.357410437794329
 31
0.0
  0
LINE
  5
F98
  8
0
 10
89.875662326031474
 20
58.357410437794329
 30
0.0
 11
91.053849237685654
 21
58.357410437794329
 31
0.0
  0
LINE
  5
F99
  8
0
 10
91.708995659364845
 20
58.357410437794329
 30
0.0
 11
92.887182571019025
 21
58.357410437794329
 31
0.0
  0
LINE
  5
F9A
  8
0
 10
86.208995659364859
 20
58.357410437794329
 30
0.0
 11
87.387182571019025
 21
58.357410437794329
 31
0.0
  0
LINE
  5
F9B
  8
0
 10
88.042328992698117
 20
58.357410437794329
 30
0.0
 11
89.220515904352297
 21
58.357410437794329
 31
0.0
  0
POLYLINE
  5
F9C
  8
0
 66
     1
 10
0.0
 20
0.0
 30
0.0
  0
VERTEX
  5
17B0
  8
0
 10
95.375662326031488
 20
58.357410437794329
 30
0.0
  0
VERTEX
  5
17B1
  8
0
 10
95.321930614970015
 20
58.209783774944469
 30
0.0
  0
VERTEX
  5
17B2
  8
0
 10
95.213423106357027
 20
57.91166184518903
 30
0.0
  0
VERTEX
  5
17B3
  8
0
 10
95.10354011743118
 20
57.609760814332788
 30
0.0
  0
VERTEX
  5
17B4
  8
0
 10
95.048089115191814
 20
57.457410437794287
 30
0.0
  0
SEQEND
  5
17B5
  8
0
  0
POLYLINE
  5
F9D
  8
0
 66
     1
 10
0.0
 20
0.0
 30
0.0
  0
VERTEX
  5
17B6
  8
0
 10
91.708995659364845
 20
58.357410437794329
 30
0.0
  0
VERTEX
  5
17B7
  8
0
 10
91.654670284404915
 20
58.208152696788773
 30
0.0
  0
VERTEX
  5
17B8
  8
0
 10
91.545690758000873
 20
57.908733908810689
 30
0.0
  0
VERTEX
  5
17B9
  8
0
 10
91.436283045215404
 20
57.608138688418471
 30
0.0
  0
VERTEX
  5
17BA
  8
0
 10
91.3814224485252
 20
57.457410437794287
 30
0.0
  0
SEQEND
  5
17BB
  8
0
  0
POLYLINE
  5
F9E
  8
0
 66
     1
 10
0.0
 20
0.0
 30
0.0
  0
VERTEX
  5
17BC
  8
0
 10
84.375662326031488
 20
58.357410437794329
 30
0.0
  0
VERTEX
  5
17BD
  8
0
 10
84.32082833122297
 20
58.206755275239232
 30
0.0
  0
VERTEX
  5
17BE
  8
0
 10
84.211441995767146
 20
57.906218788577739
 30
0.0
  0
VERTEX
  5
17BF
  8
0
 10
84.102441197913663
 20
57.60674155777258
 30
0.0
  0
VERTEX
  5
17C0
  8
0
 10
84.048089115191814
 20
57.457410437794287
 30
0.0
  0
SEQEND
  5
17C1
  8
0
  0
POLYLINE
  5
F9F
  8
0
 66
     1
 10
0.0
 20
0.0
 30
0.0
  0
VERTEX
  5
17C2
  8
0
 10
82.542328992698117
 20
58.357410437794329
 30
0.0
  0
VERTEX
  5
17C3
  8
0
 10
82.487305198718104
 20
58.206233806301441
 30
0.0
  0
VERTEX
  5
17C4
  8
0
 10
82.377766229431586
 20
57.9052779616365
 30
0.0
  0
VERTEX
  5
17C5
  8
0
 10
82.268917187504371
 20
57.606217676811923
 30
0.0
  0
VERTEX
  5
17C6
  8
0
 10
82.214755781858585
 20
57.457410437794287
 30
0.0
  0
SEQEND
  5
17C7
  8
0
  0
POLYLINE
  5
FA0
  8
0
 66
     1
 10
0.0
 20
0.0
 30
0.0
  0
VERTEX
  5
17C8
  8
0
 10
80.708995659364845
 20
58.357410437794329
 30
0.0
  0
VERTEX
  5
17C9
  8
0
 10
80.653633309296424
 20
58.205303631093727
 30
0.0
  0
VERTEX
  5
17CA
  8
0
 10
80.543821735021766
 20
57.903598810379037
 30
0.0
  0
VERTEX
  5
17CB
  8
0
 10
80.435243355183729
 20
57.605282163533111
 30
0.0
  0
VERTEX
  5
17CC
  8
0
 10
80.381422448525313
 20
57.457410437794287
 30
0.0
  0
SEQEND
  5
17CD
  8
0
  0
POLYLINE
  5
FA1
  8
0
 66
     1
 10
0.0
 20
0.0
 30
0.0
  0
VERTEX
  5
17CE
  8
0
 10
78.875662326031474
 20
58.357410437794329
 30
0.0
  0
VERTEX
  5
17CF
  8
0
 10
78.819381649188927
 20
58.202780549017739
 30
0.0
  0
VERTEX
  5
17D0
  8
0
 10
78.708830092745302
 20
57.89904264400338
 30
0.0
  0
VERTEX
  5
17D1
  8
0
 10
78.600985845755872
 20
57.602743010581953
 30
0.0
  0
VERTEX
  5
17D2
  8
0
 10
78.548089115191829
 20
57.457410437794287
 30
0.0
  0
SEQEND
  5
17D3
  8
0
  0
POLYLINE
  5
FA2
  8
0
 66
     1
 10
0.0
 20
0.0
 30
0.0
  0
VERTEX
  5
17D4
  8
0
 10
77.042328992698117
 20
58.357410437794329
 30
0.0
  0
VERTEX
  5
17D5
  8
0
 10
77.020474906022628
 20
58.297366828130578
 30
0.0
  0
VERTEX
  5
17D6
  8
0
 10
76.979074536856047
 20
58.183620248688221
 30
0.0
  0
VERTEX
  5
17D7
  8
0
 10
76.940761058644853
 20
58.07835483244201
 30
0.0
  0
VERTEX
  5
17D8
  8
0
 10
76.724755781858562
 20
57.484885211989308
 30
0.0
  0
SEQEND
  5
17D9
  8
0
  0
POLYLINE
  5
FA3
  8
0
 66
     1
 10
0.0
 20
0.0
 30
0.0
  0
VERTEX
  5
17DA
  8
0
 10
98.724755781858562
 20
57.429935663600808
 30
0.0
  0
VERTEX
  5
17DB
  8
0
 10
98.510171141902674
 20
58.019502116440258
 30
0.0
  0
VERTEX
  5
17DC
  8
0
 10
98.464264365920386
 20
58.14562994685167
 30
0.0
  0
VERTEX
  5
17DD
  8
0
 10
98.413969332180287
 20
58.283814416363271
 30
0.0
  0
VERTEX
  5
17DE
  8
0
 10
98.387182571019025
 20
58.357410437794329
 30
0.0
  0
SEQEND
  5
17DF
  8
0
  0
POLYLINE
  5
FA4
  8
0
 66
     1
 10
0.0
 20
0.0
 30
0.0
  0
VERTEX
  5
17E0
  8
0
 10
96.881422448525214
 20
57.457410437794287
 30
0.0
  0
VERTEX
  5
17E1
  8
0
 10
96.82850669280846
 20
57.602795281759597
 30
0.0
  0
VERTEX
  5
17E2
  8
0
 10
96.720647334921864
 20
57.899136432029927
 30
0.0
  0
VERTEX
  5
17E3
  8
0
 10
96.610111012439916
 20
58.20283248207857
 30
0.0
  0
VERTEX
  5
17E4
  8
0
 10
96.553849237685654
 20
58.357410437794329
 30
0.0
  0
SEQEND
  5
17E5
  8
0
  0
LINE
  5
FA5
  8
0
 10
97.208995659364859
 20
58.357410437794329
 30
0.0
 11
96.881422448525214
 21
57.457410437794287
 31
0.0
  0
POLYLINE
  5
FA6
  8
0
 66
     1
 10
0.0
 20
0.0
 30
0.0
  0
VERTEX
  5
17E6
  8
0
 10
95.048089115191814
 20
57.457410437794287
 30
0.0
  0
VERTEX
  5
17E7
  8
0
 10
94.994262881114082
 20
57.605296800497342
 30
0.0
  0
VERTEX
  5
17E8
  8
0
 10
94.885680268072178
 20
57.903625077975498
 30
0.0
  0
VERTEX
  5
17E9
  8
0
 10
94.775872959167486
 20
58.205318179682251
 30
0.0
  0
VERTEX
  5
17EA
  8
0
 10
94.720515904352283
 20
58.357410437794329
 30
0.0
  0
SEQEND
  5
17EB
  8
0
  0
POLYLINE
  5
FA7
  8
0
 66
     1
 10
0.0
 20
0.0
 30
0.0
  0
VERTEX
  5
17EC
  8
0
 10
93.214755781858571
 20
57.457410437794287
 30
0.0
  0
VERTEX
  5
17ED
  8
0
 10
93.160591765820627
 20
57.606224848805418
 30
0.0
  0
VERTEX
  5
17EE
  8
0
 10
93.051740647692085
 20
57.90529083794587
 30
0.0
  0
VERTEX
  5
17EF
  8
0
 10
92.942203768142463
 20
58.206240941106159
 30
0.0
  0
VERTEX
  5
17F0
  8
0
 10
92.887182571019025
 20
58.357410437794329
 30
0.0
  0
SEQEND
  5
17F1
  8
0
  0
LINE
  5
FA8
  8
0
 10
93.542328992698117
 20
58.357410437794329
 30
0.0
 11
93.214755781858571
 21
57.457410437794287
 31
0.0
  0
POLYLINE
  5
FA9
  8
0
 66
     1
 10
0.0
 20
0.0
 30
0.0
  0
VERTEX
  5
17F2
  8
0
 10
91.3814224485252
 20
57.457410437794287
 30
0.0
  0
VERTEX
  5
17F3
  8
0
 10
91.327068682053664
 20
57.606746183837167
 30
0.0
  0
VERTEX
  5
17F4
  8
0
 10
91.218066542956763
 20
57.90622709967829
 30
0.0
  0
VERTEX
  5
17F5
  8
0
 10
91.108681555176759
 20
58.206759883630923
 30
0.0
  0
VERTEX
  5
17F6
  8
0
 10
91.053849237685654
 20
58.357410437794329
 30
0.0
  0
SEQEND
  5
17F7
  8
0
  0
LINE
  5
FAA
  8
0
 10
89.875662326031474
 20
58.357410437794329
 30
0.0
 11
89.548089115191829
 21
57.457410437794181
 31
0.0
  0
LINE
  5
FAB
  8
0
 10
89.548089115191829
 20
57.457410437794181
 30
0.0
 11
89.220515904352297
 21
58.357410437794329
 31
0.0
  0
LINE
  5
FAC
  8
0
 10
87.714755781858571
 20
57.457410437794287
 30
0.0
 11
87.387182571019025
 21
58.357410437794329
 31
0.0
  0
LINE
  5
FAD
  8
0
 10
88.042328992698117
 20
58.357410437794329
 30
0.0
 11
87.714755781858571
 21
57.457410437794287
 31
0.0
  0
LINE
  5
FAE
  8
0
 10
86.208995659364859
 20
58.357410437794329
 30
0.0
 11
85.881422448525313
 21
57.457410437794181
 31
0.0
  0
LINE
  5
FAF
  8
0
 10
85.881422448525313
 20
57.457410437794181
 30
0.0
 11
85.553849237685654
 21
58.357410437794329
 31
0.0
  0
POLYLINE
  5
FB0
  8
0
 66
     1
 10
0.0
 20
0.0
 30
0.0
  0
VERTEX
  5
17F8
  8
0
 10
84.048089115191814
 20
57.457410437794287
 30
0.0
  0
VERTEX
  5
17F9
  8
0
 10
83.993226733120878
 20
57.608143593711873
 30
0.0
  0
VERTEX
  5
17FA
  8
0
 10
83.883817585374231
 20
57.90874275662776
 30
0.0
  0
VERTEX
  5
17FB
  8
0
 10
83.774839486575729
 20
58.208157622291537
 30
0.0
  0
VERTEX
  5
17FC
  8
0
 10
83.720515904352283
 20
58.357410437794329
 30
0.0
  0
SEQEND
  5
17FD
  8
0
  0
LINE
  5
FB1
  8
0
 10
82.214755781858585
 20
57.457410437794287
 30
0.0
 11
81.887182571019025
 21
58.357410437794329
 31
0.0
  0
POLYLINE
  5
FB2
  8
0
 66
     1
 10
0.0
 20
0.0
 30
0.0
  0
VERTEX
  5
17FE
  8
0
 10
80.381422448525313
 20
57.457410437794287
 30
0.0
  0
VERTEX
  5
17FF
  8
0
 10
80.325965165014736
 20
57.609778071983719
 30
0.0
  0
VERTEX
  5
1800
  8
0
 10
80.216077115849544
 20
57.911693005732843
 30
0.0
  0
VERTEX
  5
1801
  8
0
 10
80.107574628656153
 20
58.20980113925156
 30
0.0
  0
VERTEX
  5
1802
  8
0
 10
80.053849237685654
 20
58.357410437794329
 30
0.0
  0
SEQEND
  5
1803
  8
0
  0
LINE
  5
FB3
  8
0
 10
78.548089115191829
 20
57.457410437794287
 30
0.0
 11
78.220515904352283
 21
58.357410437794329
 31
0.0
  0
LINE
  5
FB4
  8
0
 10
49.486652836259957
 20
57.457410437794287
 30
0.0
 11
47.726113549779818
 21
57.457410437794287
 31
0.0
  0
LINE
  5
FB5
  8
0
 10
47.653319502926593
 20
57.457410437794287
 30
0.0
 11
45.89278021644656
 21
57.457410437794287
 31
0.0
  0
LINE
  5
FB6
  8
0
 10
45.819986169593328
 20
57.457410437794287
 30
0.0
 11
44.059446883113189
 21
57.457410437794287
 31
0.0
  0
LINE
  5
FB7
  8
0
 10
43.986652836259957
 20
57.457410437794287
 30
0.0
 11
42.226113549779818
 21
57.457410437794287
 31
0.0
  0
LINE
  5
FB8
  8
0
 10
42.153319502926593
 20
57.457410437794287
 30
0.0
 11
40.392780216446567
 21
57.457410437794287
 31
0.0
  0
LINE
  5
FB9
  8
0
 10
40.319986169593342
 20
57.457410437794287
 30
0.0
 11
38.559446883113203
 21
57.457410437794287
 31
0.0
  0
LINE
  5
FBA
  8
0
 10
38.159079625420311
 20
58.357410437794272
 30
0.0
 11
38.523049859686473
 21
57.357410437794158
 31
0.0
  0
LINE
  5
FBB
  8
0
 10
51.319986169593328
 20
57.457410437794287
 30
0.0
 11
49.559446883113189
 21
57.457410437794287
 31
0.0
  0
LINE
  5
FBC
  8
0
 10
53.153319502926593
 20
57.457410437794287
 30
0.0
 11
51.39278021644656
 21
57.457410437794287
 31
0.0
  0
LINE
  5
FBD
  8
0
 10
34.492412958753789
 20
58.357410437794272
 30
0.0
 11
34.856383193019951
 21
57.357410437794272
 31
0.0
  0
LINE
  5
FBE
  8
0
 10
54.986652836259957
 20
57.457410437794287
 30
0.0
 11
53.226113549779832
 21
57.457410437794287
 31
0.0
  0
LINE
  5
FBF
  8
0
 10
34.819986169593342
 20
57.457410437794287
 30
0.0
 11
33.059446883113203
 21
57.457410437794287
 31
0.0
  0
LINE
  5
FC0
  8
0
 10
36.653319502926593
 20
57.457410437794287
 30
0.0
 11
34.892780216446567
 21
57.457410437794287
 31
0.0
  0
LINE
  5
FC1
  8
0
 10
38.486652836259957
 20
57.457410437794287
 30
0.0
 11
36.726113549779832
 21
57.457410437794287
 31
0.0
  0
LINE
  5
FC2
  8
0
 10
45.492412958753782
 20
58.357410437794272
 30
0.0
 11
45.856383193019838
 21
57.357410437794208
 31
0.0
  0
LINE
  5
FC3
  8
0
 10
44.387020093952849
 20
58.357410437794272
 30
0.0
 11
45.492412958753782
 21
58.357410437794272
 31
0.0
  0
LINE
  5
FC4
  8
0
 10
44.023049859686473
 20
57.357410437794378
 30
0.0
 11
44.387020093952849
 21
58.357410437794272
 31
0.0
  0
LINE
  5
FC5
  8
0
 10
43.659079625420297
 20
58.357410437794272
 30
0.0
 11
44.023049859686473
 21
57.357410437794378
 31
0.0
  0
LINE
  5
FC6
  8
0
 10
42.553686760619357
 20
58.357410437794272
 30
0.0
 11
43.659079625420297
 21
58.357410437794272
 31
0.0
  0
LINE
  5
FC7
  8
0
 10
42.189716526353429
 20
57.357410437794378
 30
0.0
 11
42.553686760619357
 21
58.357410437794272
 31
0.0
  0
LINE
  5
FC8
  8
0
 10
41.82574629208704
 20
58.357410437794272
 30
0.0
 11
42.189716526353429
 21
57.357410437794378
 31
0.0
  0
LINE
  5
FC9
  8
0
 10
45.856383193019838
 20
57.357410437794208
 30
0.0
 11
46.220353427286113
 21
58.357410437794272
 31
0.0
  0
LINE
  5
FCA
  8
0
 10
49.523049859686701
 20
57.357410437794158
 30
0.0
 11
49.887020093952863
 21
58.357410437794272
 31
0.0
  0
LINE
  5
FCB
  8
0
 10
53.189716526353209
 20
57.357410437794272
 30
0.0
 11
53.553686760619371
 21
58.357410437794272
 31
0.0
  0
LINE
  5
FCC
  8
0
 10
54.268344535945971
 20
58.357410437794272
 30
0.0
 11
54.276138789296397
 21
58.357410437794272
 31
0.0
  0
POLYLINE
  5
FCD
  8
0
 66
     1
 10
0.0
 20
0.0
 30
0.0
  0
VERTEX
  5
1804
  8
0
 10
33.387020093952863
 20
58.357410437794272
 30
0.0
  0
VERTEX
  5
1805
  8
0
 10
33.352227072090962
 20
58.261817395874402
 30
0.0
  0
VERTEX
  5
1806
  8
0
 10
33.287813459923314
 20
58.08484245093814
 30
0.0
  0
VERTEX
  5
1807
  8
0
 10
33.230330613979497
 20
57.92690962970169
 30
0.0
  0
VERTEX
  5
1808
  8
0
 10
33.02304985968658
 20
57.357410437793312
 30
0.0
  0
SEQEND
  5
1809
  8
0
  0
LINE
  5
FCE
  8
0
 10
53.553686760619371
 20
58.357410437794272
 30
0.0
 11
54.659079625420297
 21
58.357410437794272
 31
0.0
  0
LINE
  5
FCF
  8
0
 10
33.387020093952863
 20
58.357410437794272
 30
0.0
 11
34.492412958753789
 21
58.357410437794272
 31
0.0
  0
POLYLINE
  5
FD0
  8
0
 66
     1
 10
0.0
 20
0.0
 30
0.0
  0
VERTEX
  5
180A
  8
0
 10
53.189716526353209
 20
57.357410437794272
 30
0.0
  0
VERTEX
  5
180B
  8
0
 10
53.131120934590861
 20
57.518400503041001
 30
0.0
  0
VERTEX
  5
180C
  8
0
 10
53.01143386652609
 20
57.847238019949891
 30
0.0
  0
VERTEX
  5
180D
  8
0
 10
52.8884555997655
 20
58.185118030958222
 30
0.0
  0
VERTEX
  5
180E
  8
0
 10
52.825746292087047
 20
58.357410437794272
 30
0.0
  0
SEQEND
  5
180F
  8
0
  0
LINE
  5
FD1
  8
0
 10
51.720353427286113
 20
58.357410437794272
 30
0.0
 11
52.825746292087047
 21
58.357410437794272
 31
0.0
  0
LINE
  5
FD2
  8
0
 10
35.220353427286113
 20
58.357410437794272
 30
0.0
 11
36.325746292087047
 21
58.357410437794272
 31
0.0
  0
POLYLINE
  5
FD3
  8
0
 66
     1
 10
0.0
 20
0.0
 30
0.0
  0
VERTEX
  5
1810
  8
0
 10
36.689716526353209
 20
57.357410437794272
 30
0.0
  0
VERTEX
  5
1811
  8
0
 10
36.627988141501532
 20
57.527007781313671
 30
0.0
  0
VERTEX
  5
1812
  8
0
 10
36.50580096372471
 20
57.862714293202373
 30
0.0
  0
VERTEX
  5
1813
  8
0
 10
36.385329778303799
 20
58.19370615484155
 30
0.0
  0
VERTEX
  5
1814
  8
0
 10
36.325746292087047
 20
58.357410437794272
 30
0.0
  0
SEQEND
  5
1815
  8
0
  0
POLYLINE
  5
FD4
  8
0
 66
     1
 10
0.0
 20
0.0
 30
0.0
  0
VERTEX
  5
1816
  8
0
 10
51.356383193019951
 20
57.357410437794272
 30
0.0
  0
VERTEX
  5
1817
  8
0
 10
51.296669220565143
 20
57.521473228739701
 30
0.0
  0
VERTEX
  5
1818
  8
0
 10
51.176094434047741
 20
57.852749732051727
 30
0.0
  0
VERTEX
  5
1819
  8
0
 10
51.054011740497003
 20
58.188169175888611
 30
0.0
  0
VERTEX
  5
181A
  8
0
 10
50.992412958753789
 20
58.357410437794272
 30
0.0
  0
SEQEND
  5
181B
  8
0
  0
LINE
  5
FD5
  8
0
 10
37.053686760619371
 20
58.357410437794272
 30
0.0
 11
38.159079625420311
 21
58.357410437794272
 31
0.0
  0
LINE
  5
FD6
  8
0
 10
38.887020093952863
 20
58.357410437794272
 30
0.0
 11
39.992412958753789
 21
58.357410437794272
 31
0.0
  0
POLYLINE
  5
FD7
  8
0
 66
     1
 10
0.0
 20
0.0
 30
0.0
  0
VERTEX
  5
181C
  8
0
 10
40.356383193019951
 20
57.357410437794272
 30
0.0
  0
VERTEX
  5
181D
  8
0
 10
40.295391474223941
 20
57.524983807959927
 30
0.0
  0
VERTEX
  5
181E
  8
0
 10
40.173797737756438
 20
57.859059853251487
 30
0.0
  0
VERTEX
  5
181F
  8
0
 10
40.052737642889149
 20
58.19166973029661
 30
0.0
  0
VERTEX
  5
1820
  8
0
 10
39.992412958753789
 20
58.357410437794272
 30
0.0
  0
SEQEND
  5
1821
  8
0
  0
POLYLINE
  5
FD8
  8
0
 66
     1
 10
0.0
 20
0.0
 30
0.0
  0
VERTEX
  5
1822
  8
0
 10
47.689716526353209
 20
57.357410437794272
 30
0.0
  0
VERTEX
  5
1823
  8
0
 10
47.629352806513793
 20
57.523258395007637
 30
0.0
  0
VERTEX
  5
1824
  8
0
 10
47.508261636861668
 20
57.855953649321741
 30
0.0
  0
VERTEX
  5
1825
  8
0
 10
47.386699147111017
 20
58.189943844964382
 30
0.0
  0
VERTEX
  5
1826
  8
0
 10
47.325746292087047
 20
58.357410437794272
 30
0.0
  0
SEQEND
  5
1827
  8
0
  0
LINE
  5
FD9
  8
0
 10
48.053686760619371
 20
58.357410437794272
 30
0.0
 11
49.159079625420297
 21
58.357410437794272
 31
0.0
  0
POLYLINE
  5
FDA
  8
0
 66
     1
 10
0.0
 20
0.0
 30
0.0
  0
VERTEX
  5
1828
  8
0
 10
49.52304985968658
 20
57.357410437794272
 30
0.0
  0
VERTEX
  5
1829
  8
0
 10
49.462920016188939
 20
57.522615825039402
 30
0.0
  0
VERTEX
  5
182A
  8
0
 10
49.342014882550188
 20
57.854799949607752
 30
0.0
  0
VERTEX
  5
182B
  8
0
 10
49.22026516605581
 20
58.189304546501432
 30
0.0
  0
VERTEX
  5
182C
  8
0
 10
49.159079625420297
 20
58.357410437794272
 30
0.0
  0
SEQEND
  5
182D
  8
0
  0
LINE
  5
FDB
  8
0
 10
40.720353427286113
 20
58.357410437794272
 30
0.0
 11
41.82574629208704
 21
58.357410437794272
 31
0.0
  0
POLYLINE
  5
FDC
  8
0
 66
     1
 10
0.0
 20
0.0
 30
0.0
  0
VERTEX
  5
182E
  8
0
 10
40.720353427286113
 20
58.357410437794272
 30
0.0
  0
VERTEX
  5
182F
  8
0
 10
40.659400572262143
 20
58.189943844964382
 30
0.0
  0
VERTEX
  5
1830
  8
0
 10
40.537838082511477
 20
57.855953649321741
 30
0.0
  0
VERTEX
  5
1831
  8
0
 10
40.416746912859359
 20
57.523258395007637
 30
0.0
  0
VERTEX
  5
1832
  8
0
 10
40.356383193019951
 20
57.357410437794272
 30
0.0
  0
SEQEND
  5
1833
  8
0
  0
POLYLINE
  5
FDD
  8
0
 66
     1
 10
0.0
 20
0.0
 30
0.0
  0
VERTEX
  5
1834
  8
0
 10
38.887020093952863
 20
58.357410437794272
 30
0.0
  0
VERTEX
  5
1835
  8
0
 10
38.82583455331735
 20
58.189304546501432
 30
0.0
  0
VERTEX
  5
1836
  8
0
 10
38.704084836822972
 20
57.854799949607752
 30
0.0
  0
VERTEX
  5
1837
  8
0
 10
38.583179703184221
 20
57.522615825039402
 30
0.0
  0
VERTEX
  5
1838
  8
0
 10
38.52304985968658
 20
57.357410437794272
 30
0.0
  0
SEQEND
  5
1839
  8
0
  0
POLYLINE
  5
FDE
  8
0
 66
     1
 10
0.0
 20
0.0
 30
0.0
  0
VERTEX
  5
183A
  8
0
 10
37.053686760619371
 20
58.357410437794272
 30
0.0
  0
VERTEX
  5
183B
  8
0
 10
36.992087978876157
 20
58.188169175888611
 30
0.0
  0
VERTEX
  5
183C
  8
0
 10
36.870005285325419
 20
57.852749732051727
 30
0.0
  0
VERTEX
  5
183D
  8
0
 10
36.74943049880801
 20
57.521473228739701
 30
0.0
  0
VERTEX
  5
183E
  8
0
 10
36.689716526353209
 20
57.357410437794272
 30
0.0
  0
SEQEND
  5
183F
  8
0
  0
POLYLINE
  5
FDF
  8
0
 66
     1
 10
0.0
 20
0.0
 30
0.0
  0
VERTEX
  5
1840
  8
0
 10
35.220353427286113
 20
58.357410437794272
 30
0.0
  0
VERTEX
  5
1841
  8
0
 10
35.157644119607653
 20
58.185118030958222
 30
0.0
  0
VERTEX
  5
1842
  8
0
 10
35.03466585284707
 20
57.847238019949891
 30
0.0
  0
VERTEX
  5
1843
  8
0
 10
34.914978784782313
 20
57.51840050304105
 30
0.0
  0
VERTEX
  5
1844
  8
0
 10
34.856383193019951
 20
57.357410437794272
 30
0.0
  0
SEQEND
  5
1845
  8
0
  0
POLYLINE
  5
FE0
  8
0
 66
     1
 10
0.0
 20
0.0
 30
0.0
  0
VERTEX
  5
1846
  8
0
 10
55.02304985968658
 20
57.357410437794329
 30
0.0
  0
VERTEX
  5
1847
  8
0
 10
54.815769105393663
 20
57.92690962970169
 30
0.0
  0
VERTEX
  5
1848
  8
0
 10
54.758286259449839
 20
58.08484245093814
 30
0.0
  0
VERTEX
  5
1849
  8
0
 10
54.693872647282198
 20
58.261817395874402
 30
0.0
  0
VERTEX
  5
184A
  8
0
 10
54.659079625420297
 20
58.357410437794272
 30
0.0
  0
SEQEND
  5
184B
  8
0
  0
POLYLINE
  5
FE1
  8
0
 66
     1
 10
0.0
 20
0.0
 30
0.0
  0
VERTEX
  5
184C
  8
0
 10
51.720353427286113
 20
58.357410437794272
 30
0.0
  0
VERTEX
  5
184D
  8
0
 10
51.660769941069361
 20
58.19370615484155
 30
0.0
  0
VERTEX
  5
184E
  8
0
 10
51.54029875564845
 20
57.862714293202373
 30
0.0
  0
VERTEX
  5
184F
  8
0
 10
51.418111577871628
 20
57.527007781313671
 30
0.0
  0
VERTEX
  5
1850
  8
0
 10
51.356383193019951
 20
57.357410437794272
 30
0.0
  0
SEQEND
  5
1851
  8
0
  0
LINE
  5
FE2
  8
0
 10
49.887020093952863
 20
58.357410437794272
 30
0.0
 11
50.992412958753789
 21
58.357410437794272
 31
0.0
  0
POLYLINE
  5
FE3
  8
0
 66
     1
 10
0.0
 20
0.0
 30
0.0
  0
VERTEX
  5
1852
  8
0
 10
48.053686760619371
 20
58.357410437794272
 30
0.0
  0
VERTEX
  5
1853
  8
0
 10
47.993362076483997
 20
58.19166973029661
 30
0.0
  0
VERTEX
  5
1854
  8
0
 10
47.872301981616722
 20
57.859059853251487
 30
0.0
  0
VERTEX
  5
1855
  8
0
 10
47.750708245149212
 20
57.524983807959927
 30
0.0
  0
VERTEX
  5
1856
  8
0
 10
47.689716526353209
 20
57.357410437794272
 30
0.0
  0
SEQEND
  5
1857
  8
0
  0
LINE
  5
FE4
  8
0
 10
46.220353427286113
 20
58.357410437794272
 30
0.0
 11
47.325746292087047
 21
58.357410437794272
 31
0.0
  0
LINE
  5
FE5
  8
3
 10
44.023049859683958
 20
90.481766756257159
 30
0.0
 11
44.023049859683958
 21
103.1834713474729
 31
0.0
  0
LINE
  5
FE6
  8
3
 10
47.726113549777317
 20
87.655952385198361
 30
0.0
 11
48.05368676061687
 21
87.983525596038021
 31
0.0
  0
LINE
  5
FE7
  8
3
 10
49.486652836257349
 20
87.655952385198361
 30
0.0
 11
47.726113549777317
 21
87.655952385198361
 31
0.0
  0
LINE
  5
FE8
  8
3
 10
49.159079625417803
 20
87.983525596038021
 30
0.0
 11
49.486652836257349
 21
87.655952385198361
 31
0.0
  0
LINE
  5
FE9
  8
3
 10
48.05368676061687
 20
87.983525596038021
 30
0.0
 11
49.159079625417803
 21
87.983525596038021
 31
0.0
  0
LINE
  5
FEA
  8
3
 10
45.892780216443953
 20
87.655952385198361
 30
0.0
 11
46.220353427283612
 21
87.983525596038021
 31
0.0
  0
LINE
  5
FEB
  8
3
 10
47.653319502924077
 20
87.655952385198361
 30
0.0
 11
45.892780216443953
 21
87.655952385198361
 31
0.0
  0
LINE
  5
FEC
  8
3
 10
47.325746292084538
 20
87.983525596038021
 30
0.0
 11
47.653319502924077
 21
87.655952385198361
 31
0.0
  0
LINE
  5
FED
  8
3
 10
46.220353427283612
 20
87.983525596038021
 30
0.0
 11
47.325746292084538
 21
87.983525596038021
 31
0.0
  0
LINE
  5
FEE
  8
3
 10
44.059446883110581
 20
87.655952385198361
 30
0.0
 11
44.387020093950241
 21
87.983525596038021
 31
0.0
  0
LINE
  5
FEF
  8
3
 10
45.819986169590713
 20
87.655952385198361
 30
0.0
 11
44.059446883110581
 21
87.655952385198361
 31
0.0
  0
LINE
  5
FF0
  8
3
 10
45.492412958751167
 20
87.983525596038021
 30
0.0
 11
45.819986169590713
 21
87.655952385198361
 31
0.0
  0
LINE
  5
FF1
  8
3
 10
44.387020093950241
 20
87.983525596038021
 30
0.0
 11
45.492412958751167
 21
87.983525596038021
 31
0.0
  0
LINE
  5
FF2
  8
3
 10
42.226113549777317
 20
87.655952385198361
 30
0.0
 11
42.55368676061687
 21
87.983525596038021
 31
0.0
  0
LINE
  5
FF3
  8
3
 10
43.986652836257342
 20
87.655952385198361
 30
0.0
 11
42.226113549777317
 21
87.655952385198361
 31
0.0
  0
LINE
  5
FF4
  8
3
 10
43.659079625417803
 20
87.983525596038021
 30
0.0
 11
43.986652836257342
 21
87.655952385198361
 31
0.0
  0
LINE
  5
FF5
  8
3
 10
42.55368676061687
 20
87.983525596038021
 30
0.0
 11
43.659079625417803
 21
87.983525596038021
 31
0.0
  0
LINE
  5
FF6
  8
3
 10
40.392780216443953
 20
87.655952385198361
 30
0.0
 11
40.720353427283612
 21
87.983525596038021
 31
0.0
  0
LINE
  5
FF7
  8
3
 10
42.153319502924091
 20
87.655952385198361
 30
0.0
 11
40.392780216443953
 21
87.655952385198361
 31
0.0
  0
LINE
  5
FF8
  8
3
 10
41.825746292084538
 20
87.983525596038021
 30
0.0
 11
42.153319502924091
 21
87.655952385198361
 31
0.0
  0
LINE
  5
FF9
  8
3
 10
40.720353427283612
 20
87.983525596038021
 30
0.0
 11
41.825746292084538
 21
87.983525596038021
 31
0.0
  0
LINE
  5
FFA
  8
3
 10
38.559446883110581
 20
87.655952385198361
 30
0.0
 11
38.887020093950241
 21
87.983525596038021
 31
0.0
  0
LINE
  5
FFB
  8
3
 10
40.31998616959072
 20
87.655952385198361
 30
0.0
 11
38.559446883110581
 21
87.655952385198361
 31
0.0
  0
LINE
  5
FFC
  8
3
 10
39.992412958751181
 20
87.983525596038021
 30
0.0
 11
40.31998616959072
 21
87.655952385198361
 31
0.0
  0
LINE
  5
FFD
  8
3
 10
38.887020093950241
 20
87.983525596038021
 30
0.0
 11
39.992412958751181
 21
87.983525596038021
 31
0.0
  0
LINE
  5
FFE
  8
3
 10
38.486652836257349
 20
87.655952385198361
 30
0.0
 11
37.957673623300252
 21
87.655952385198361
 31
0.0
  0
LINE
  5
FFF
  8
3
 10
38.15907962541781
 20
87.983525596038021
 30
0.0
 11
38.486652836257349
 21
87.655952385198361
 31
0.0
  0
LINE
  5
1000
  8
3
 10
37.489020091613042
 20
87.983525596038021
 30
0.0
 11
38.15907962541781
 21
87.983525596038021
 31
0.0
  0
LINE
  5
1001
  8
3
 10
48.05368676061687
 20
87.328379174358815
 30
0.0
 11
47.726113549777317
 21
87.655952385198361
 31
0.0
  0
LINE
  5
1002
  8
3
 10
49.159079625417803
 20
87.328379174358815
 30
0.0
 11
48.05368676061687
 21
87.328379174358815
 31
0.0
  0
LINE
  5
1003
  8
3
 10
49.486652836257349
 20
87.655952385198361
 30
0.0
 11
49.159079625417803
 21
87.328379174358815
 31
0.0
  0
LINE
  5
1004
  8
3
 10
46.220353427283612
 20
87.328379174358815
 30
0.0
 11
45.892780216443953
 21
87.655952385198361
 31
0.0
  0
LINE
  5
1005
  8
3
 10
47.325746292084538
 20
87.328379174358815
 30
0.0
 11
46.220353427283612
 21
87.328379174358815
 31
0.0
  0
LINE
  5
1006
  8
3
 10
47.653319502924077
 20
87.655952385198361
 30
0.0
 11
47.325746292084538
 21
87.328379174358815
 31
0.0
  0
LINE
  5
1007
  8
3
 10
44.387020093950241
 20
87.328379174358815
 30
0.0
 11
44.059446883110581
 21
87.655952385198361
 31
0.0
  0
LINE
  5
1008
  8
3
 10
45.492412958751167
 20
87.328379174358815
 30
0.0
 11
44.387020093950241
 21
87.328379174358815
 31
0.0
  0
LINE
  5
1009
  8
3
 10
45.819986169590713
 20
87.655952385198361
 30
0.0
 11
45.492412958751167
 21
87.328379174358815
 31
0.0
  0
LINE
  5
100A
  8
3
 10
42.55368676061687
 20
87.328379174358815
 30
0.0
 11
42.226113549777317
 21
87.655952385198361
 31
0.0
  0
LINE
  5
100B
  8
3
 10
43.659079625417803
 20
87.328379174358815
 30
0.0
 11
42.55368676061687
 21
87.328379174358815
 31
0.0
  0
LINE
  5
100C
  8
3
 10
43.986652836257342
 20
87.655952385198361
 30
0.0
 11
43.659079625417803
 21
87.328379174358815
 31
0.0
  0
LINE
  5
100D
  8
3
 10
40.720353427283612
 20
87.328379174358815
 30
0.0
 11
40.392780216443953
 21
87.655952385198361
 31
0.0
  0
LINE
  5
100E
  8
3
 10
41.825746292084538
 20
87.328379174358815
 30
0.0
 11
40.720353427283612
 21
87.328379174358815
 31
0.0
  0
LINE
  5
100F
  8
3
 10
42.153319502924091
 20
87.655952385198361
 30
0.0
 11
41.825746292084538
 21
87.328379174358815
 31
0.0
  0
LINE
  5
1010
  8
3
 10
38.887020093950241
 20
87.328379174358815
 30
0.0
 11
38.559446883110581
 21
87.655952385198361
 31
0.0
  0
LINE
  5
1011
  8
3
 10
39.992412958751181
 20
87.328379174358815
 30
0.0
 11
38.887020093950241
 21
87.328379174358815
 31
0.0
  0
LINE
  5
1012
  8
3
 10
40.31998616959072
 20
87.655952385198361
 30
0.0
 11
39.992412958751181
 21
87.328379174358815
 31
0.0
  0
LINE
  5
1013
  8
3
 10
38.486652836257349
 20
87.655952385198361
 30
0.0
 11
38.280968787062079
 21
87.450268336003091
 31
0.0
  0
LINE
  5
1014
  8
3
 10
50.088426096067792
 20
87.655952385198361
 30
0.0
 11
49.559446883110581
 21
87.655952385198361
 31
0.0
  0
LINE
  5
1015
  8
3
 10
49.765130932306072
 20
87.450268336003035
 30
0.0
 11
49.559446883110581
 21
87.655952385198361
 31
0.0
  0
LINE
  5
1016
  8
3
 10
49.559446883110581
 20
89.489285718531733
 30
0.0
 11
49.887020093950241
 21
89.816858929371264
 31
0.0
  0
LINE
  5
1017
  8
3
 10
51.31998616959072
 20
89.489285718531733
 30
0.0
 11
49.559446883110581
 21
89.489285718531733
 31
0.0
  0
LINE
  5
1018
  8
3
 10
50.992412958751167
 20
89.816858929371264
 30
0.0
 11
51.31998616959072
 21
89.489285718531733
 31
0.0
  0
LINE
  5
1019
  8
3
 10
49.887020093950241
 20
89.816858929371264
 30
0.0
 11
50.992412958751167
 21
89.816858929371264
 31
0.0
  0
LINE
  5
101A
  8
3
 10
47.726113549777317
 20
89.489285718531733
 30
0.0
 11
48.05368676061687
 21
89.816858929371264
 31
0.0
  0
LINE
  5
101B
  8
3
 10
49.486652836257349
 20
89.489285718531733
 30
0.0
 11
47.726113549777317
 21
89.489285718531733
 31
0.0
  0
LINE
  5
101C
  8
3
 10
49.159079625417803
 20
89.816858929371264
 30
0.0
 11
49.486652836257349
 21
89.489285718531733
 31
0.0
  0
LINE
  5
101D
  8
3
 10
48.05368676061687
 20
89.816858929371264
 30
0.0
 11
49.159079625417803
 21
89.816858929371264
 31
0.0
  0
LINE
  5
101E
  8
3
 10
45.892780216443953
 20
89.489285718531733
 30
0.0
 11
46.220353427283612
 21
89.816858929371264
 31
0.0
  0
LINE
  5
101F
  8
3
 10
47.653319502924077
 20
89.489285718531733
 30
0.0
 11
45.892780216443953
 21
89.489285718531733
 31
0.0
  0
LINE
  5
1020
  8
3
 10
47.325746292084538
 20
89.816858929371264
 30
0.0
 11
47.653319502924077
 21
89.489285718531733
 31
0.0
  0
LINE
  5
1021
  8
3
 10
46.220353427283612
 20
89.816858929371264
 30
0.0
 11
47.325746292084538
 21
89.816858929371264
 31
0.0
  0
LINE
  5
1022
  8
3
 10
44.059446883110581
 20
89.489285718531733
 30
0.0
 11
44.387020093950241
 21
89.816858929371264
 31
0.0
  0
LINE
  5
1023
  8
3
 10
45.819986169590713
 20
89.489285718531733
 30
0.0
 11
44.059446883110581
 21
89.489285718531733
 31
0.0
  0
LINE
  5
1024
  8
3
 10
45.492412958751167
 20
89.816858929371264
 30
0.0
 11
45.819986169590713
 21
89.489285718531733
 31
0.0
  0
LINE
  5
1025
  8
3
 10
44.387020093950241
 20
89.816858929371264
 30
0.0
 11
45.492412958751167
 21
89.816858929371264
 31
0.0
  0
LINE
  5
1026
  8
3
 10
42.226113549777317
 20
89.489285718531733
 30
0.0
 11
42.55368676061687
 21
89.816858929371264
 31
0.0
  0
LINE
  5
1027
  8
3
 10
43.986652836257342
 20
89.489285718531733
 30
0.0
 11
42.226113549777317
 21
89.489285718531733
 31
0.0
  0
LINE
  5
1028
  8
3
 10
43.659079625417803
 20
89.816858929371264
 30
0.0
 11
43.986652836257342
 21
89.489285718531733
 31
0.0
  0
LINE
  5
1029
  8
3
 10
42.55368676061687
 20
89.816858929371264
 30
0.0
 11
43.659079625417803
 21
89.816858929371264
 31
0.0
  0
LINE
  5
102A
  8
3
 10
40.392780216443953
 20
89.489285718531733
 30
0.0
 11
40.720353427283612
 21
89.816858929371264
 31
0.0
  0
LINE
  5
102B
  8
3
 10
42.153319502924091
 20
89.489285718531733
 30
0.0
 11
40.392780216443953
 21
89.489285718531733
 31
0.0
  0
LINE
  5
102C
  8
3
 10
41.825746292084538
 20
89.816858929371264
 30
0.0
 11
42.153319502924091
 21
89.489285718531733
 31
0.0
  0
LINE
  5
102D
  8
3
 10
40.720353427283612
 20
89.816858929371264
 30
0.0
 11
41.825746292084538
 21
89.816858929371264
 31
0.0
  0
LINE
  5
102E
  8
3
 10
38.559446883110581
 20
89.489285718531733
 30
0.0
 11
38.887020093950241
 21
89.816858929371264
 31
0.0
  0
LINE
  5
102F
  8
3
 10
40.31998616959072
 20
89.489285718531733
 30
0.0
 11
38.559446883110581
 21
89.489285718531733
 31
0.0
  0
LINE
  5
1030
  8
3
 10
39.992412958751181
 20
89.816858929371264
 30
0.0
 11
40.31998616959072
 21
89.489285718531733
 31
0.0
  0
LINE
  5
1031
  8
3
 10
38.887020093950241
 20
89.816858929371264
 30
0.0
 11
39.992412958751181
 21
89.816858929371264
 31
0.0
  0
LINE
  5
1032
  8
3
 10
36.726113549777317
 20
89.489285718531733
 30
0.0
 11
37.05368676061687
 21
89.816858929371264
 31
0.0
  0
LINE
  5
1033
  8
3
 10
38.486652836257349
 20
89.489285718531733
 30
0.0
 11
36.726113549777317
 21
89.489285718531733
 31
0.0
  0
LINE
  5
1034
  8
3
 10
38.15907962541781
 20
89.816858929371264
 30
0.0
 11
38.486652836257349
 21
89.489285718531733
 31
0.0
  0
LINE
  5
1035
  8
3
 10
37.05368676061687
 20
89.816858929371264
 30
0.0
 11
38.15907962541781
 21
89.816858929371264
 31
0.0
  0
LINE
  5
1036
  8
3
 10
36.653319502924091
 20
89.489285718531733
 30
0.0
 11
35.833089203151189
 21
89.489285718531733
 31
0.0
  0
LINE
  5
1037
  8
3
 10
36.325746292084553
 20
89.816858929371264
 30
0.0
 11
36.653319502924091
 21
89.489285718531733
 31
0.0
  0
LINE
  5
1038
  8
3
 10
35.550794557603808
 20
89.816858929371264
 30
0.0
 11
36.325746292084553
 21
89.816858929371264
 31
0.0
  0
LINE
  5
1039
  8
3
 10
49.887020093950241
 20
89.161712507692187
 30
0.0
 11
49.559446883110581
 21
89.489285718531733
 31
0.0
  0
LINE
  5
103A
  8
3
 10
50.992412958751167
 20
89.161712507692187
 30
0.0
 11
49.887020093950241
 21
89.161712507692187
 31
0.0
  0
LINE
  5
103B
  8
3
 10
51.31998616959072
 20
89.489285718531733
 30
0.0
 11
50.992412958751167
 21
89.161712507692187
 31
0.0
  0
LINE
  5
103C
  8
3
 10
48.05368676061687
 20
89.161712507692187
 30
0.0
 11
47.726113549777317
 21
89.489285718531733
 31
0.0
  0
LINE
  5
103D
  8
3
 10
49.159079625417803
 20
89.161712507692187
 30
0.0
 11
48.05368676061687
 21
89.161712507692187
 31
0.0
  0
LINE
  5
103E
  8
3
 10
49.486652836257349
 20
89.489285718531733
 30
0.0
 11
49.159079625417803
 21
89.161712507692187
 31
0.0
  0
LINE
  5
103F
  8
3
 10
46.220353427283612
 20
89.161712507692187
 30
0.0
 11
45.892780216443953
 21
89.489285718531733
 31
0.0
  0
LINE
  5
1040
  8
3
 10
47.325746292084538
 20
89.161712507692187
 30
0.0
 11
46.220353427283612
 21
89.161712507692187
 31
0.0
  0
LINE
  5
1041
  8
3
 10
47.653319502924077
 20
89.489285718531733
 30
0.0
 11
47.325746292084538
 21
89.161712507692187
 31
0.0
  0
LINE
  5
1042
  8
3
 10
44.387020093950241
 20
89.161712507692187
 30
0.0
 11
44.059446883110581
 21
89.489285718531733
 31
0.0
  0
LINE
  5
1043
  8
3
 10
45.492412958751167
 20
89.161712507692187
 30
0.0
 11
44.387020093950241
 21
89.161712507692187
 31
0.0
  0
LINE
  5
1044
  8
3
 10
45.819986169590713
 20
89.489285718531733
 30
0.0
 11
45.492412958751167
 21
89.161712507692187
 31
0.0
  0
LINE
  5
1045
  8
3
 10
42.55368676061687
 20
89.161712507692187
 30
0.0
 11
42.226113549777317
 21
89.489285718531733
 31
0.0
  0
LINE
  5
1046
  8
3
 10
43.659079625417803
 20
89.161712507692187
 30
0.0
 11
42.55368676061687
 21
89.161712507692187
 31
0.0
  0
LINE
  5
1047
  8
3
 10
43.986652836257342
 20
89.489285718531733
 30
0.0
 11
43.659079625417803
 21
89.161712507692187
 31
0.0
  0
LINE
  5
1048
  8
3
 10
40.720353427283612
 20
89.161712507692187
 30
0.0
 11
40.392780216443953
 21
89.489285718531733
 31
0.0
  0
LINE
  5
1049
  8
3
 10
41.825746292084538
 20
89.161712507692187
 30
0.0
 11
40.720353427283612
 21
89.161712507692187
 31
0.0
  0
LINE
  5
104A
  8
3
 10
42.153319502924091
 20
89.489285718531733
 30
0.0
 11
41.825746292084538
 21
89.161712507692187
 31
0.0
  0
LINE
  5
104B
  8
3
 10
38.887020093950241
 20
89.161712507692187
 30
0.0
 11
38.559446883110581
 21
89.489285718531733
 31
0.0
  0
LINE
  5
104C
  8
3
 10
39.992412958751181
 20
89.161712507692187
 30
0.0
 11
38.887020093950241
 21
89.161712507692187
 31
0.0
  0
LINE
  5
104D
  8
3
 10
40.31998616959072
 20
89.489285718531733
 30
0.0
 11
39.992412958751181
 21
89.161712507692187
 31
0.0
  0
LINE
  5
104E
  8
3
 10
37.05368676061687
 20
89.161712507692187
 30
0.0
 11
36.726113549777317
 21
89.489285718531733
 31
0.0
  0
LINE
  5
104F
  8
3
 10
38.15907962541781
 20
89.161712507692187
 30
0.0
 11
37.05368676061687
 21
89.161712507692187
 31
0.0
  0
LINE
  5
1050
  8
3
 10
38.486652836257349
 20
89.489285718531733
 30
0.0
 11
38.15907962541781
 21
89.161712507692187
 31
0.0
  0
LINE
  5
1051
  8
3
 10
36.325746292084553
 20
89.161712507692187
 30
0.0
 11
36.139066552334612
 21
89.161712507692187
 31
0.0
  0
LINE
  5
1052
  8
3
 10
36.653319502924091
 20
89.489285718531733
 30
0.0
 11
36.325746292084553
 21
89.161712507692187
 31
0.0
  0
LINE
  5
1053
  8
3
 10
52.213010516216862
 20
89.489285718531733
 30
0.0
 11
51.392780216443953
 21
89.489285718531733
 31
0.0
  0
LINE
  5
1054
  8
3
 10
51.720353427283612
 20
89.161712507692187
 30
0.0
 11
51.392780216443953
 21
89.489285718531733
 31
0.0
  0
LINE
  5
1055
  8
3
 10
51.907033167033553
 20
89.161712507692187
 30
0.0
 11
51.720353427283612
 21
89.161712507692187
 31
0.0
  0
LINE
  5
1056
  8
3
 10
51.392780216443953
 20
91.322619051865104
 30
0.0
 11
51.720353427283612
 21
91.650192262704635
 31
0.0
  0
LINE
  5
1057
  8
3
 10
53.153319502924091
 20
91.322619051865104
 30
0.0
 11
51.392780216443953
 21
91.322619051865104
 31
0.0
  0
LINE
  5
1058
  8
3
 10
52.825746292084538
 20
91.650192262704635
 30
0.0
 11
53.153319502924091
 21
91.322619051865104
 31
0.0
  0
LINE
  5
1059
  8
3
 10
51.720353427283612
 20
91.650192262704635
 30
0.0
 11
52.825746292084538
 21
91.650192262704635
 31
0.0
  0
LINE
  5
105A
  8
3
 10
49.559446883110581
 20
91.322619051865104
 30
0.0
 11
49.887020093950241
 21
91.650192262704635
 31
0.0
  0
LINE
  5
105B
  8
3
 10
51.31998616959072
 20
91.322619051865104
 30
0.0
 11
49.559446883110581
 21
91.322619051865104
 31
0.0
  0
LINE
  5
105C
  8
3
 10
50.992412958751167
 20
91.650192262704635
 30
0.0
 11
51.31998616959072
 21
91.322619051865104
 31
0.0
  0
LINE
  5
105D
  8
3
 10
49.887020093950241
 20
91.650192262704635
 30
0.0
 11
50.992412958751167
 21
91.650192262704635
 31
0.0
  0
LINE
  5
105E
  8
3
 10
47.726113549777317
 20
91.322619051865104
 30
0.0
 11
48.05368676061687
 21
91.650192262704635
 31
0.0
  0
LINE
  5
105F
  8
3
 10
49.486652836257349
 20
91.322619051865104
 30
0.0
 11
47.726113549777317
 21
91.322619051865104
 31
0.0
  0
LINE
  5
1060
  8
3
 10
49.159079625417803
 20
91.650192262704635
 30
0.0
 11
49.486652836257349
 21
91.322619051865104
 31
0.0
  0
LINE
  5
1061
  8
3
 10
48.05368676061687
 20
91.650192262704635
 30
0.0
 11
49.159079625417803
 21
91.650192262704635
 31
0.0
  0
LINE
  5
1062
  8
3
 10
45.892780216443953
 20
91.322619051865104
 30
0.0
 11
46.220353427283612
 21
91.650192262704635
 31
0.0
  0
LINE
  5
1063
  8
3
 10
47.653319502924077
 20
91.322619051865104
 30
0.0
 11
45.892780216443953
 21
91.322619051865104
 31
0.0
  0
LINE
  5
1064
  8
3
 10
47.325746292084538
 20
91.650192262704635
 30
0.0
 11
47.653319502924077
 21
91.322619051865104
 31
0.0
  0
LINE
  5
1065
  8
3
 10
46.220353427283612
 20
91.650192262704635
 30
0.0
 11
47.325746292084538
 21
91.650192262704635
 31
0.0
  0
LINE
  5
1066
  8
3
 10
44.059446883110581
 20
91.322619051865104
 30
0.0
 11
44.387020093950241
 21
91.650192262704635
 31
0.0
  0
LINE
  5
1067
  8
3
 10
45.819986169590713
 20
91.322619051865104
 30
0.0
 11
44.059446883110581
 21
91.322619051865104
 31
0.0
  0
LINE
  5
1068
  8
3
 10
45.492412958751167
 20
91.650192262704635
 30
0.0
 11
45.819986169590713
 21
91.322619051865104
 31
0.0
  0
LINE
  5
1069
  8
3
 10
44.387020093950241
 20
91.650192262704635
 30
0.0
 11
45.492412958751167
 21
91.650192262704635
 31
0.0
  0
LINE
  5
106A
  8
3
 10
42.226113549777317
 20
91.322619051865104
 30
0.0
 11
42.55368676061687
 21
91.650192262704635
 31
0.0
  0
LINE
  5
106B
  8
3
 10
43.986652836257342
 20
91.322619051865104
 30
0.0
 11
42.226113549777317
 21
91.322619051865104
 31
0.0
  0
LINE
  5
106C
  8
3
 10
43.659079625417803
 20
91.650192262704635
 30
0.0
 11
43.986652836257342
 21
91.322619051865104
 31
0.0
  0
LINE
  5
106D
  8
3
 10
42.55368676061687
 20
91.650192262704635
 30
0.0
 11
43.659079625417803
 21
91.650192262704635
 31
0.0
  0
LINE
  5
106E
  8
3
 10
40.392780216443953
 20
91.322619051865104
 30
0.0
 11
40.720353427283612
 21
91.650192262704635
 31
0.0
  0
LINE
  5
106F
  8
3
 10
42.153319502924091
 20
91.322619051865104
 30
0.0
 11
40.392780216443953
 21
91.322619051865104
 31
0.0
  0
LINE
  5
1070
  8
3
 10
41.825746292084538
 20
91.650192262704635
 30
0.0
 11
42.153319502924091
 21
91.322619051865104
 31
0.0
  0
LINE
  5
1071
  8
3
 10
40.720353427283612
 20
91.650192262704635
 30
0.0
 11
41.825746292084538
 21
91.650192262704635
 31
0.0
  0
LINE
  5
1072
  8
3
 10
38.559446883110581
 20
91.322619051865104
 30
0.0
 11
38.887020093950241
 21
91.650192262704635
 31
0.0
  0
LINE
  5
1073
  8
3
 10
40.31998616959072
 20
91.322619051865104
 30
0.0
 11
38.559446883110581
 21
91.322619051865104
 31
0.0
  0
LINE
  5
1074
  8
3
 10
39.992412958751181
 20
91.650192262704635
 30
0.0
 11
40.31998616959072
 21
91.322619051865104
 31
0.0
  0
LINE
  5
1075
  8
3
 10
38.887020093950241
 20
91.650192262704635
 30
0.0
 11
39.992412958751181
 21
91.650192262704635
 31
0.0
  0
LINE
  5
1076
  8
3
 10
36.726113549777317
 20
91.322619051865104
 30
0.0
 11
37.05368676061687
 21
91.650192262704635
 31
0.0
  0
LINE
  5
1077
  8
3
 10
38.486652836257349
 20
91.322619051865104
 30
0.0
 11
36.726113549777317
 21
91.322619051865104
 31
0.0
  0
LINE
  5
1078
  8
3
 10
38.15907962541781
 20
91.650192262704635
 30
0.0
 11
38.486652836257349
 21
91.322619051865104
 31
0.0
  0
LINE
  5
1079
  8
3
 10
37.05368676061687
 20
91.650192262704635
 30
0.0
 11
38.15907962541781
 21
91.650192262704635
 31
0.0
  0
LINE
  5
107A
  8
3
 10
34.892780216443953
 20
91.322619051865104
 30
0.0
 11
35.220353427283612
 21
91.650192262704635
 31
0.0
  0
LINE
  5
107B
  8
3
 10
36.653319502924091
 20
91.322619051865104
 30
0.0
 11
34.892780216443953
 21
91.322619051865104
 31
0.0
  0
LINE
  5
107C
  8
3
 10
36.325746292084553
 20
91.650192262704635
 30
0.0
 11
36.653319502924091
 21
91.322619051865104
 31
0.0
  0
LINE
  5
107D
  8
3
 10
35.220353427283612
 20
91.650192262704635
 30
0.0
 11
36.325746292084553
 21
91.650192262704635
 31
0.0
  0
LINE
  5
107E
  8
3
 10
34.81998616959072
 20
91.322619051865104
 30
0.0
 11
34.50255092317866
 21
91.322619051865104
 31
0.0
  0
LINE
  5
107F
  8
3
 10
34.492412958751167
 20
91.650192262704635
 30
0.0
 11
34.81998616959072
 21
91.322619051865104
 31
0.0
  0
LINE
  5
1080
  8
3
 10
34.320346495415272
 20
91.650192262704635
 30
0.0
 11
34.492412958751167
 21
91.650192262704635
 31
0.0
  0
LINE
  5
1081
  8
3
 10
51.720353427283612
 20
90.995045841025444
 30
0.0
 11
51.392780216443953
 21
91.322619051865104
 31
0.0
  0
LINE
  5
1082
  8
3
 10
52.825746292084538
 20
90.995045841025444
 30
0.0
 11
51.720353427283612
 21
90.995045841025444
 31
0.0
  0
LINE
  5
1083
  8
3
 10
53.153319502924091
 20
91.322619051865104
 30
0.0
 11
52.825746292084538
 21
90.995045841025444
 31
0.0
  0
LINE
  5
1084
  8
3
 10
49.887020093950241
 20
90.995045841025444
 30
0.0
 11
49.559446883110581
 21
91.322619051865104
 31
0.0
  0
LINE
  5
1085
  8
3
 10
50.992412958751167
 20
90.995045841025444
 30
0.0
 11
49.887020093950241
 21
90.995045841025444
 31
0.0
  0
LINE
  5
1086
  8
3
 10
51.31998616959072
 20
91.322619051865104
 30
0.0
 11
50.992412958751167
 21
90.995045841025444
 31
0.0
  0
LINE
  5
1087
  8
3
 10
48.05368676061687
 20
90.995045841025444
 30
0.0
 11
47.726113549777317
 21
91.322619051865104
 31
0.0
  0
LINE
  5
1088
  8
3
 10
49.159079625417803
 20
90.995045841025444
 30
0.0
 11
48.05368676061687
 21
90.995045841025444
 31
0.0
  0
LINE
  5
1089
  8
3
 10
49.486652836257349
 20
91.322619051865104
 30
0.0
 11
49.159079625417803
 21
90.995045841025444
 31
0.0
  0
LINE
  5
108A
  8
3
 10
46.220353427283612
 20
90.995045841025444
 30
0.0
 11
45.892780216443953
 21
91.322619051865104
 31
0.0
  0
LINE
  5
108B
  8
3
 10
47.325746292084538
 20
90.995045841025444
 30
0.0
 11
46.220353427283612
 21
90.995045841025444
 31
0.0
  0
LINE
  5
108C
  8
3
 10
47.653319502924077
 20
91.322619051865104
 30
0.0
 11
47.325746292084538
 21
90.995045841025444
 31
0.0
  0
LINE
  5
108D
  8
3
 10
44.387020093950241
 20
90.995045841025444
 30
0.0
 11
44.059446883110581
 21
91.322619051865104
 31
0.0
  0
LINE
  5
108E
  8
3
 10
45.492412958751167
 20
90.995045841025444
 30
0.0
 11
44.387020093950241
 21
90.995045841025444
 31
0.0
  0
LINE
  5
108F
  8
3
 10
45.819986169590713
 20
91.322619051865104
 30
0.0
 11
45.492412958751167
 21
90.995045841025444
 31
0.0
  0
LINE
  5
1090
  8
3
 10
42.55368676061687
 20
90.995045841025444
 30
0.0
 11
42.226113549777317
 21
91.322619051865104
 31
0.0
  0
LINE
  5
1091
  8
3
 10
43.659079625417803
 20
90.995045841025444
 30
0.0
 11
42.55368676061687
 21
90.995045841025444
 31
0.0
  0
LINE
  5
1092
  8
3
 10
43.986652836257342
 20
91.322619051865104
 30
0.0
 11
43.659079625417803
 21
90.995045841025444
 31
0.0
  0
LINE
  5
1093
  8
3
 10
40.720353427283612
 20
90.995045841025444
 30
0.0
 11
40.392780216443953
 21
91.322619051865104
 31
0.0
  0
LINE
  5
1094
  8
3
 10
41.825746292084538
 20
90.995045841025444
 30
0.0
 11
40.720353427283612
 21
90.995045841025444
 31
0.0
  0
LINE
  5
1095
  8
3
 10
42.153319502924091
 20
91.322619051865104
 30
0.0
 11
41.825746292084538
 21
90.995045841025444
 31
0.0
  0
LINE
  5
1096
  8
3
 10
38.887020093950241
 20
90.995045841025444
 30
0.0
 11
38.559446883110581
 21
91.322619051865104
 31
0.0
  0
LINE
  5
1097
  8
3
 10
39.992412958751181
 20
90.995045841025444
 30
0.0
 11
38.887020093950241
 21
90.995045841025444
 31
0.0
  0
LINE
  5
1098
  8
3
 10
40.31998616959072
 20
91.322619051865104
 30
0.0
 11
39.992412958751181
 21
90.995045841025444
 31
0.0
  0
LINE
  5
1099
  8
3
 10
37.05368676061687
 20
90.995045841025444
 30
0.0
 11
36.726113549777317
 21
91.322619051865104
 31
0.0
  0
LINE
  5
109A
  8
3
 10
38.15907962541781
 20
90.995045841025444
 30
0.0
 11
37.05368676061687
 21
90.995045841025444
 31
0.0
  0
LINE
  5
109B
  8
3
 10
38.486652836257349
 20
91.322619051865104
 30
0.0
 11
38.15907962541781
 21
90.995045841025444
 31
0.0
  0
LINE
  5
109C
  8
3
 10
35.220353427283612
 20
90.995045841025444
 30
0.0
 11
34.892780216443953
 21
91.322619051865104
 31
0.0
  0
LINE
  5
109D
  8
3
 10
36.325746292084553
 20
90.995045841025444
 30
0.0
 11
35.220353427283612
 21
90.995045841025444
 31
0.0
  0
LINE
  5
109E
  8
3
 10
36.653319502924091
 20
91.322619051865104
 30
0.0
 11
36.325746292084553
 21
90.995045841025444
 31
0.0
  0
LINE
  5
109F
  8
3
 10
34.81998616959072
 20
91.322619051865104
 30
0.0
 11
34.620704349304667
 21
91.123337231579015
 31
0.0
  0
LINE
  5
10A0
  8
3
 10
53.543548796189377
 20
91.322619051865104
 30
0.0
 11
53.226113549777317
 21
91.322619051865104
 31
0.0
  0
LINE
  5
10A1
  8
3
 10
53.42539537006337
 20
91.123337231579015
 30
0.0
 11
53.226113549777317
 21
91.322619051865104
 31
0.0
  0
LINE
  5
10A2
  8
3
 10
51.392780216443953
 20
93.155952385198361
 30
0.0
 11
51.720353427283612
 21
93.483525596038007
 31
0.0
  0
LINE
  5
10A3
  8
3
 10
53.153319502924091
 20
93.155952385198361
 30
0.0
 11
51.392780216443953
 21
93.155952385198361
 31
0.0
  0
LINE
  5
10A4
  8
3
 10
52.825746292084538
 20
93.483525596038007
 30
0.0
 11
53.153319502924091
 21
93.155952385198361
 31
0.0
  0
LINE
  5
10A5
  8
3
 10
51.720353427283612
 20
93.483525596038007
 30
0.0
 11
52.825746292084538
 21
93.483525596038007
 31
0.0
  0
LINE
  5
10A6
  8
3
 10
49.559446883110581
 20
93.155952385198361
 30
0.0
 11
49.887020093950241
 21
93.483525596038007
 31
0.0
  0
LINE
  5
10A7
  8
3
 10
51.31998616959072
 20
93.155952385198361
 30
0.0
 11
49.559446883110581
 21
93.155952385198361
 31
0.0
  0
LINE
  5
10A8
  8
3
 10
50.992412958751167
 20
93.483525596038007
 30
0.0
 11
51.31998616959072
 21
93.155952385198361
 31
0.0
  0
LINE
  5
10A9
  8
3
 10
49.887020093950241
 20
93.483525596038007
 30
0.0
 11
50.992412958751167
 21
93.483525596038007
 31
0.0
  0
LINE
  5
10AA
  8
3
 10
47.726113549777317
 20
93.155952385198361
 30
0.0
 11
48.05368676061687
 21
93.483525596038007
 31
0.0
  0
LINE
  5
10AB
  8
3
 10
49.486652836257349
 20
93.155952385198361
 30
0.0
 11
47.726113549777317
 21
93.155952385198361
 31
0.0
  0
LINE
  5
10AC
  8
3
 10
49.159079625417803
 20
93.483525596038007
 30
0.0
 11
49.486652836257349
 21
93.155952385198361
 31
0.0
  0
LINE
  5
10AD
  8
3
 10
48.05368676061687
 20
93.483525596038007
 30
0.0
 11
49.159079625417803
 21
93.483525596038007
 31
0.0
  0
LINE
  5
10AE
  8
3
 10
45.892780216443953
 20
93.155952385198361
 30
0.0
 11
46.220353427283612
 21
93.483525596038007
 31
0.0
  0
LINE
  5
10AF
  8
3
 10
47.653319502924077
 20
93.155952385198361
 30
0.0
 11
45.892780216443953
 21
93.155952385198361
 31
0.0
  0
LINE
  5
10B0
  8
3
 10
47.325746292084538
 20
93.483525596038007
 30
0.0
 11
47.653319502924077
 21
93.155952385198361
 31
0.0
  0
LINE
  5
10B1
  8
3
 10
46.220353427283612
 20
93.483525596038007
 30
0.0
 11
47.325746292084538
 21
93.483525596038007
 31
0.0
  0
LINE
  5
10B2
  8
3
 10
44.059446883110581
 20
93.155952385198361
 30
0.0
 11
44.387020093950241
 21
93.483525596038007
 31
0.0
  0
LINE
  5
10B3
  8
3
 10
45.819986169590713
 20
93.155952385198361
 30
0.0
 11
44.059446883110581
 21
93.155952385198361
 31
0.0
  0
LINE
  5
10B4
  8
3
 10
45.492412958751167
 20
93.483525596038007
 30
0.0
 11
45.819986169590713
 21
93.155952385198361
 31
0.0
  0
LINE
  5
10B5
  8
3
 10
44.387020093950241
 20
93.483525596038007
 30
0.0
 11
45.492412958751167
 21
93.483525596038007
 31
0.0
  0
LINE
  5
10B6
  8
3
 10
42.226113549777317
 20
93.155952385198361
 30
0.0
 11
42.55368676061687
 21
93.483525596038007
 31
0.0
  0
LINE
  5
10B7
  8
3
 10
43.986652836257342
 20
93.155952385198361
 30
0.0
 11
42.226113549777317
 21
93.155952385198361
 31
0.0
  0
LINE
  5
10B8
  8
3
 10
43.659079625417803
 20
93.483525596038007
 30
0.0
 11
43.986652836257342
 21
93.155952385198361
 31
0.0
  0
LINE
  5
10B9
  8
3
 10
42.55368676061687
 20
93.483525596038007
 30
0.0
 11
43.659079625417803
 21
93.483525596038007
 31
0.0
  0
LINE
  5
10BA
  8
3
 10
40.392780216443953
 20
93.155952385198361
 30
0.0
 11
40.720353427283612
 21
93.483525596038007
 31
0.0
  0
LINE
  5
10BB
  8
3
 10
42.153319502924091
 20
93.155952385198361
 30
0.0
 11
40.392780216443953
 21
93.155952385198361
 31
0.0
  0
LINE
  5
10BC
  8
3
 10
41.825746292084538
 20
93.483525596038007
 30
0.0
 11
42.153319502924091
 21
93.155952385198361
 31
0.0
  0
LINE
  5
10BD
  8
3
 10
40.720353427283612
 20
93.483525596038007
 30
0.0
 11
41.825746292084538
 21
93.483525596038007
 31
0.0
  0
LINE
  5
10BE
  8
3
 10
38.559446883110581
 20
93.155952385198361
 30
0.0
 11
38.887020093950241
 21
93.483525596038007
 31
0.0
  0
LINE
  5
10BF
  8
3
 10
40.31998616959072
 20
93.155952385198361
 30
0.0
 11
38.559446883110581
 21
93.155952385198361
 31
0.0
  0
LINE
  5
10C0
  8
3
 10
39.992412958751181
 20
93.483525596038007
 30
0.0
 11
40.31998616959072
 21
93.155952385198361
 31
0.0
  0
LINE
  5
10C1
  8
3
 10
38.887020093950241
 20
93.483525596038007
 30
0.0
 11
39.992412958751181
 21
93.483525596038007
 31
0.0
  0
LINE
  5
10C2
  8
3
 10
36.726113549777317
 20
93.155952385198361
 30
0.0
 11
37.05368676061687
 21
93.483525596038007
 31
0.0
  0
LINE
  5
10C3
  8
3
 10
38.486652836257349
 20
93.155952385198361
 30
0.0
 11
36.726113549777317
 21
93.155952385198361
 31
0.0
  0
LINE
  5
10C4
  8
3
 10
38.15907962541781
 20
93.483525596038007
 30
0.0
 11
38.486652836257349
 21
93.155952385198361
 31
0.0
  0
LINE
  5
10C5
  8
3
 10
37.05368676061687
 20
93.483525596038007
 30
0.0
 11
38.15907962541781
 21
93.483525596038007
 31
0.0
  0
LINE
  5
10C6
  8
3
 10
34.892780216443953
 20
93.155952385198361
 30
0.0
 11
35.220353427283612
 21
93.483525596038007
 31
0.0
  0
LINE
  5
10C7
  8
3
 10
36.653319502924091
 20
93.155952385198361
 30
0.0
 11
34.892780216443953
 21
93.155952385198361
 31
0.0
  0
LINE
  5
10C8
  8
3
 10
36.325746292084553
 20
93.483525596038007
 30
0.0
 11
36.653319502924091
 21
93.155952385198361
 31
0.0
  0
LINE
  5
10C9
  8
3
 10
35.220353427283612
 20
93.483525596038007
 30
0.0
 11
36.325746292084553
 21
93.483525596038007
 31
0.0
  0
LINE
  5
10CA
  8
3
 10
34.81998616959072
 20
93.155952385198361
 30
0.0
 11
33.655691361868783
 21
93.155952385198361
 31
0.0
  0
LINE
  5
10CB
  8
3
 10
34.492412958751167
 20
93.483525596038007
 30
0.0
 11
34.81998616959072
 21
93.155952385198361
 31
0.0
  0
LINE
  5
10CC
  8
3
 10
33.545284209311028
 20
93.483525596038007
 30
0.0
 11
34.492412958751167
 21
93.483525596038007
 31
0.0
  0
LINE
  5
10CD
  8
3
 10
51.720353427283612
 20
92.828379174358815
 30
0.0
 11
51.392780216443953
 21
93.155952385198361
 31
0.0
  0
LINE
  5
10CE
  8
3
 10
52.825746292084538
 20
92.828379174358815
 30
0.0
 11
51.720353427283612
 21
92.828379174358815
 31
0.0
  0
LINE
  5
10CF
  8
3
 10
53.153319502924091
 20
93.155952385198361
 30
0.0
 11
52.825746292084538
 21
92.828379174358815
 31
0.0
  0
LINE
  5
10D0
  8
3
 10
49.887020093950241
 20
92.828379174358815
 30
0.0
 11
49.559446883110581
 21
93.155952385198361
 31
0.0
  0
LINE
  5
10D1
  8
3
 10
50.992412958751167
 20
92.828379174358815
 30
0.0
 11
49.887020093950241
 21
92.828379174358815
 31
0.0
  0
LINE
  5
10D2
  8
3
 10
51.31998616959072
 20
93.155952385198361
 30
0.0
 11
50.992412958751167
 21
92.828379174358815
 31
0.0
  0
LINE
  5
10D3
  8
3
 10
48.05368676061687
 20
92.828379174358815
 30
0.0
 11
47.726113549777317
 21
93.155952385198361
 31
0.0
  0
LINE
  5
10D4
  8
3
 10
49.159079625417803
 20
92.828379174358815
 30
0.0
 11
48.05368676061687
 21
92.828379174358815
 31
0.0
  0
LINE
  5
10D5
  8
3
 10
49.486652836257349
 20
93.155952385198361
 30
0.0
 11
49.159079625417803
 21
92.828379174358815
 31
0.0
  0
LINE
  5
10D6
  8
3
 10
46.220353427283612
 20
92.828379174358815
 30
0.0
 11
45.892780216443953
 21
93.155952385198361
 31
0.0
  0
LINE
  5
10D7
  8
3
 10
47.325746292084538
 20
92.828379174358815
 30
0.0
 11
46.220353427283612
 21
92.828379174358815
 31
0.0
  0
LINE
  5
10D8
  8
3
 10
47.653319502924077
 20
93.155952385198361
 30
0.0
 11
47.325746292084538
 21
92.828379174358815
 31
0.0
  0
LINE
  5
10D9
  8
3
 10
44.387020093950241
 20
92.828379174358815
 30
0.0
 11
44.059446883110581
 21
93.155952385198361
 31
0.0
  0
LINE
  5
10DA
  8
3
 10
45.492412958751167
 20
92.828379174358815
 30
0.0
 11
44.387020093950241
 21
92.828379174358815
 31
0.0
  0
LINE
  5
10DB
  8
3
 10
45.819986169590713
 20
93.155952385198361
 30
0.0
 11
45.492412958751167
 21
92.828379174358815
 31
0.0
  0
LINE
  5
10DC
  8
3
 10
42.55368676061687
 20
92.828379174358815
 30
0.0
 11
42.226113549777317
 21
93.155952385198361
 31
0.0
  0
LINE
  5
10DD
  8
3
 10
43.659079625417803
 20
92.828379174358815
 30
0.0
 11
42.55368676061687
 21
92.828379174358815
 31
0.0
  0
LINE
  5
10DE
  8
3
 10
43.986652836257342
 20
93.155952385198361
 30
0.0
 11
43.659079625417803
 21
92.828379174358815
 31
0.0
  0
LINE
  5
10DF
  8
3
 10
40.720353427283612
 20
92.828379174358815
 30
0.0
 11
40.392780216443953
 21
93.155952385198361
 31
0.0
  0
LINE
  5
10E0
  8
3
 10
41.825746292084538
 20
92.828379174358815
 30
0.0
 11
40.720353427283612
 21
92.828379174358815
 31
0.0
  0
LINE
  5
10E1
  8
3
 10
42.153319502924091
 20
93.155952385198361
 30
0.0
 11
41.825746292084538
 21
92.828379174358815
 31
0.0
  0
LINE
  5
10E2
  8
3
 10
38.887020093950241
 20
92.828379174358815
 30
0.0
 11
38.559446883110581
 21
93.155952385198361
 31
0.0
  0
LINE
  5
10E3
  8
3
 10
39.992412958751181
 20
92.828379174358815
 30
0.0
 11
38.887020093950241
 21
92.828379174358815
 31
0.0
  0
LINE
  5
10E4
  8
3
 10
40.31998616959072
 20
93.155952385198361
 30
0.0
 11
39.992412958751181
 21
92.828379174358815
 31
0.0
  0
LINE
  5
10E5
  8
3
 10
37.05368676061687
 20
92.828379174358815
 30
0.0
 11
36.726113549777317
 21
93.155952385198361
 31
0.0
  0
LINE
  5
10E6
  8
3
 10
38.15907962541781
 20
92.828379174358815
 30
0.0
 11
37.05368676061687
 21
92.828379174358815
 31
0.0
  0
LINE
  5
10E7
  8
3
 10
38.486652836257349
 20
93.155952385198361
 30
0.0
 11
38.15907962541781
 21
92.828379174358815
 31
0.0
  0
LINE
  5
10E8
  8
3
 10
35.220353427283612
 20
92.828379174358815
 30
0.0
 11
34.892780216443953
 21
93.155952385198361
 31
0.0
  0
LINE
  5
10E9
  8
3
 10
36.325746292084553
 20
92.828379174358815
 30
0.0
 11
35.220353427283612
 21
92.828379174358815
 31
0.0
  0
LINE
  5
10EA
  8
3
 10
36.653319502924091
 20
93.155952385198361
 30
0.0
 11
36.325746292084553
 21
92.828379174358815
 31
0.0
  0
LINE
  5
10EB
  8
3
 10
34.492412958751167
 20
92.828379174358815
 30
0.0
 11
33.777755183424581
 21
92.828379174358815
 31
0.0
  0
LINE
  5
10EC
  8
3
 10
34.81998616959072
 20
93.155952385198361
 30
0.0
 11
34.492412958751167
 21
92.828379174358815
 31
0.0
  0
LINE
  5
10ED
  8
3
 10
54.390408357499268
 20
93.155952385198361
 30
0.0
 11
53.226113549777317
 21
93.155952385198361
 31
0.0
  0
LINE
  5
10EE
  8
3
 10
53.553686760616863
 20
92.828379174358815
 30
0.0
 11
53.226113549777317
 21
93.155952385198361
 31
0.0
  0
LINE
  5
10EF
  8
3
 10
54.268344535943349
 20
92.828379174358815
 30
0.0
 11
53.553686760616863
 21
92.828379174358815
 31
0.0
  0
LINE
  5
10F0
  8
3
 10
34.81998616959072
 20
94.989285718531733
 30
0.0
 11
34.492412958751167
 21
94.661712507692187
 31
0.0
  0
LINE
  5
10F1
  8
3
 10
34.81998616959072
 20
94.989285718531733
 30
0.0
 11
33.178598641562189
 21
94.989285718531733
 31
0.0
  0
POLYLINE
  5
10F2
  8
3
 66
     1
 10
0.0
 20
0.0
 30
0.0
  0
VERTEX
  5
1858
  8
3
 10
33.204200001129152
 20
94.844532600513148
 30
0.0
  0
VERTEX
  5
1859
  8
3
 10
33.199798806916647
 20
94.86863416170695
 30
0.0
  0
VERTEX
  5
185A
  8
3
 10
33.191157515731561
 20
94.916866393241776
 30
0.0
  0
VERTEX
  5
185B
  8
3
 10
33.182731163314429
 20
94.965136639326829
 30
0.0
  0
VERTEX
  5
185C
  8
3
 10
33.178598641562303
 20
94.989285718531733
 30
0.0
  0
SEQEND
  5
185D
  8
3
  0
LINE
  5
10F3
  8
3
 10
33.387020093950241
 20
94.661712507692187
 30
0.0
 11
33.204200001129152
 21
94.844532600513148
 31
0.0
  0
LINE
  5
10F4
  8
3
 10
34.492412958751167
 20
94.661712507692187
 30
0.0
 11
33.387020093950241
 21
94.661712507692187
 31
0.0
  0
LINE
  5
10F5
  8
3
 10
53.553686760616863
 20
94.661712507692187
 30
0.0
 11
53.226113549777317
 21
94.989285718531733
 31
0.0
  0
LINE
  5
10F6
  8
3
 10
54.65907962541781
 20
94.661712507692187
 30
0.0
 11
53.553686760616863
 21
94.661712507692187
 31
0.0
  0
LINE
  5
10F7
  8
3
 10
54.841899718238778
 20
94.844532600513148
 30
0.0
 11
54.65907962541781
 21
94.661712507692187
 31
0.0
  0
LINE
  5
10F8
  8
3
 10
54.867501077805741
 20
94.989285718531733
 30
0.0
 11
53.226113549777317
 21
94.989285718531733
 31
0.0
  0
LINE
  5
10F9
  8
3
 10
51.720353427283612
 20
94.661712507692187
 30
0.0
 11
51.392780216443953
 21
94.989285718531733
 31
0.0
  0
LINE
  5
10FA
  8
3
 10
52.825746292084538
 20
94.661712507692187
 30
0.0
 11
51.720353427283612
 21
94.661712507692187
 31
0.0
  0
LINE
  5
10FB
  8
3
 10
53.153319502924091
 20
94.989285718531733
 30
0.0
 11
52.825746292084538
 21
94.661712507692187
 31
0.0
  0
LINE
  5
10FC
  8
3
 10
53.153319502924091
 20
94.989285718531733
 30
0.0
 11
51.392780216443953
 21
94.989285718531733
 31
0.0
  0
LINE
  5
10FD
  8
3
 10
49.887020093950241
 20
94.661712507692187
 30
0.0
 11
49.559446883110581
 21
94.989285718531733
 31
0.0
  0
LINE
  5
10FE
  8
3
 10
50.992412958751167
 20
94.661712507692187
 30
0.0
 11
49.887020093950241
 21
94.661712507692187
 31
0.0
  0
LINE
  5
10FF
  8
3
 10
51.31998616959072
 20
94.989285718531733
 30
0.0
 11
50.992412958751167
 21
94.661712507692187
 31
0.0
  0
LINE
  5
1100
  8
3
 10
51.31998616959072
 20
94.989285718531733
 30
0.0
 11
49.559446883110581
 21
94.989285718531733
 31
0.0
  0
LINE
  5
1101
  8
3
 10
48.05368676061687
 20
94.661712507692187
 30
0.0
 11
47.726113549777317
 21
94.989285718531733
 31
0.0
  0
LINE
  5
1102
  8
3
 10
49.159079625417803
 20
94.661712507692187
 30
0.0
 11
48.05368676061687
 21
94.661712507692187
 31
0.0
  0
LINE
  5
1103
  8
3
 10
49.486652836257349
 20
94.989285718531733
 30
0.0
 11
49.159079625417803
 21
94.661712507692187
 31
0.0
  0
LINE
  5
1104
  8
3
 10
49.486652836257349
 20
94.989285718531733
 30
0.0
 11
47.726113549777317
 21
94.989285718531733
 31
0.0
  0
LINE
  5
1105
  8
3
 10
46.220353427283612
 20
94.661712507692187
 30
0.0
 11
45.892780216443953
 21
94.989285718531733
 31
0.0
  0
LINE
  5
1106
  8
3
 10
47.325746292084538
 20
94.661712507692187
 30
0.0
 11
46.220353427283612
 21
94.661712507692187
 31
0.0
  0
LINE
  5
1107
  8
3
 10
47.653319502924077
 20
94.989285718531733
 30
0.0
 11
47.325746292084538
 21
94.661712507692187
 31
0.0
  0
LINE
  5
1108
  8
3
 10
47.653319502924077
 20
94.989285718531733
 30
0.0
 11
45.892780216443953
 21
94.989285718531733
 31
0.0
  0
LINE
  5
1109
  8
3
 10
44.387020093950241
 20
94.661712507692187
 30
0.0
 11
44.059446883110581
 21
94.989285718531733
 31
0.0
  0
LINE
  5
110A
  8
3
 10
45.492412958751167
 20
94.661712507692187
 30
0.0
 11
44.387020093950241
 21
94.661712507692187
 31
0.0
  0
LINE
  5
110B
  8
3
 10
45.819986169590713
 20
94.989285718531733
 30
0.0
 11
45.492412958751167
 21
94.661712507692187
 31
0.0
  0
LINE
  5
110C
  8
3
 10
45.819986169590713
 20
94.989285718531733
 30
0.0
 11
44.059446883110581
 21
94.989285718531733
 31
0.0
  0
LINE
  5
110D
  8
3
 10
42.55368676061687
 20
94.661712507692187
 30
0.0
 11
42.226113549777317
 21
94.989285718531733
 31
0.0
  0
LINE
  5
110E
  8
3
 10
43.659079625417803
 20
94.661712507692187
 30
0.0
 11
42.55368676061687
 21
94.661712507692187
 31
0.0
  0
LINE
  5
110F
  8
3
 10
43.986652836257342
 20
94.989285718531733
 30
0.0
 11
43.659079625417803
 21
94.661712507692187
 31
0.0
  0
LINE
  5
1110
  8
3
 10
43.986652836257342
 20
94.989285718531733
 30
0.0
 11
42.226113549777317
 21
94.989285718531733
 31
0.0
  0
LINE
  5
1111
  8
3
 10
40.720353427283612
 20
94.661712507692187
 30
0.0
 11
40.392780216443953
 21
94.989285718531733
 31
0.0
  0
LINE
  5
1112
  8
3
 10
41.825746292084538
 20
94.661712507692187
 30
0.0
 11
40.720353427283612
 21
94.661712507692187
 31
0.0
  0
LINE
  5
1113
  8
3
 10
42.153319502924091
 20
94.989285718531733
 30
0.0
 11
41.825746292084538
 21
94.661712507692187
 31
0.0
  0
LINE
  5
1114
  8
3
 10
42.153319502924091
 20
94.989285718531733
 30
0.0
 11
40.392780216443953
 21
94.989285718531733
 31
0.0
  0
LINE
  5
1115
  8
3
 10
38.887020093950241
 20
94.661712507692187
 30
0.0
 11
38.559446883110581
 21
94.989285718531733
 31
0.0
  0
LINE
  5
1116
  8
3
 10
39.992412958751181
 20
94.661712507692187
 30
0.0
 11
38.887020093950241
 21
94.661712507692187
 31
0.0
  0
LINE
  5
1117
  8
3
 10
40.31998616959072
 20
94.989285718531733
 30
0.0
 11
39.992412958751181
 21
94.661712507692187
 31
0.0
  0
LINE
  5
1118
  8
3
 10
40.31998616959072
 20
94.989285718531733
 30
0.0
 11
38.559446883110581
 21
94.989285718531733
 31
0.0
  0
LINE
  5
1119
  8
3
 10
37.05368676061687
 20
94.661712507692187
 30
0.0
 11
36.726113549777317
 21
94.989285718531733
 31
0.0
  0
LINE
  5
111A
  8
3
 10
38.15907962541781
 20
94.661712507692187
 30
0.0
 11
37.05368676061687
 21
94.661712507692187
 31
0.0
  0
LINE
  5
111B
  8
3
 10
38.486652836257349
 20
94.989285718531733
 30
0.0
 11
38.15907962541781
 21
94.661712507692187
 31
0.0
  0
LINE
  5
111C
  8
3
 10
38.486652836257349
 20
94.989285718531733
 30
0.0
 11
36.726113549777317
 21
94.989285718531733
 31
0.0
  0
LINE
  5
111D
  8
3
 10
36.726113549777317
 20
94.989285718531733
 30
0.0
 11
37.05368676061687
 21
95.316858929371278
 31
0.0
  0
LINE
  5
111E
  8
3
 10
38.15907962541781
 20
95.316858929371278
 30
0.0
 11
38.486652836257349
 21
94.989285718531733
 31
0.0
  0
LINE
  5
111F
  8
3
 10
37.05368676061687
 20
95.316858929371278
 30
0.0
 11
38.15907962541781
 21
95.316858929371278
 31
0.0
  0
LINE
  5
1120
  8
3
 10
38.559446883110581
 20
94.989285718531733
 30
0.0
 11
38.887020093950241
 21
95.316858929371278
 31
0.0
  0
LINE
  5
1121
  8
3
 10
39.992412958751181
 20
95.316858929371278
 30
0.0
 11
40.31998616959072
 21
94.989285718531733
 31
0.0
  0
LINE
  5
1122
  8
3
 10
38.887020093950241
 20
95.316858929371278
 30
0.0
 11
39.992412958751181
 21
95.316858929371278
 31
0.0
  0
LINE
  5
1123
  8
3
 10
40.392780216443953
 20
94.989285718531733
 30
0.0
 11
40.720353427283612
 21
95.316858929371278
 31
0.0
  0
LINE
  5
1124
  8
3
 10
41.825746292084538
 20
95.316858929371278
 30
0.0
 11
42.153319502924091
 21
94.989285718531733
 31
0.0
  0
LINE
  5
1125
  8
3
 10
40.720353427283612
 20
95.316858929371278
 30
0.0
 11
41.825746292084538
 21
95.316858929371278
 31
0.0
  0
LINE
  5
1126
  8
3
 10
42.226113549777317
 20
94.989285718531733
 30
0.0
 11
42.55368676061687
 21
95.316858929371278
 31
0.0
  0
LINE
  5
1127
  8
3
 10
43.659079625417803
 20
95.316858929371278
 30
0.0
 11
43.986652836257342
 21
94.989285718531733
 31
0.0
  0
LINE
  5
1128
  8
3
 10
42.55368676061687
 20
95.316858929371278
 30
0.0
 11
43.659079625417803
 21
95.316858929371278
 31
0.0
  0
LINE
  5
1129
  8
3
 10
44.059446883110581
 20
94.989285718531733
 30
0.0
 11
44.387020093950241
 21
95.316858929371278
 31
0.0
  0
LINE
  5
112A
  8
3
 10
45.492412958751167
 20
95.316858929371278
 30
0.0
 11
45.819986169590713
 21
94.989285718531733
 31
0.0
  0
LINE
  5
112B
  8
3
 10
44.387020093950241
 20
95.316858929371278
 30
0.0
 11
45.492412958751167
 21
95.316858929371278
 31
0.0
  0
LINE
  5
112C
  8
3
 10
45.892780216443953
 20
94.989285718531733
 30
0.0
 11
46.220353427283612
 21
95.316858929371278
 31
0.0
  0
LINE
  5
112D
  8
3
 10
47.325746292084538
 20
95.316858929371278
 30
0.0
 11
47.653319502924077
 21
94.989285718531733
 31
0.0
  0
LINE
  5
112E
  8
3
 10
46.220353427283612
 20
95.316858929371278
 30
0.0
 11
47.325746292084538
 21
95.316858929371278
 31
0.0
  0
LINE
  5
112F
  8
3
 10
47.726113549777317
 20
94.989285718531733
 30
0.0
 11
48.05368676061687
 21
95.316858929371278
 31
0.0
  0
LINE
  5
1130
  8
3
 10
49.159079625417803
 20
95.316858929371278
 30
0.0
 11
49.486652836257349
 21
94.989285718531733
 31
0.0
  0
LINE
  5
1131
  8
3
 10
48.05368676061687
 20
95.316858929371278
 30
0.0
 11
49.159079625417803
 21
95.316858929371278
 31
0.0
  0
LINE
  5
1132
  8
3
 10
49.559446883110581
 20
94.989285718531733
 30
0.0
 11
49.887020093950241
 21
95.316858929371278
 31
0.0
  0
LINE
  5
1133
  8
3
 10
50.992412958751167
 20
95.316858929371278
 30
0.0
 11
51.31998616959072
 21
94.989285718531733
 31
0.0
  0
LINE
  5
1134
  8
3
 10
49.887020093950241
 20
95.316858929371278
 30
0.0
 11
50.992412958751167
 21
95.316858929371278
 31
0.0
  0
LINE
  5
1135
  8
3
 10
51.392780216443953
 20
94.989285718531733
 30
0.0
 11
51.720353427283612
 21
95.316858929371278
 31
0.0
  0
LINE
  5
1136
  8
3
 10
52.825746292084538
 20
95.316858929371278
 30
0.0
 11
53.153319502924091
 21
94.989285718531733
 31
0.0
  0
LINE
  5
1137
  8
3
 10
51.720353427283612
 20
95.316858929371278
 30
0.0
 11
52.825746292084538
 21
95.316858929371278
 31
0.0
  0
LINE
  5
1138
  8
3
 10
53.226113549777317
 20
94.989285718531733
 30
0.0
 11
53.553686760616863
 21
95.316858929371278
 31
0.0
  0
LINE
  5
1139
  8
3
 10
54.65907962541781
 20
95.316858929371278
 30
0.0
 11
54.884388566963374
 21
95.091549987825715
 31
0.0
  0
LINE
  5
113A
  8
3
 10
53.553686760616863
 20
95.316858929371278
 30
0.0
 11
54.65907962541781
 21
95.316858929371278
 31
0.0
  0
LINE
  5
113B
  8
3
 10
34.492412958751167
 20
95.316858929371278
 30
0.0
 11
34.81998616959072
 21
94.989285718531733
 31
0.0
  0
LINE
  5
113C
  8
3
 10
33.387020093950241
 20
95.316858929371278
 30
0.0
 11
34.492412958751167
 21
95.316858929371278
 31
0.0
  0
LINE
  5
113D
  8
3
 10
33.161711152404557
 20
95.091549987825715
 30
0.0
 11
33.387020093950241
 21
95.316858929371278
 31
0.0
  0
POLYLINE
  5
113E
  8
3
 66
     1
 10
0.0
 20
0.0
 30
0.0
  0
VERTEX
  5
185E
  8
3
 10
33.178598641562303
 20
94.989285718531733
 30
0.0
  0
VERTEX
  5
185F
  8
3
 10
33.175717154525621
 20
95.006318642950419
 30
0.0
  0
VERTEX
  5
1860
  8
3
 10
33.17003444614091
 20
95.040397962435733
 30
0.0
  0
VERTEX
  5
1861
  8
3
 10
33.164458805281697
 20
95.074494962599715
 30
0.0
  0
VERTEX
  5
1862
  8
3
 10
33.161711152404557
 20
95.091549987825715
 30
0.0
  0
SEQEND
  5
1863
  8
3
  0
LINE
  5
113F
  8
3
 10
34.892780216443953
 20
94.989285718531733
 30
0.0
 11
35.220353427283612
 21
95.316858929371278
 31
0.0
  0
LINE
  5
1140
  8
3
 10
36.653319502924091
 20
94.989285718531733
 30
0.0
 11
34.892780216443953
 21
94.989285718531733
 31
0.0
  0
LINE
  5
1141
  8
3
 10
36.325746292084553
 20
95.316858929371278
 30
0.0
 11
36.653319502924091
 21
94.989285718531733
 31
0.0
  0
LINE
  5
1142
  8
3
 10
35.220353427283612
 20
95.316858929371278
 30
0.0
 11
36.325746292084553
 21
95.316858929371278
 31
0.0
  0
LINE
  5
1143
  8
3
 10
34.892780216443953
 20
96.822619051865104
 30
0.0
 11
35.220353427283612
 21
97.15019226270465
 31
0.0
  0
LINE
  5
1144
  8
3
 10
36.653319502924091
 20
96.822619051865104
 30
0.0
 11
34.892780216443953
 21
96.822619051865104
 31
0.0
  0
LINE
  5
1145
  8
3
 10
36.325746292084553
 20
97.15019226270465
 30
0.0
 11
36.653319502924091
 21
96.822619051865104
 31
0.0
  0
LINE
  5
1146
  8
3
 10
35.220353427283612
 20
97.15019226270465
 30
0.0
 11
36.325746292084553
 21
97.15019226270465
 31
0.0
  0
LINE
  5
1147
  8
3
 10
36.726113549777317
 20
96.822619051865104
 30
0.0
 11
37.05368676061687
 21
97.15019226270465
 31
0.0
  0
LINE
  5
1148
  8
3
 10
38.486652836257349
 20
96.822619051865104
 30
0.0
 11
36.726113549777317
 21
96.822619051865104
 31
0.0
  0
LINE
  5
1149
  8
3
 10
38.15907962541781
 20
97.15019226270465
 30
0.0
 11
38.486652836257349
 21
96.822619051865104
 31
0.0
  0
LINE
  5
114A
  8
3
 10
37.05368676061687
 20
97.15019226270465
 30
0.0
 11
38.15907962541781
 21
97.15019226270465
 31
0.0
  0
LINE
  5
114B
  8
3
 10
38.559446883110581
 20
96.822619051865104
 30
0.0
 11
38.887020093950241
 21
97.15019226270465
 31
0.0
  0
LINE
  5
114C
  8
3
 10
40.31998616959072
 20
96.822619051865104
 30
0.0
 11
38.559446883110581
 21
96.822619051865104
 31
0.0
  0
LINE
  5
114D
  8
3
 10
39.992412958751181
 20
97.15019226270465
 30
0.0
 11
40.31998616959072
 21
96.822619051865104
 31
0.0
  0
LINE
  5
114E
  8
3
 10
38.887020093950241
 20
97.15019226270465
 30
0.0
 11
39.992412958751181
 21
97.15019226270465
 31
0.0
  0
LINE
  5
114F
  8
3
 10
40.392780216443953
 20
96.822619051865104
 30
0.0
 11
40.720353427283612
 21
97.15019226270465
 31
0.0
  0
LINE
  5
1150
  8
3
 10
42.153319502924091
 20
96.822619051865104
 30
0.0
 11
40.392780216443953
 21
96.822619051865104
 31
0.0
  0
LINE
  5
1151
  8
3
 10
41.825746292084538
 20
97.15019226270465
 30
0.0
 11
42.153319502924091
 21
96.822619051865104
 31
0.0
  0
LINE
  5
1152
  8
3
 10
40.720353427283612
 20
97.15019226270465
 30
0.0
 11
41.825746292084538
 21
97.15019226270465
 31
0.0
  0
LINE
  5
1153
  8
3
 10
42.226113549777317
 20
96.822619051865104
 30
0.0
 11
42.55368676061687
 21
97.15019226270465
 31
0.0
  0
LINE
  5
1154
  8
3
 10
43.986652836257342
 20
96.822619051865104
 30
0.0
 11
42.226113549777317
 21
96.822619051865104
 31
0.0
  0
LINE
  5
1155
  8
3
 10
43.659079625417803
 20
97.15019226270465
 30
0.0
 11
43.986652836257342
 21
96.822619051865104
 31
0.0
  0
LINE
  5
1156
  8
3
 10
42.55368676061687
 20
97.15019226270465
 30
0.0
 11
43.659079625417803
 21
97.15019226270465
 31
0.0
  0
LINE
  5
1157
  8
3
 10
44.059446883110581
 20
96.822619051865104
 30
0.0
 11
44.387020093950241
 21
97.15019226270465
 31
0.0
  0
LINE
  5
1158
  8
3
 10
45.819986169590713
 20
96.822619051865104
 30
0.0
 11
44.059446883110581
 21
96.822619051865104
 31
0.0
  0
LINE
  5
1159
  8
3
 10
45.492412958751167
 20
97.15019226270465
 30
0.0
 11
45.819986169590713
 21
96.822619051865104
 31
0.0
  0
LINE
  5
115A
  8
3
 10
44.387020093950241
 20
97.15019226270465
 30
0.0
 11
45.492412958751167
 21
97.15019226270465
 31
0.0
  0
LINE
  5
115B
  8
3
 10
45.892780216443953
 20
96.822619051865104
 30
0.0
 11
46.220353427283612
 21
97.15019226270465
 31
0.0
  0
LINE
  5
115C
  8
3
 10
47.653319502924077
 20
96.822619051865104
 30
0.0
 11
45.892780216443953
 21
96.822619051865104
 31
0.0
  0
LINE
  5
115D
  8
3
 10
47.325746292084538
 20
97.15019226270465
 30
0.0
 11
47.653319502924077
 21
96.822619051865104
 31
0.0
  0
LINE
  5
115E
  8
3
 10
46.220353427283612
 20
97.15019226270465
 30
0.0
 11
47.325746292084538
 21
97.15019226270465
 31
0.0
  0
LINE
  5
115F
  8
3
 10
47.726113549777317
 20
96.822619051865104
 30
0.0
 11
48.05368676061687
 21
97.15019226270465
 31
0.0
  0
LINE
  5
1160
  8
3
 10
49.486652836257349
 20
96.822619051865104
 30
0.0
 11
47.726113549777317
 21
96.822619051865104
 31
0.0
  0
LINE
  5
1161
  8
3
 10
49.159079625417803
 20
97.15019226270465
 30
0.0
 11
49.486652836257349
 21
96.822619051865104
 31
0.0
  0
LINE
  5
1162
  8
3
 10
48.05368676061687
 20
97.15019226270465
 30
0.0
 11
49.159079625417803
 21
97.15019226270465
 31
0.0
  0
LINE
  5
1163
  8
3
 10
49.559446883110581
 20
96.822619051865104
 30
0.0
 11
49.887020093950241
 21
97.15019226270465
 31
0.0
  0
LINE
  5
1164
  8
3
 10
51.31998616959072
 20
96.822619051865104
 30
0.0
 11
49.559446883110581
 21
96.822619051865104
 31
0.0
  0
LINE
  5
1165
  8
3
 10
50.992412958751167
 20
97.15019226270465
 30
0.0
 11
51.31998616959072
 21
96.822619051865104
 31
0.0
  0
LINE
  5
1166
  8
3
 10
49.887020093950241
 20
97.15019226270465
 30
0.0
 11
50.992412958751167
 21
97.15019226270465
 31
0.0
  0
LINE
  5
1167
  8
3
 10
51.392780216443953
 20
96.822619051865104
 30
0.0
 11
51.720353427283612
 21
97.15019226270465
 31
0.0
  0
LINE
  5
1168
  8
3
 10
53.153319502924091
 20
96.822619051865104
 30
0.0
 11
51.392780216443953
 21
96.822619051865104
 31
0.0
  0
LINE
  5
1169
  8
3
 10
52.825746292084538
 20
97.15019226270465
 30
0.0
 11
53.153319502924091
 21
96.822619051865104
 31
0.0
  0
LINE
  5
116A
  8
3
 10
51.720353427283612
 20
97.15019226270465
 30
0.0
 11
52.825746292084538
 21
97.15019226270465
 31
0.0
  0
LINE
  5
116B
  8
3
 10
53.226113549777317
 20
96.822619051865104
 30
0.0
 11
53.553686760616863
 21
97.15019226270465
 31
0.0
  0
LINE
  5
116C
  8
3
 10
54.986652836257349
 20
96.822619051865104
 30
0.0
 11
53.226113549777317
 21
96.822619051865104
 31
0.0
  0
LINE
  5
116D
  8
3
 10
54.65907962541781
 20
97.15019226270465
 30
0.0
 11
54.986652836257349
 21
96.822619051865104
 31
0.0
  0
LINE
  5
116E
  8
3
 10
53.553686760616863
 20
97.15019226270465
 30
0.0
 11
54.65907962541781
 21
97.15019226270465
 31
0.0
  0
LINE
  5
116F
  8
3
 10
33.059446883110581
 20
96.822619051865104
 30
0.0
 11
33.387020093950241
 21
97.15019226270465
 31
0.0
  0
LINE
  5
1170
  8
3
 10
34.81998616959072
 20
96.822619051865104
 30
0.0
 11
33.059446883110581
 21
96.822619051865104
 31
0.0
  0
LINE
  5
1171
  8
3
 10
34.492412958751167
 20
97.15019226270465
 30
0.0
 11
34.81998616959072
 21
96.822619051865104
 31
0.0
  0
LINE
  5
1172
  8
3
 10
33.387020093950241
 20
97.15019226270465
 30
0.0
 11
34.492412958751167
 21
97.15019226270465
 31
0.0
  0
LINE
  5
1173
  8
3
 10
53.553686760616863
 20
96.495045841025444
 30
0.0
 11
53.226113549777317
 21
96.822619051865104
 31
0.0
  0
LINE
  5
1174
  8
3
 10
54.65907962541781
 20
96.495045841025444
 30
0.0
 11
53.553686760616863
 21
96.495045841025444
 31
0.0
  0
LINE
  5
1175
  8
3
 10
54.986652836257349
 20
96.822619051865104
 30
0.0
 11
54.65907962541781
 21
96.495045841025444
 31
0.0
  0
LINE
  5
1176
  8
3
 10
51.720353427283612
 20
96.495045841025444
 30
0.0
 11
51.392780216443953
 21
96.822619051865104
 31
0.0
  0
LINE
  5
1177
  8
3
 10
52.825746292084538
 20
96.495045841025444
 30
0.0
 11
51.720353427283612
 21
96.495045841025444
 31
0.0
  0
LINE
  5
1178
  8
3
 10
53.153319502924091
 20
96.822619051865104
 30
0.0
 11
52.825746292084538
 21
96.495045841025444
 31
0.0
  0
LINE
  5
1179
  8
3
 10
49.887020093950241
 20
96.495045841025444
 30
0.0
 11
49.559446883110581
 21
96.822619051865104
 31
0.0
  0
LINE
  5
117A
  8
3
 10
50.992412958751167
 20
96.495045841025444
 30
0.0
 11
49.887020093950241
 21
96.495045841025444
 31
0.0
  0
LINE
  5
117B
  8
3
 10
51.31998616959072
 20
96.822619051865104
 30
0.0
 11
50.992412958751167
 21
96.495045841025444
 31
0.0
  0
LINE
  5
117C
  8
3
 10
48.05368676061687
 20
96.495045841025444
 30
0.0
 11
47.726113549777317
 21
96.822619051865104
 31
0.0
  0
LINE
  5
117D
  8
3
 10
49.159079625417803
 20
96.495045841025444
 30
0.0
 11
48.05368676061687
 21
96.495045841025444
 31
0.0
  0
LINE
  5
117E
  8
3
 10
49.486652836257349
 20
96.822619051865104
 30
0.0
 11
49.159079625417803
 21
96.495045841025444
 31
0.0
  0
LINE
  5
117F
  8
3
 10
46.220353427283612
 20
96.495045841025444
 30
0.0
 11
45.892780216443953
 21
96.822619051865104
 31
0.0
  0
LINE
  5
1180
  8
3
 10
47.325746292084538
 20
96.495045841025444
 30
0.0
 11
46.220353427283612
 21
96.495045841025444
 31
0.0
  0
LINE
  5
1181
  8
3
 10
47.653319502924077
 20
96.822619051865104
 30
0.0
 11
47.325746292084538
 21
96.495045841025444
 31
0.0
  0
LINE
  5
1182
  8
3
 10
44.387020093950241
 20
96.495045841025444
 30
0.0
 11
44.059446883110581
 21
96.822619051865104
 31
0.0
  0
LINE
  5
1183
  8
3
 10
45.492412958751167
 20
96.495045841025444
 30
0.0
 11
44.387020093950241
 21
96.495045841025444
 31
0.0
  0
LINE
  5
1184
  8
3
 10
45.819986169590713
 20
96.822619051865104
 30
0.0
 11
45.492412958751167
 21
96.495045841025444
 31
0.0
  0
LINE
  5
1185
  8
3
 10
42.55368676061687
 20
96.495045841025444
 30
0.0
 11
42.226113549777317
 21
96.822619051865104
 31
0.0
  0
LINE
  5
1186
  8
3
 10
43.659079625417803
 20
96.495045841025444
 30
0.0
 11
42.55368676061687
 21
96.495045841025444
 31
0.0
  0
LINE
  5
1187
  8
3
 10
43.986652836257342
 20
96.822619051865104
 30
0.0
 11
43.659079625417803
 21
96.495045841025444
 31
0.0
  0
LINE
  5
1188
  8
3
 10
40.720353427283612
 20
96.495045841025444
 30
0.0
 11
40.392780216443953
 21
96.822619051865104
 31
0.0
  0
LINE
  5
1189
  8
3
 10
41.825746292084538
 20
96.495045841025444
 30
0.0
 11
40.720353427283612
 21
96.495045841025444
 31
0.0
  0
LINE
  5
118A
  8
3
 10
42.153319502924091
 20
96.822619051865104
 30
0.0
 11
41.825746292084538
 21
96.495045841025444
 31
0.0
  0
LINE
  5
118B
  8
3
 10
38.887020093950241
 20
96.495045841025444
 30
0.0
 11
38.559446883110581
 21
96.822619051865104
 31
0.0
  0
LINE
  5
118C
  8
3
 10
39.992412958751181
 20
96.495045841025444
 30
0.0
 11
38.887020093950241
 21
96.495045841025444
 31
0.0
  0
LINE
  5
118D
  8
3
 10
40.31998616959072
 20
96.822619051865104
 30
0.0
 11
39.992412958751181
 21
96.495045841025444
 31
0.0
  0
LINE
  5
118E
  8
3
 10
37.05368676061687
 20
96.495045841025444
 30
0.0
 11
36.726113549777317
 21
96.822619051865104
 31
0.0
  0
LINE
  5
118F
  8
3
 10
38.15907962541781
 20
96.495045841025444
 30
0.0
 11
37.05368676061687
 21
96.495045841025444
 31
0.0
  0
LINE
  5
1190
  8
3
 10
38.486652836257349
 20
96.822619051865104
 30
0.0
 11
38.15907962541781
 21
96.495045841025444
 31
0.0
  0
LINE
  5
1191
  8
3
 10
35.220353427283612
 20
96.495045841025444
 30
0.0
 11
34.892780216443953
 21
96.822619051865104
 31
0.0
  0
LINE
  5
1192
  8
3
 10
36.325746292084553
 20
96.495045841025444
 30
0.0
 11
35.220353427283612
 21
96.495045841025444
 31
0.0
  0
LINE
  5
1193
  8
3
 10
36.653319502924091
 20
96.822619051865104
 30
0.0
 11
36.325746292084553
 21
96.495045841025444
 31
0.0
  0
LINE
  5
1194
  8
3
 10
34.81998616959072
 20
98.655952385198376
 30
0.0
 11
34.492412958751167
 21
98.328379174358815
 31
0.0
  0
LINE
  5
1195
  8
3
 10
34.81998616959072
 20
98.655952385198376
 30
0.0
 11
33.17521802306544
 21
98.655952385198376
 31
0.0
  0
LINE
  5
1196
  8
3
 10
33.387020093950241
 20
98.328379174358815
 30
0.0
 11
33.158960183426423
 21
98.556439084882641
 31
0.0
  0
LINE
  5
1197
  8
3
 10
34.492412958751167
 20
98.328379174358815
 30
0.0
 11
33.387020093950241
 21
98.328379174358815
 31
0.0
  0
LINE
  5
1198
  8
3
 10
53.553686760616863
 20
98.328379174358815
 30
0.0
 11
53.226113549777317
 21
98.655952385198376
 31
0.0
  0
LINE
  5
1199
  8
3
 10
54.65907962541781
 20
98.328379174358815
 30
0.0
 11
53.553686760616863
 21
98.328379174358815
 31
0.0
  0
LINE
  5
119A
  8
3
 10
54.887139535941628
 20
98.556439084882641
 30
0.0
 11
54.65907962541781
 21
98.328379174358815
 31
0.0
  0
LINE
  5
119B
  8
3
 10
54.870881696302597
 20
98.655952385198376
 30
0.0
 11
53.226113549777317
 21
98.655952385198376
 31
0.0
  0
LINE
  5
119C
  8
3
 10
51.720353427283612
 20
98.328379174358815
 30
0.0
 11
51.392780216443953
 21
98.655952385198376
 31
0.0
  0
LINE
  5
119D
  8
3
 10
52.825746292084538
 20
98.328379174358815
 30
0.0
 11
51.720353427283612
 21
98.328379174358815
 31
0.0
  0
LINE
  5
119E
  8
3
 10
53.153319502924091
 20
98.655952385198376
 30
0.0
 11
52.825746292084538
 21
98.328379174358815
 31
0.0
  0
LINE
  5
119F
  8
3
 10
53.153319502924091
 20
98.655952385198376
 30
0.0
 11
51.392780216443953
 21
98.655952385198376
 31
0.0
  0
LINE
  5
11A0
  8
3
 10
49.887020093950241
 20
98.328379174358815
 30
0.0
 11
49.559446883110581
 21
98.655952385198376
 31
0.0
  0
LINE
  5
11A1
  8
3
 10
50.992412958751167
 20
98.328379174358815
 30
0.0
 11
49.887020093950241
 21
98.328379174358815
 31
0.0
  0
LINE
  5
11A2
  8
3
 10
51.31998616959072
 20
98.655952385198376
 30
0.0
 11
50.992412958751167
 21
98.328379174358815
 31
0.0
  0
LINE
  5
11A3
  8
3
 10
51.31998616959072
 20
98.655952385198376
 30
0.0
 11
49.559446883110581
 21
98.655952385198376
 31
0.0
  0
LINE
  5
11A4
  8
3
 10
48.05368676061687
 20
98.328379174358815
 30
0.0
 11
47.726113549777317
 21
98.655952385198376
 31
0.0
  0
LINE
  5
11A5
  8
3
 10
49.159079625417803
 20
98.328379174358815
 30
0.0
 11
48.05368676061687
 21
98.328379174358815
 31
0.0
  0
LINE
  5
11A6
  8
3
 10
49.486652836257349
 20
98.655952385198376
 30
0.0
 11
49.159079625417803
 21
98.328379174358815
 31
0.0
  0
LINE
  5
11A7
  8
3
 10
49.486652836257349
 20
98.655952385198376
 30
0.0
 11
47.726113549777317
 21
98.655952385198376
 31
0.0
  0
LINE
  5
11A8
  8
3
 10
46.220353427283612
 20
98.328379174358815
 30
0.0
 11
45.892780216443953
 21
98.655952385198376
 31
0.0
  0
LINE
  5
11A9
  8
3
 10
47.325746292084538
 20
98.328379174358815
 30
0.0
 11
46.220353427283612
 21
98.328379174358815
 31
0.0
  0
LINE
  5
11AA
  8
3
 10
47.653319502924077
 20
98.655952385198376
 30
0.0
 11
47.325746292084538
 21
98.328379174358815
 31
0.0
  0
LINE
  5
11AB
  8
3
 10
47.653319502924077
 20
98.655952385198376
 30
0.0
 11
45.892780216443953
 21
98.655952385198376
 31
0.0
  0
LINE
  5
11AC
  8
3
 10
44.387020093950241
 20
98.328379174358815
 30
0.0
 11
44.059446883110581
 21
98.655952385198376
 31
0.0
  0
LINE
  5
11AD
  8
3
 10
45.492412958751167
 20
98.328379174358815
 30
0.0
 11
44.387020093950241
 21
98.328379174358815
 31
0.0
  0
LINE
  5
11AE
  8
3
 10
45.819986169590713
 20
98.655952385198376
 30
0.0
 11
45.492412958751167
 21
98.328379174358815
 31
0.0
  0
LINE
  5
11AF
  8
3
 10
45.819986169590713
 20
98.655952385198376
 30
0.0
 11
44.059446883110581
 21
98.655952385198376
 31
0.0
  0
LINE
  5
11B0
  8
3
 10
42.55368676061687
 20
98.328379174358815
 30
0.0
 11
42.226113549777317
 21
98.655952385198376
 31
0.0
  0
LINE
  5
11B1
  8
3
 10
43.659079625417803
 20
98.328379174358815
 30
0.0
 11
42.55368676061687
 21
98.328379174358815
 31
0.0
  0
LINE
  5
11B2
  8
3
 10
43.986652836257342
 20
98.655952385198376
 30
0.0
 11
43.659079625417803
 21
98.328379174358815
 31
0.0
  0
LINE
  5
11B3
  8
3
 10
43.986652836257342
 20
98.655952385198376
 30
0.0
 11
42.226113549777317
 21
98.655952385198376
 31
0.0
  0
LINE
  5
11B4
  8
3
 10
40.720353427283612
 20
98.328379174358815
 30
0.0
 11
40.392780216443953
 21
98.655952385198376
 31
0.0
  0
LINE
  5
11B5
  8
3
 10
41.825746292084538
 20
98.328379174358815
 30
0.0
 11
40.720353427283612
 21
98.328379174358815
 31
0.0
  0
LINE
  5
11B6
  8
3
 10
42.153319502924091
 20
98.655952385198376
 30
0.0
 11
41.825746292084538
 21
98.328379174358815
 31
0.0
  0
LINE
  5
11B7
  8
3
 10
42.153319502924091
 20
98.655952385198376
 30
0.0
 11
40.392780216443953
 21
98.655952385198376
 31
0.0
  0
LINE
  5
11B8
  8
3
 10
38.887020093950241
 20
98.328379174358815
 30
0.0
 11
38.559446883110581
 21
98.655952385198376
 31
0.0
  0
LINE
  5
11B9
  8
3
 10
39.992412958751181
 20
98.328379174358815
 30
0.0
 11
38.887020093950241
 21
98.328379174358815
 31
0.0
  0
LINE
  5
11BA
  8
3
 10
40.31998616959072
 20
98.655952385198376
 30
0.0
 11
39.992412958751181
 21
98.328379174358815
 31
0.0
  0
LINE
  5
11BB
  8
3
 10
40.31998616959072
 20
98.655952385198376
 30
0.0
 11
38.559446883110581
 21
98.655952385198376
 31
0.0
  0
LINE
  5
11BC
  8
3
 10
37.05368676061687
 20
98.328379174358815
 30
0.0
 11
36.726113549777317
 21
98.655952385198376
 31
0.0
  0
LINE
  5
11BD
  8
3
 10
38.15907962541781
 20
98.328379174358815
 30
0.0
 11
37.05368676061687
 21
98.328379174358815
 31
0.0
  0
LINE
  5
11BE
  8
3
 10
38.486652836257349
 20
98.655952385198376
 30
0.0
 11
38.15907962541781
 21
98.328379174358815
 31
0.0
  0
LINE
  5
11BF
  8
3
 10
38.486652836257349
 20
98.655952385198376
 30
0.0
 11
36.726113549777317
 21
98.655952385198376
 31
0.0
  0
LINE
  5
11C0
  8
3
 10
36.726113549777317
 20
98.655952385198376
 30
0.0
 11
37.05368676061687
 21
98.983525596038021
 31
0.0
  0
LINE
  5
11C1
  8
3
 10
38.15907962541781
 20
98.983525596038021
 30
0.0
 11
38.486652836257349
 21
98.655952385198376
 31
0.0
  0
LINE
  5
11C2
  8
3
 10
37.05368676061687
 20
98.983525596038021
 30
0.0
 11
38.15907962541781
 21
98.983525596038021
 31
0.0
  0
LINE
  5
11C3
  8
3
 10
38.559446883110581
 20
98.655952385198376
 30
0.0
 11
38.887020093950241
 21
98.983525596038021
 31
0.0
  0
LINE
  5
11C4
  8
3
 10
39.992412958751181
 20
98.983525596038021
 30
0.0
 11
40.31998616959072
 21
98.655952385198376
 31
0.0
  0
LINE
  5
11C5
  8
3
 10
38.887020093950241
 20
98.983525596038021
 30
0.0
 11
39.992412958751181
 21
98.983525596038021
 31
0.0
  0
LINE
  5
11C6
  8
3
 10
40.392780216443953
 20
98.655952385198376
 30
0.0
 11
40.720353427283612
 21
98.983525596038021
 31
0.0
  0
LINE
  5
11C7
  8
3
 10
41.825746292084538
 20
98.983525596038021
 30
0.0
 11
42.153319502924091
 21
98.655952385198376
 31
0.0
  0
LINE
  5
11C8
  8
3
 10
40.720353427283612
 20
98.983525596038021
 30
0.0
 11
41.825746292084538
 21
98.983525596038021
 31
0.0
  0
LINE
  5
11C9
  8
3
 10
42.226113549777317
 20
98.655952385198376
 30
0.0
 11
42.55368676061687
 21
98.983525596038021
 31
0.0
  0
LINE
  5
11CA
  8
3
 10
43.659079625417803
 20
98.983525596038021
 30
0.0
 11
43.986652836257342
 21
98.655952385198376
 31
0.0
  0
LINE
  5
11CB
  8
3
 10
42.55368676061687
 20
98.983525596038021
 30
0.0
 11
43.659079625417803
 21
98.983525596038021
 31
0.0
  0
LINE
  5
11CC
  8
3
 10
44.059446883110581
 20
98.655952385198376
 30
0.0
 11
44.387020093950241
 21
98.983525596038021
 31
0.0
  0
LINE
  5
11CD
  8
3
 10
45.492412958751167
 20
98.983525596038021
 30
0.0
 11
45.819986169590713
 21
98.655952385198376
 31
0.0
  0
LINE
  5
11CE
  8
3
 10
44.387020093950241
 20
98.983525596038021
 30
0.0
 11
45.492412958751167
 21
98.983525596038021
 31
0.0
  0
LINE
  5
11CF
  8
3
 10
45.892780216443953
 20
98.655952385198376
 30
0.0
 11
46.220353427283612
 21
98.983525596038021
 31
0.0
  0
LINE
  5
11D0
  8
3
 10
47.325746292084538
 20
98.983525596038021
 30
0.0
 11
47.653319502924077
 21
98.655952385198376
 31
0.0
  0
LINE
  5
11D1
  8
3
 10
46.220353427283612
 20
98.983525596038021
 30
0.0
 11
47.325746292084538
 21
98.983525596038021
 31
0.0
  0
LINE
  5
11D2
  8
3
 10
47.726113549777317
 20
98.655952385198376
 30
0.0
 11
48.05368676061687
 21
98.983525596038021
 31
0.0
  0
LINE
  5
11D3
  8
3
 10
49.159079625417803
 20
98.983525596038021
 30
0.0
 11
49.486652836257349
 21
98.655952385198376
 31
0.0
  0
LINE
  5
11D4
  8
3
 10
48.05368676061687
 20
98.983525596038021
 30
0.0
 11
49.159079625417803
 21
98.983525596038021
 31
0.0
  0
LINE
  5
11D5
  8
3
 10
49.559446883110581
 20
98.655952385198376
 30
0.0
 11
49.887020093950241
 21
98.983525596038021
 31
0.0
  0
LINE
  5
11D6
  8
3
 10
50.992412958751167
 20
98.983525596038021
 30
0.0
 11
51.31998616959072
 21
98.655952385198376
 31
0.0
  0
LINE
  5
11D7
  8
3
 10
49.887020093950241
 20
98.983525596038021
 30
0.0
 11
50.992412958751167
 21
98.983525596038021
 31
0.0
  0
LINE
  5
11D8
  8
3
 10
51.392780216443953
 20
98.655952385198376
 30
0.0
 11
51.720353427283612
 21
98.983525596038021
 31
0.0
  0
LINE
  5
11D9
  8
3
 10
52.825746292084538
 20
98.983525596038021
 30
0.0
 11
53.153319502924091
 21
98.655952385198376
 31
0.0
  0
LINE
  5
11DA
  8
3
 10
51.720353427283612
 20
98.983525596038021
 30
0.0
 11
52.825746292084538
 21
98.983525596038021
 31
0.0
  0
LINE
  5
11DB
  8
3
 10
53.226113549777317
 20
98.655952385198376
 30
0.0
 11
53.553686760616863
 21
98.983525596038021
 31
0.0
  0
LINE
  5
11DC
  8
3
 10
54.65907962541781
 20
98.983525596038021
 30
0.0
 11
54.846367329410668
 21
98.796237892045156
 31
0.0
  0
LINE
  5
11DD
  8
3
 10
53.553686760616863
 20
98.983525596038021
 30
0.0
 11
54.65907962541781
 21
98.983525596038021
 31
0.0
  0
LINE
  5
11DE
  8
3
 10
34.492412958751167
 20
98.983525596038021
 30
0.0
 11
34.81998616959072
 21
98.655952385198376
 31
0.0
  0
LINE
  5
11DF
  8
3
 10
33.387020093950241
 20
98.983525596038021
 30
0.0
 11
34.492412958751167
 21
98.983525596038021
 31
0.0
  0
LINE
  5
11E0
  8
3
 10
33.199732389957383
 20
98.796237892045156
 30
0.0
 11
33.387020093950241
 21
98.983525596038021
 31
0.0
  0
LINE
  5
11E1
  8
3
 10
34.892780216443953
 20
98.655952385198376
 30
0.0
 11
35.220353427283612
 21
98.983525596038021
 31
0.0
  0
LINE
  5
11E2
  8
3
 10
36.653319502924091
 20
98.655952385198376
 30
0.0
 11
34.892780216443953
 21
98.655952385198376
 31
0.0
  0
LINE
  5
11E3
  8
3
 10
36.325746292084553
 20
98.983525596038021
 30
0.0
 11
36.653319502924091
 21
98.655952385198376
 31
0.0
  0
LINE
  5
11E4
  8
3
 10
35.220353427283612
 20
98.983525596038021
 30
0.0
 11
36.325746292084553
 21
98.983525596038021
 31
0.0
  0
LINE
  5
11E5
  8
3
 10
51.392780216443953
 20
100.4892857185317
 30
0.0
 11
51.720353427283612
 21
100.81685892937131
 31
0.0
  0
LINE
  5
11E6
  8
3
 10
53.153319502924091
 20
100.4892857185317
 30
0.0
 11
51.392780216443953
 21
100.4892857185317
 31
0.0
  0
LINE
  5
11E7
  8
3
 10
52.825746292084538
 20
100.81685892937131
 30
0.0
 11
53.153319502924091
 21
100.4892857185317
 31
0.0
  0
LINE
  5
11E8
  8
3
 10
51.720353427283612
 20
100.81685892937131
 30
0.0
 11
52.825746292084538
 21
100.81685892937131
 31
0.0
  0
LINE
  5
11E9
  8
3
 10
49.559446883110581
 20
100.4892857185317
 30
0.0
 11
49.887020093950241
 21
100.81685892937131
 31
0.0
  0
LINE
  5
11EA
  8
3
 10
51.31998616959072
 20
100.4892857185317
 30
0.0
 11
49.559446883110581
 21
100.4892857185317
 31
0.0
  0
LINE
  5
11EB
  8
3
 10
50.992412958751167
 20
100.81685892937131
 30
0.0
 11
51.31998616959072
 21
100.4892857185317
 31
0.0
  0
LINE
  5
11EC
  8
3
 10
49.887020093950241
 20
100.81685892937131
 30
0.0
 11
50.992412958751167
 21
100.81685892937131
 31
0.0
  0
LINE
  5
11ED
  8
3
 10
47.726113549777317
 20
100.4892857185317
 30
0.0
 11
48.05368676061687
 21
100.81685892937131
 31
0.0
  0
LINE
  5
11EE
  8
3
 10
49.486652836257349
 20
100.4892857185317
 30
0.0
 11
47.726113549777317
 21
100.4892857185317
 31
0.0
  0
LINE
  5
11EF
  8
3
 10
49.159079625417803
 20
100.81685892937131
 30
0.0
 11
49.486652836257349
 21
100.4892857185317
 31
0.0
  0
LINE
  5
11F0
  8
3
 10
48.05368676061687
 20
100.81685892937131
 30
0.0
 11
49.159079625417803
 21
100.81685892937131
 31
0.0
  0
LINE
  5
11F1
  8
3
 10
45.892780216443953
 20
100.4892857185317
 30
0.0
 11
46.220353427283612
 21
100.81685892937131
 31
0.0
  0
LINE
  5
11F2
  8
3
 10
47.653319502924077
 20
100.4892857185317
 30
0.0
 11
45.892780216443953
 21
100.4892857185317
 31
0.0
  0
LINE
  5
11F3
  8
3
 10
47.325746292084538
 20
100.81685892937131
 30
0.0
 11
47.653319502924077
 21
100.4892857185317
 31
0.0
  0
LINE
  5
11F4
  8
3
 10
46.220353427283612
 20
100.81685892937131
 30
0.0
 11
47.325746292084538
 21
100.81685892937131
 31
0.0
  0
LINE
  5
11F5
  8
3
 10
44.059446883110581
 20
100.4892857185317
 30
0.0
 11
44.387020093950241
 21
100.81685892937131
 31
0.0
  0
LINE
  5
11F6
  8
3
 10
45.819986169590713
 20
100.4892857185317
 30
0.0
 11
44.059446883110581
 21
100.4892857185317
 31
0.0
  0
LINE
  5
11F7
  8
3
 10
45.492412958751167
 20
100.81685892937131
 30
0.0
 11
45.819986169590713
 21
100.4892857185317
 31
0.0
  0
LINE
  5
11F8
  8
3
 10
44.387020093950241
 20
100.81685892937131
 30
0.0
 11
45.492412958751167
 21
100.81685892937131
 31
0.0
  0
LINE
  5
11F9
  8
3
 10
42.226113549777317
 20
100.4892857185317
 30
0.0
 11
42.55368676061687
 21
100.81685892937131
 31
0.0
  0
LINE
  5
11FA
  8
3
 10
43.986652836257342
 20
100.4892857185317
 30
0.0
 11
42.226113549777317
 21
100.4892857185317
 31
0.0
  0
LINE
  5
11FB
  8
3
 10
43.659079625417803
 20
100.81685892937131
 30
0.0
 11
43.986652836257342
 21
100.4892857185317
 31
0.0
  0
LINE
  5
11FC
  8
3
 10
42.55368676061687
 20
100.81685892937131
 30
0.0
 11
43.659079625417803
 21
100.81685892937131
 31
0.0
  0
LINE
  5
11FD
  8
3
 10
40.392780216443953
 20
100.4892857185317
 30
0.0
 11
40.720353427283612
 21
100.81685892937131
 31
0.0
  0
LINE
  5
11FE
  8
3
 10
42.153319502924091
 20
100.4892857185317
 30
0.0
 11
40.392780216443953
 21
100.4892857185317
 31
0.0
  0
LINE
  5
11FF
  8
3
 10
41.825746292084538
 20
100.81685892937131
 30
0.0
 11
42.153319502924091
 21
100.4892857185317
 31
0.0
  0
LINE
  5
1200
  8
3
 10
40.720353427283612
 20
100.81685892937131
 30
0.0
 11
41.825746292084538
 21
100.81685892937131
 31
0.0
  0
LINE
  5
1201
  8
3
 10
38.559446883110581
 20
100.4892857185317
 30
0.0
 11
38.887020093950241
 21
100.81685892937131
 31
0.0
  0
LINE
  5
1202
  8
3
 10
40.31998616959072
 20
100.4892857185317
 30
0.0
 11
38.559446883110581
 21
100.4892857185317
 31
0.0
  0
LINE
  5
1203
  8
3
 10
39.992412958751181
 20
100.81685892937131
 30
0.0
 11
40.31998616959072
 21
100.4892857185317
 31
0.0
  0
LINE
  5
1204
  8
3
 10
38.887020093950241
 20
100.81685892937131
 30
0.0
 11
39.992412958751181
 21
100.81685892937131
 31
0.0
  0
LINE
  5
1205
  8
3
 10
36.726113549777317
 20
100.4892857185317
 30
0.0
 11
37.05368676061687
 21
100.81685892937131
 31
0.0
  0
LINE
  5
1206
  8
3
 10
38.486652836257349
 20
100.4892857185317
 30
0.0
 11
36.726113549777317
 21
100.4892857185317
 31
0.0
  0
LINE
  5
1207
  8
3
 10
38.15907962541781
 20
100.81685892937131
 30
0.0
 11
38.486652836257349
 21
100.4892857185317
 31
0.0
  0
LINE
  5
1208
  8
3
 10
37.05368676061687
 20
100.81685892937131
 30
0.0
 11
38.15907962541781
 21
100.81685892937131
 31
0.0
  0
LINE
  5
1209
  8
3
 10
34.892780216443953
 20
100.4892857185317
 30
0.0
 11
35.220353427283612
 21
100.81685892937131
 31
0.0
  0
LINE
  5
120A
  8
3
 10
36.653319502924091
 20
100.4892857185317
 30
0.0
 11
34.892780216443953
 21
100.4892857185317
 31
0.0
  0
LINE
  5
120B
  8
3
 10
36.325746292084553
 20
100.81685892937131
 30
0.0
 11
36.653319502924091
 21
100.4892857185317
 31
0.0
  0
LINE
  5
120C
  8
3
 10
35.220353427283612
 20
100.81685892937131
 30
0.0
 11
36.325746292084553
 21
100.81685892937131
 31
0.0
  0
LINE
  5
120D
  8
3
 10
34.81998616959072
 20
100.4892857185317
 30
0.0
 11
33.648620290358849
 21
100.4892857185317
 31
0.0
  0
LINE
  5
120E
  8
3
 10
34.492412958751167
 20
100.81685892937131
 30
0.0
 11
34.81998616959072
 21
100.4892857185317
 31
0.0
  0
LINE
  5
120F
  8
3
 10
33.769960930074149
 20
100.81685892937131
 30
0.0
 11
34.492412958751167
 21
100.81685892937131
 31
0.0
  0
LINE
  5
1210
  8
3
 10
51.720353427283612
 20
100.1617125076922
 30
0.0
 11
51.392780216443953
 21
100.4892857185317
 31
0.0
  0
LINE
  5
1211
  8
3
 10
52.825746292084538
 20
100.1617125076922
 30
0.0
 11
51.720353427283612
 21
100.1617125076922
 31
0.0
  0
LINE
  5
1212
  8
3
 10
53.153319502924091
 20
100.4892857185317
 30
0.0
 11
52.825746292084538
 21
100.1617125076922
 31
0.0
  0
LINE
  5
1213
  8
3
 10
49.887020093950241
 20
100.1617125076922
 30
0.0
 11
49.559446883110581
 21
100.4892857185317
 31
0.0
  0
LINE
  5
1214
  8
3
 10
50.992412958751167
 20
100.1617125076922
 30
0.0
 11
49.887020093950241
 21
100.1617125076922
 31
0.0
  0
LINE
  5
1215
  8
3
 10
51.31998616959072
 20
100.4892857185317
 30
0.0
 11
50.992412958751167
 21
100.1617125076922
 31
0.0
  0
LINE
  5
1216
  8
3
 10
48.05368676061687
 20
100.1617125076922
 30
0.0
 11
47.726113549777317
 21
100.4892857185317
 31
0.0
  0
LINE
  5
1217
  8
3
 10
49.159079625417803
 20
100.1617125076922
 30
0.0
 11
48.05368676061687
 21
100.1617125076922
 31
0.0
  0
LINE
  5
1218
  8
3
 10
49.486652836257349
 20
100.4892857185317
 30
0.0
 11
49.159079625417803
 21
100.1617125076922
 31
0.0
  0
LINE
  5
1219
  8
3
 10
46.220353427283612
 20
100.1617125076922
 30
0.0
 11
45.892780216443953
 21
100.4892857185317
 31
0.0
  0
LINE
  5
121A
  8
3
 10
47.325746292084538
 20
100.1617125076922
 30
0.0
 11
46.220353427283612
 21
100.1617125076922
 31
0.0
  0
LINE
  5
121B
  8
3
 10
47.653319502924077
 20
100.4892857185317
 30
0.0
 11
47.325746292084538
 21
100.1617125076922
 31
0.0
  0
LINE
  5
121C
  8
3
 10
44.387020093950241
 20
100.1617125076922
 30
0.0
 11
44.059446883110581
 21
100.4892857185317
 31
0.0
  0
LINE
  5
121D
  8
3
 10
45.492412958751167
 20
100.1617125076922
 30
0.0
 11
44.387020093950241
 21
100.1617125076922
 31
0.0
  0
LINE
  5
121E
  8
3
 10
45.819986169590713
 20
100.4892857185317
 30
0.0
 11
45.492412958751167
 21
100.1617125076922
 31
0.0
  0
LINE
  5
121F
  8
3
 10
42.55368676061687
 20
100.1617125076922
 30
0.0
 11
42.226113549777317
 21
100.4892857185317
 31
0.0
  0
LINE
  5
1220
  8
3
 10
43.659079625417803
 20
100.1617125076922
 30
0.0
 11
42.55368676061687
 21
100.1617125076922
 31
0.0
  0
LINE
  5
1221
  8
3
 10
43.986652836257342
 20
100.4892857185317
 30
0.0
 11
43.659079625417803
 21
100.1617125076922
 31
0.0
  0
LINE
  5
1222
  8
3
 10
40.720353427283612
 20
100.1617125076922
 30
0.0
 11
40.392780216443953
 21
100.4892857185317
 31
0.0
  0
LINE
  5
1223
  8
3
 10
41.825746292084538
 20
100.1617125076922
 30
0.0
 11
40.720353427283612
 21
100.1617125076922
 31
0.0
  0
LINE
  5
1224
  8
3
 10
42.153319502924091
 20
100.4892857185317
 30
0.0
 11
41.825746292084538
 21
100.1617125076922
 31
0.0
  0
LINE
  5
1225
  8
3
 10
38.887020093950241
 20
100.1617125076922
 30
0.0
 11
38.559446883110581
 21
100.4892857185317
 31
0.0
  0
LINE
  5
1226
  8
3
 10
39.992412958751181
 20
100.1617125076922
 30
0.0
 11
38.887020093950241
 21
100.1617125076922
 31
0.0
  0
LINE
  5
1227
  8
3
 10
40.31998616959072
 20
100.4892857185317
 30
0.0
 11
39.992412958751181
 21
100.1617125076922
 31
0.0
  0
LINE
  5
1228
  8
3
 10
37.05368676061687
 20
100.1617125076922
 30
0.0
 11
36.726113549777317
 21
100.4892857185317
 31
0.0
  0
LINE
  5
1229
  8
3
 10
38.15907962541781
 20
100.1617125076922
 30
0.0
 11
37.05368676061687
 21
100.1617125076922
 31
0.0
  0
LINE
  5
122A
  8
3
 10
38.486652836257349
 20
100.4892857185317
 30
0.0
 11
38.15907962541781
 21
100.1617125076922
 31
0.0
  0
LINE
  5
122B
  8
3
 10
35.220353427283612
 20
100.1617125076922
 30
0.0
 11
34.892780216443953
 21
100.4892857185317
 31
0.0
  0
LINE
  5
122C
  8
3
 10
36.325746292084553
 20
100.1617125076922
 30
0.0
 11
35.220353427283612
 21
100.1617125076922
 31
0.0
  0
LINE
  5
122D
  8
3
 10
36.653319502924091
 20
100.4892857185317
 30
0.0
 11
36.325746292084553
 21
100.1617125076922
 31
0.0
  0
LINE
  5
122E
  8
3
 10
34.492412958751167
 20
100.1617125076922
 30
0.0
 11
33.53891247206991
 21
100.1617125076922
 31
0.0
  0
LINE
  5
122F
  8
3
 10
34.81998616959072
 20
100.4892857185317
 30
0.0
 11
34.492412958751167
 21
100.1617125076922
 31
0.0
  0
LINE
  5
1230
  8
3
 10
54.397479429009188
 20
100.4892857185317
 30
0.0
 11
53.226113549777317
 21
100.4892857185317
 31
0.0
  0
LINE
  5
1231
  8
3
 10
53.553686760616863
 20
100.1617125076922
 30
0.0
 11
53.226113549777317
 21
100.4892857185317
 31
0.0
  0
LINE
  5
1232
  8
3
 10
54.507187247298241
 20
100.1617125076922
 30
0.0
 11
53.553686760616863
 21
100.1617125076922
 31
0.0
  0
LINE
  5
1233
  8
3
 10
51.392780216443953
 20
102.3226190518651
 30
0.0
 11
51.720353427283612
 21
102.65019226270461
 31
0.0
  0
LINE
  5
1234
  8
3
 10
53.153319502924091
 20
102.3226190518651
 30
0.0
 11
51.392780216443953
 21
102.3226190518651
 31
0.0
  0
LINE
  5
1235
  8
3
 10
52.825746292084538
 20
102.65019226270461
 30
0.0
 11
53.153319502924091
 21
102.3226190518651
 31
0.0
  0
LINE
  5
1236
  8
3
 10
51.720353427283612
 20
102.65019226270461
 30
0.0
 11
52.825746292084538
 21
102.65019226270461
 31
0.0
  0
LINE
  5
1237
  8
3
 10
49.559446883110581
 20
102.3226190518651
 30
0.0
 11
49.887020093950241
 21
102.65019226270461
 31
0.0
  0
LINE
  5
1238
  8
3
 10
51.31998616959072
 20
102.3226190518651
 30
0.0
 11
49.559446883110581
 21
102.3226190518651
 31
0.0
  0
LINE
  5
1239
  8
3
 10
50.992412958751167
 20
102.65019226270461
 30
0.0
 11
51.31998616959072
 21
102.3226190518651
 31
0.0
  0
LINE
  5
123A
  8
3
 10
49.887020093950241
 20
102.65019226270461
 30
0.0
 11
50.992412958751167
 21
102.65019226270461
 31
0.0
  0
LINE
  5
123B
  8
3
 10
47.726113549777317
 20
102.3226190518651
 30
0.0
 11
48.05368676061687
 21
102.65019226270461
 31
0.0
  0
LINE
  5
123C
  8
3
 10
49.486652836257349
 20
102.3226190518651
 30
0.0
 11
47.726113549777317
 21
102.3226190518651
 31
0.0
  0
LINE
  5
123D
  8
3
 10
49.159079625417803
 20
102.65019226270461
 30
0.0
 11
49.486652836257349
 21
102.3226190518651
 31
0.0
  0
LINE
  5
123E
  8
3
 10
48.05368676061687
 20
102.65019226270461
 30
0.0
 11
49.159079625417803
 21
102.65019226270461
 31
0.0
  0
LINE
  5
123F
  8
3
 10
45.892780216443953
 20
102.3226190518651
 30
0.0
 11
46.220353427283612
 21
102.65019226270461
 31
0.0
  0
LINE
  5
1240
  8
3
 10
47.653319502924077
 20
102.3226190518651
 30
0.0
 11
45.892780216443953
 21
102.3226190518651
 31
0.0
  0
LINE
  5
1241
  8
3
 10
47.325746292084538
 20
102.65019226270461
 30
0.0
 11
47.653319502924077
 21
102.3226190518651
 31
0.0
  0
LINE
  5
1242
  8
3
 10
46.220353427283612
 20
102.65019226270461
 30
0.0
 11
47.325746292084538
 21
102.65019226270461
 31
0.0
  0
LINE
  5
1243
  8
3
 10
44.059446883110581
 20
102.3226190518651
 30
0.0
 11
44.387020093950241
 21
102.65019226270461
 31
0.0
  0
LINE
  5
1244
  8
3
 10
45.819986169590713
 20
102.3226190518651
 30
0.0
 11
44.059446883110581
 21
102.3226190518651
 31
0.0
  0
LINE
  5
1245
  8
3
 10
45.492412958751167
 20
102.65019226270461
 30
0.0
 11
45.819986169590713
 21
102.3226190518651
 31
0.0
  0
LINE
  5
1246
  8
3
 10
44.387020093950241
 20
102.65019226270461
 30
0.0
 11
45.492412958751167
 21
102.65019226270461
 31
0.0
  0
LINE
  5
1247
  8
3
 10
42.226113549777317
 20
102.3226190518651
 30
0.0
 11
42.55368676061687
 21
102.65019226270461
 31
0.0
  0
LINE
  5
1248
  8
3
 10
43.986652836257342
 20
102.3226190518651
 30
0.0
 11
42.226113549777317
 21
102.3226190518651
 31
0.0
  0
LINE
  5
1249
  8
3
 10
43.659079625417803
 20
102.65019226270461
 30
0.0
 11
43.986652836257342
 21
102.3226190518651
 31
0.0
  0
LINE
  5
124A
  8
3
 10
42.55368676061687
 20
102.65019226270461
 30
0.0
 11
43.659079625417803
 21
102.65019226270461
 31
0.0
  0
LINE
  5
124B
  8
3
 10
40.392780216443953
 20
102.3226190518651
 30
0.0
 11
40.720353427283612
 21
102.65019226270461
 31
0.0
  0
LINE
  5
124C
  8
3
 10
42.153319502924091
 20
102.3226190518651
 30
0.0
 11
40.392780216443953
 21
102.3226190518651
 31
0.0
  0
LINE
  5
124D
  8
3
 10
41.825746292084538
 20
102.65019226270461
 30
0.0
 11
42.153319502924091
 21
102.3226190518651
 31
0.0
  0
LINE
  5
124E
  8
3
 10
40.720353427283612
 20
102.65019226270461
 30
0.0
 11
41.825746292084538
 21
102.65019226270461
 31
0.0
  0
LINE
  5
124F
  8
3
 10
38.559446883110581
 20
102.3226190518651
 30
0.0
 11
38.887020093950241
 21
102.65019226270461
 31
0.0
  0
LINE
  5
1250
  8
3
 10
40.31998616959072
 20
102.3226190518651
 30
0.0
 11
38.559446883110581
 21
102.3226190518651
 31
0.0
  0
LINE
  5
1251
  8
3
 10
39.992412958751181
 20
102.65019226270461
 30
0.0
 11
40.31998616959072
 21
102.3226190518651
 31
0.0
  0
LINE
  5
1252
  8
3
 10
38.887020093950241
 20
102.65019226270461
 30
0.0
 11
39.992412958751181
 21
102.65019226270461
 31
0.0
  0
LINE
  5
1253
  8
3
 10
36.726113549777317
 20
102.3226190518651
 30
0.0
 11
37.05368676061687
 21
102.65019226270461
 31
0.0
  0
LINE
  5
1254
  8
3
 10
38.486652836257349
 20
102.3226190518651
 30
0.0
 11
36.726113549777317
 21
102.3226190518651
 31
0.0
  0
LINE
  5
1255
  8
3
 10
38.15907962541781
 20
102.65019226270461
 30
0.0
 11
38.486652836257349
 21
102.3226190518651
 31
0.0
  0
LINE
  5
1256
  8
3
 10
37.05368676061687
 20
102.65019226270461
 30
0.0
 11
38.15907962541781
 21
102.65019226270461
 31
0.0
  0
LINE
  5
1257
  8
3
 10
34.892780216443953
 20
102.3226190518651
 30
0.0
 11
35.220353427283612
 21
102.65019226270461
 31
0.0
  0
LINE
  5
1258
  8
3
 10
36.653319502924091
 20
102.3226190518651
 30
0.0
 11
34.892780216443953
 21
102.3226190518651
 31
0.0
  0
LINE
  5
1259
  8
3
 10
36.325746292084553
 20
102.65019226270461
 30
0.0
 11
36.653319502924091
 21
102.3226190518651
 31
0.0
  0
LINE
  5
125A
  8
3
 10
35.220353427283612
 20
102.65019226270461
 30
0.0
 11
36.325746292084553
 21
102.65019226270461
 31
0.0
  0
LINE
  5
125B
  8
3
 10
34.81998616959072
 20
102.3226190518651
 30
0.0
 11
34.491003909312212
 21
102.3226190518651
 31
0.0
  0
LINE
  5
125C
  8
3
 10
34.613155219939358
 20
102.52945000151639
 30
0.0
 11
34.81998616959072
 21
102.3226190518651
 31
0.0
  0
LINE
  5
125D
  8
3
 10
51.720353427283612
 20
101.9950458410254
 30
0.0
 11
51.392780216443953
 21
102.3226190518651
 31
0.0
  0
LINE
  5
125E
  8
3
 10
52.825746292084538
 20
101.9950458410254
 30
0.0
 11
51.720353427283612
 21
101.9950458410254
 31
0.0
  0
LINE
  5
125F
  8
3
 10
53.153319502924091
 20
102.3226190518651
 30
0.0
 11
52.825746292084538
 21
101.9950458410254
 31
0.0
  0
LINE
  5
1260
  8
3
 10
49.887020093950241
 20
101.9950458410254
 30
0.0
 11
49.559446883110581
 21
102.3226190518651
 31
0.0
  0
LINE
  5
1261
  8
3
 10
50.992412958751167
 20
101.9950458410254
 30
0.0
 11
49.887020093950241
 21
101.9950458410254
 31
0.0
  0
LINE
  5
1262
  8
3
 10
51.31998616959072
 20
102.3226190518651
 30
0.0
 11
50.992412958751167
 21
101.9950458410254
 31
0.0
  0
LINE
  5
1263
  8
3
 10
48.05368676061687
 20
101.9950458410254
 30
0.0
 11
47.726113549777317
 21
102.3226190518651
 31
0.0
  0
LINE
  5
1264
  8
3
 10
49.159079625417803
 20
101.9950458410254
 30
0.0
 11
48.05368676061687
 21
101.9950458410254
 31
0.0
  0
LINE
  5
1265
  8
3
 10
49.486652836257349
 20
102.3226190518651
 30
0.0
 11
49.159079625417803
 21
101.9950458410254
 31
0.0
  0
LINE
  5
1266
  8
3
 10
46.220353427283612
 20
101.9950458410254
 30
0.0
 11
45.892780216443953
 21
102.3226190518651
 31
0.0
  0
LINE
  5
1267
  8
3
 10
47.325746292084538
 20
101.9950458410254
 30
0.0
 11
46.220353427283612
 21
101.9950458410254
 31
0.0
  0
LINE
  5
1268
  8
3
 10
47.653319502924077
 20
102.3226190518651
 30
0.0
 11
47.325746292084538
 21
101.9950458410254
 31
0.0
  0
LINE
  5
1269
  8
3
 10
44.387020093950241
 20
101.9950458410254
 30
0.0
 11
44.059446883110581
 21
102.3226190518651
 31
0.0
  0
LINE
  5
126A
  8
3
 10
45.492412958751167
 20
101.9950458410254
 30
0.0
 11
44.387020093950241
 21
101.9950458410254
 31
0.0
  0
LINE
  5
126B
  8
3
 10
45.819986169590713
 20
102.3226190518651
 30
0.0
 11
45.492412958751167
 21
101.9950458410254
 31
0.0
  0
LINE
  5
126C
  8
3
 10
42.55368676061687
 20
101.9950458410254
 30
0.0
 11
42.226113549777317
 21
102.3226190518651
 31
0.0
  0
LINE
  5
126D
  8
3
 10
43.659079625417803
 20
101.9950458410254
 30
0.0
 11
42.55368676061687
 21
101.9950458410254
 31
0.0
  0
LINE
  5
126E
  8
3
 10
43.986652836257342
 20
102.3226190518651
 30
0.0
 11
43.659079625417803
 21
101.9950458410254
 31
0.0
  0
LINE
  5
126F
  8
3
 10
40.720353427283612
 20
101.9950458410254
 30
0.0
 11
40.392780216443953
 21
102.3226190518651
 31
0.0
  0
LINE
  5
1270
  8
3
 10
41.825746292084538
 20
101.9950458410254
 30
0.0
 11
40.720353427283612
 21
101.9950458410254
 31
0.0
  0
LINE
  5
1271
  8
3
 10
42.153319502924091
 20
102.3226190518651
 30
0.0
 11
41.825746292084538
 21
101.9950458410254
 31
0.0
  0
LINE
  5
1272
  8
3
 10
38.887020093950241
 20
101.9950458410254
 30
0.0
 11
38.559446883110581
 21
102.3226190518651
 31
0.0
  0
LINE
  5
1273
  8
3
 10
39.992412958751181
 20
101.9950458410254
 30
0.0
 11
38.887020093950241
 21
101.9950458410254
 31
0.0
  0
LINE
  5
1274
  8
3
 10
40.31998616959072
 20
102.3226190518651
 30
0.0
 11
39.992412958751181
 21
101.9950458410254
 31
0.0
  0
LINE
  5
1275
  8
3
 10
37.05368676061687
 20
101.9950458410254
 30
0.0
 11
36.726113549777317
 21
102.3226190518651
 31
0.0
  0
LINE
  5
1276
  8
3
 10
38.15907962541781
 20
101.9950458410254
 30
0.0
 11
37.05368676061687
 21
101.9950458410254
 31
0.0
  0
LINE
  5
1277
  8
3
 10
38.486652836257349
 20
102.3226190518651
 30
0.0
 11
38.15907962541781
 21
101.9950458410254
 31
0.0
  0
LINE
  5
1278
  8
3
 10
35.220353427283612
 20
101.9950458410254
 30
0.0
 11
34.892780216443953
 21
102.3226190518651
 31
0.0
  0
LINE
  5
1279
  8
3
 10
36.325746292084553
 20
101.9950458410254
 30
0.0
 11
35.220353427283612
 21
101.9950458410254
 31
0.0
  0
LINE
  5
127A
  8
3
 10
36.653319502924091
 20
102.3226190518651
 30
0.0
 11
36.325746292084553
 21
101.9950458410254
 31
0.0
  0
LINE
  5
127B
  8
3
 10
34.492412958751167
 20
101.9950458410254
 30
0.0
 11
34.309690520785921
 21
101.9950458410254
 31
0.0
  0
LINE
  5
127C
  8
3
 10
34.81998616959072
 20
102.3226190518651
 30
0.0
 11
34.492412958751167
 21
101.9950458410254
 31
0.0
  0
LINE
  5
127D
  8
3
 10
53.555095810055832
 20
102.3226190518651
 30
0.0
 11
53.226113549777317
 21
102.3226190518651
 31
0.0
  0
LINE
  5
127E
  8
3
 10
53.553686760616863
 20
101.9950458410254
 30
0.0
 11
53.226113549777317
 21
102.3226190518651
 31
0.0
  0
LINE
  5
127F
  8
3
 10
53.736409198582123
 20
101.9950458410254
 30
0.0
 11
53.553686760616863
 21
101.9950458410254
 31
0.0
  0
LINE
  5
1280
  8
3
 10
49.559446883110581
 20
104.1559523851983
 30
0.0
 11
49.887020093950241
 21
104.48352559603801
 31
0.0
  0
LINE
  5
1281
  8
3
 10
51.31998616959072
 20
104.1559523851983
 30
0.0
 11
49.559446883110581
 21
104.1559523851983
 31
0.0
  0
LINE
  5
1282
  8
3
 10
50.992412958751167
 20
104.48352559603801
 30
0.0
 11
51.31998616959072
 21
104.1559523851983
 31
0.0
  0
LINE
  5
1283
  8
3
 10
49.887020093950241
 20
104.48352559603801
 30
0.0
 11
50.992412958751167
 21
104.48352559603801
 31
0.0
  0
LINE
  5
1284
  8
3
 10
47.726113549777317
 20
104.1559523851983
 30
0.0
 11
48.05368676061687
 21
104.48352559603801
 31
0.0
  0
LINE
  5
1285
  8
3
 10
49.486652836257349
 20
104.1559523851983
 30
0.0
 11
47.726113549777317
 21
104.1559523851983
 31
0.0
  0
LINE
  5
1286
  8
3
 10
49.159079625417803
 20
104.48352559603801
 30
0.0
 11
49.486652836257349
 21
104.1559523851983
 31
0.0
  0
LINE
  5
1287
  8
3
 10
48.05368676061687
 20
104.48352559603801
 30
0.0
 11
49.159079625417803
 21
104.48352559603801
 31
0.0
  0
LINE
  5
1288
  8
3
 10
45.892780216443953
 20
104.1559523851983
 30
0.0
 11
46.220353427283612
 21
104.48352559603801
 31
0.0
  0
LINE
  5
1289
  8
3
 10
47.653319502924077
 20
104.1559523851983
 30
0.0
 11
45.892780216443953
 21
104.1559523851983
 31
0.0
  0
LINE
  5
128A
  8
3
 10
47.325746292084538
 20
104.48352559603801
 30
0.0
 11
47.653319502924077
 21
104.1559523851983
 31
0.0
  0
LINE
  5
128B
  8
3
 10
46.220353427283612
 20
104.48352559603801
 30
0.0
 11
47.325746292084538
 21
104.48352559603801
 31
0.0
  0
LINE
  5
128C
  8
3
 10
44.059446883110581
 20
104.1559523851983
 30
0.0
 11
44.387020093950241
 21
104.48352559603801
 31
0.0
  0
LINE
  5
128D
  8
3
 10
45.819986169590713
 20
104.1559523851983
 30
0.0
 11
44.059446883110581
 21
104.1559523851983
 31
0.0
  0
LINE
  5
128E
  8
3
 10
45.492412958751167
 20
104.48352559603801
 30
0.0
 11
45.819986169590713
 21
104.1559523851983
 31
0.0
  0
LINE
  5
128F
  8
3
 10
44.387020093950241
 20
104.48352559603801
 30
0.0
 11
45.492412958751167
 21
104.48352559603801
 31
0.0
  0
LINE
  5
1290
  8
3
 10
42.226113549777317
 20
104.1559523851983
 30
0.0
 11
42.55368676061687
 21
104.48352559603801
 31
0.0
  0
LINE
  5
1291
  8
3
 10
43.986652836257342
 20
104.1559523851983
 30
0.0
 11
42.226113549777317
 21
104.1559523851983
 31
0.0
  0
LINE
  5
1292
  8
3
 10
43.659079625417803
 20
104.48352559603801
 30
0.0
 11
43.986652836257342
 21
104.1559523851983
 31
0.0
  0
LINE
  5
1293
  8
3
 10
42.55368676061687
 20
104.48352559603801
 30
0.0
 11
43.659079625417803
 21
104.48352559603801
 31
0.0
  0
LINE
  5
1294
  8
3
 10
40.392780216443953
 20
104.1559523851983
 30
0.0
 11
40.720353427283612
 21
104.48352559603801
 31
0.0
  0
LINE
  5
1295
  8
3
 10
42.153319502924091
 20
104.1559523851983
 30
0.0
 11
40.392780216443953
 21
104.1559523851983
 31
0.0
  0
LINE
  5
1296
  8
3
 10
41.825746292084538
 20
104.48352559603801
 30
0.0
 11
42.153319502924091
 21
104.1559523851983
 31
0.0
  0
LINE
  5
1297
  8
3
 10
40.720353427283612
 20
104.48352559603801
 30
0.0
 11
41.825746292084538
 21
104.48352559603801
 31
0.0
  0
LINE
  5
1298
  8
3
 10
38.559446883110581
 20
104.1559523851983
 30
0.0
 11
38.887020093950241
 21
104.48352559603801
 31
0.0
  0
LINE
  5
1299
  8
3
 10
40.31998616959072
 20
104.1559523851983
 30
0.0
 11
38.559446883110581
 21
104.1559523851983
 31
0.0
  0
LINE
  5
129A
  8
3
 10
39.992412958751181
 20
104.48352559603801
 30
0.0
 11
40.31998616959072
 21
104.1559523851983
 31
0.0
  0
LINE
  5
129B
  8
3
 10
38.887020093950241
 20
104.48352559603801
 30
0.0
 11
39.992412958751181
 21
104.48352559603801
 31
0.0
  0
LINE
  5
129C
  8
3
 10
36.726113549777317
 20
104.1559523851983
 30
0.0
 11
37.05368676061687
 21
104.48352559603801
 31
0.0
  0
LINE
  5
129D
  8
3
 10
38.486652836257349
 20
104.1559523851983
 30
0.0
 11
36.726113549777317
 21
104.1559523851983
 31
0.0
  0
LINE
  5
129E
  8
3
 10
38.15907962541781
 20
104.48352559603801
 30
0.0
 11
38.486652836257349
 21
104.1559523851983
 31
0.0
  0
LINE
  5
129F
  8
3
 10
37.05368676061687
 20
104.48352559603801
 30
0.0
 11
38.15907962541781
 21
104.48352559603801
 31
0.0
  0
LINE
  5
12A0
  8
3
 10
36.653319502924091
 20
104.1559523851983
 30
0.0
 11
35.815200635381188
 21
104.1559523851983
 31
0.0
  0
LINE
  5
12A1
  8
3
 10
36.325746292084553
 20
104.48352559603801
 30
0.0
 11
36.653319502924091
 21
104.1559523851983
 31
0.0
  0
LINE
  5
12A2
  8
3
 10
36.119656344722792
 20
104.48352559603801
 30
0.0
 11
36.325746292084553
 21
104.48352559603801
 31
0.0
  0
LINE
  5
12A3
  8
3
 10
49.887020093950241
 20
103.8283791743588
 30
0.0
 11
49.559446883110581
 21
104.1559523851983
 31
0.0
  0
LINE
  5
12A4
  8
3
 10
50.992412958751167
 20
103.8283791743588
 30
0.0
 11
49.887020093950241
 21
103.8283791743588
 31
0.0
  0
LINE
  5
12A5
  8
3
 10
51.31998616959072
 20
104.1559523851983
 30
0.0
 11
50.992412958751167
 21
103.8283791743588
 31
0.0
  0
LINE
  5
12A6
  8
3
 10
48.05368676061687
 20
103.8283791743588
 30
0.0
 11
47.726113549777317
 21
104.1559523851983
 31
0.0
  0
LINE
  5
12A7
  8
3
 10
49.159079625417803
 20
103.8283791743588
 30
0.0
 11
48.05368676061687
 21
103.8283791743588
 31
0.0
  0
LINE
  5
12A8
  8
3
 10
49.486652836257349
 20
104.1559523851983
 30
0.0
 11
49.159079625417803
 21
103.8283791743588
 31
0.0
  0
LINE
  5
12A9
  8
3
 10
46.220353427283612
 20
103.8283791743588
 30
0.0
 11
45.892780216443953
 21
104.1559523851983
 31
0.0
  0
LINE
  5
12AA
  8
3
 10
47.325746292084538
 20
103.8283791743588
 30
0.0
 11
46.220353427283612
 21
103.8283791743588
 31
0.0
  0
LINE
  5
12AB
  8
3
 10
47.653319502924077
 20
104.1559523851983
 30
0.0
 11
47.325746292084538
 21
103.8283791743588
 31
0.0
  0
LINE
  5
12AC
  8
3
 10
44.387020093950241
 20
103.8283791743588
 30
0.0
 11
44.059446883110581
 21
104.1559523851983
 31
0.0
  0
LINE
  5
12AD
  8
3
 10
45.492412958751167
 20
103.8283791743588
 30
0.0
 11
44.387020093950241
 21
103.8283791743588
 31
0.0
  0
LINE
  5
12AE
  8
3
 10
45.819986169590713
 20
104.1559523851983
 30
0.0
 11
45.492412958751167
 21
103.8283791743588
 31
0.0
  0
LINE
  5
12AF
  8
3
 10
42.55368676061687
 20
103.8283791743588
 30
0.0
 11
42.226113549777317
 21
104.1559523851983
 31
0.0
  0
LINE
  5
12B0
  8
3
 10
43.659079625417803
 20
103.8283791743588
 30
0.0
 11
42.55368676061687
 21
103.8283791743588
 31
0.0
  0
LINE
  5
12B1
  8
3
 10
43.986652836257342
 20
104.1559523851983
 30
0.0
 11
43.659079625417803
 21
103.8283791743588
 31
0.0
  0
LINE
  5
12B2
  8
3
 10
40.720353427283612
 20
103.8283791743588
 30
0.0
 11
40.392780216443953
 21
104.1559523851983
 31
0.0
  0
LINE
  5
12B3
  8
3
 10
41.825746292084538
 20
103.8283791743588
 30
0.0
 11
40.720353427283612
 21
103.8283791743588
 31
0.0
  0
LINE
  5
12B4
  8
3
 10
42.153319502924091
 20
104.1559523851983
 30
0.0
 11
41.825746292084538
 21
103.8283791743588
 31
0.0
  0
LINE
  5
12B5
  8
3
 10
38.887020093950241
 20
103.8283791743588
 30
0.0
 11
38.559446883110581
 21
104.1559523851983
 31
0.0
  0
LINE
  5
12B6
  8
3
 10
39.992412958751181
 20
103.8283791743588
 30
0.0
 11
38.887020093950241
 21
103.8283791743588
 31
0.0
  0
LINE
  5
12B7
  8
3
 10
40.31998616959072
 20
104.1559523851983
 30
0.0
 11
39.992412958751181
 21
103.8283791743588
 31
0.0
  0
LINE
  5
12B8
  8
3
 10
37.05368676061687
 20
103.8283791743588
 30
0.0
 11
36.726113549777317
 21
104.1559523851983
 31
0.0
  0
LINE
  5
12B9
  8
3
 10
38.15907962541781
 20
103.8283791743588
 30
0.0
 11
37.05368676061687
 21
103.8283791743588
 31
0.0
  0
LINE
  5
12BA
  8
3
 10
38.486652836257349
 20
104.1559523851983
 30
0.0
 11
38.15907962541781
 21
103.8283791743588
 31
0.0
  0
LINE
  5
12BB
  8
3
 10
36.325746292084553
 20
103.8283791743588
 30
0.0
 11
35.534272544397368
 21
103.8283791743588
 31
0.0
  0
LINE
  5
12BC
  8
3
 10
36.653319502924091
 20
104.1559523851983
 30
0.0
 11
36.325746292084553
 21
103.8283791743588
 31
0.0
  0
LINE
  5
12BD
  8
3
 10
52.230899083986849
 20
104.1559523851983
 30
0.0
 11
51.392780216443953
 21
104.1559523851983
 31
0.0
  0
LINE
  5
12BE
  8
3
 10
51.720353427283612
 20
103.8283791743588
 30
0.0
 11
51.392780216443953
 21
104.1559523851983
 31
0.0
  0
LINE
  5
12BF
  8
3
 10
52.51182717497079
 20
103.8283791743588
 30
0.0
 11
51.720353427283612
 21
103.8283791743588
 31
0.0
  0
LINE
  5
12C0
  8
3
 10
47.726113549777317
 20
105.9892857185317
 30
0.0
 11
48.05368676061687
 21
106.31685892937131
 31
0.0
  0
LINE
  5
12C1
  8
3
 10
49.486652836257349
 20
105.9892857185317
 30
0.0
 11
47.726113549777317
 21
105.9892857185317
 31
0.0
  0
LINE
  5
12C2
  8
3
 10
49.159079625417803
 20
106.31685892937131
 30
0.0
 11
49.486652836257349
 21
105.9892857185317
 31
0.0
  0
LINE
  5
12C3
  8
3
 10
48.05368676061687
 20
106.31685892937131
 30
0.0
 11
49.159079625417803
 21
106.31685892937131
 31
0.0
  0
LINE
  5
12C4
  8
3
 10
45.892780216443953
 20
105.9892857185317
 30
0.0
 11
46.220353427283612
 21
106.31685892937131
 31
0.0
  0
LINE
  5
12C5
  8
3
 10
47.653319502924077
 20
105.9892857185317
 30
0.0
 11
45.892780216443953
 21
105.9892857185317
 31
0.0
  0
LINE
  5
12C6
  8
3
 10
47.325746292084538
 20
106.31685892937131
 30
0.0
 11
47.653319502924077
 21
105.9892857185317
 31
0.0
  0
LINE
  5
12C7
  8
3
 10
46.220353427283612
 20
106.31685892937131
 30
0.0
 11
47.325746292084538
 21
106.31685892937131
 31
0.0
  0
LINE
  5
12C8
  8
3
 10
44.059446883110581
 20
105.9892857185317
 30
0.0
 11
44.387020093950241
 21
106.31685892937131
 31
0.0
  0
LINE
  5
12C9
  8
3
 10
45.819986169590713
 20
105.9892857185317
 30
0.0
 11
44.059446883110581
 21
105.9892857185317
 31
0.0
  0
LINE
  5
12CA
  8
3
 10
45.492412958751167
 20
106.31685892937131
 30
0.0
 11
45.819986169590713
 21
105.9892857185317
 31
0.0
  0
LINE
  5
12CB
  8
3
 10
44.387020093950241
 20
106.31685892937131
 30
0.0
 11
45.492412958751167
 21
106.31685892937131
 31
0.0
  0
LINE
  5
12CC
  8
3
 10
42.226113549777317
 20
105.9892857185317
 30
0.0
 11
42.55368676061687
 21
106.31685892937131
 31
0.0
  0
LINE
  5
12CD
  8
3
 10
43.986652836257342
 20
105.9892857185317
 30
0.0
 11
42.226113549777317
 21
105.9892857185317
 31
0.0
  0
LINE
  5
12CE
  8
3
 10
43.659079625417803
 20
106.31685892937131
 30
0.0
 11
43.986652836257342
 21
105.9892857185317
 31
0.0
  0
LINE
  5
12CF
  8
3
 10
42.55368676061687
 20
106.31685892937131
 30
0.0
 11
43.659079625417803
 21
106.31685892937131
 31
0.0
  0
LINE
  5
12D0
  8
3
 10
40.392780216443953
 20
105.9892857185317
 30
0.0
 11
40.720353427283612
 21
106.31685892937131
 31
0.0
  0
LINE
  5
12D1
  8
3
 10
42.153319502924091
 20
105.9892857185317
 30
0.0
 11
40.392780216443953
 21
105.9892857185317
 31
0.0
  0
LINE
  5
12D2
  8
3
 10
41.825746292084538
 20
106.31685892937131
 30
0.0
 11
42.153319502924091
 21
105.9892857185317
 31
0.0
  0
LINE
  5
12D3
  8
3
 10
40.720353427283612
 20
106.31685892937131
 30
0.0
 11
41.825746292084538
 21
106.31685892937131
 31
0.0
  0
LINE
  5
12D4
  8
3
 10
38.559446883110581
 20
105.9892857185317
 30
0.0
 11
38.887020093950241
 21
106.31685892937131
 31
0.0
  0
LINE
  5
12D5
  8
3
 10
40.31998616959072
 20
105.9892857185317
 30
0.0
 11
38.559446883110581
 21
105.9892857185317
 31
0.0
  0
LINE
  5
12D6
  8
3
 10
39.992412958751181
 20
106.31685892937131
 30
0.0
 11
40.31998616959072
 21
105.9892857185317
 31
0.0
  0
LINE
  5
12D7
  8
3
 10
38.887020093950241
 20
106.31685892937131
 30
0.0
 11
39.992412958751181
 21
106.31685892937131
 31
0.0
  0
LINE
  5
12D8
  8
3
 10
38.486652836257349
 20
105.9892857185317
 30
0.0
 11
37.92752235539399
 21
105.9892857185317
 31
0.0
  0
LINE
  5
12D9
  8
3
 10
38.268568899418028
 20
106.207369655371
 30
0.0
 11
38.486652836257349
 21
105.9892857185317
 31
0.0
  0
LINE
  5
12DA
  8
3
 10
48.05368676061687
 20
105.6617125076922
 30
0.0
 11
47.726113549777317
 21
105.9892857185317
 31
0.0
  0
LINE
  5
12DB
  8
3
 10
49.159079625417803
 20
105.6617125076922
 30
0.0
 11
48.05368676061687
 21
105.6617125076922
 31
0.0
  0
LINE
  5
12DC
  8
3
 10
49.486652836257349
 20
105.9892857185317
 30
0.0
 11
49.159079625417803
 21
105.6617125076922
 31
0.0
  0
LINE
  5
12DD
  8
3
 10
46.220353427283612
 20
105.6617125076922
 30
0.0
 11
45.892780216443953
 21
105.9892857185317
 31
0.0
  0
LINE
  5
12DE
  8
3
 10
47.325746292084538
 20
105.6617125076922
 30
0.0
 11
46.220353427283612
 21
105.6617125076922
 31
0.0
  0
LINE
  5
12DF
  8
3
 10
47.653319502924077
 20
105.9892857185317
 30
0.0
 11
47.325746292084538
 21
105.6617125076922
 31
0.0
  0
LINE
  5
12E0
  8
3
 10
44.387020093950241
 20
105.6617125076922
 30
0.0
 11
44.059446883110581
 21
105.9892857185317
 31
0.0
  0
LINE
  5
12E1
  8
3
 10
45.492412958751167
 20
105.6617125076922
 30
0.0
 11
44.387020093950241
 21
105.6617125076922
 31
0.0
  0
LINE
  5
12E2
  8
3
 10
45.819986169590713
 20
105.9892857185317
 30
0.0
 11
45.492412958751167
 21
105.6617125076922
 31
0.0
  0
LINE
  5
12E3
  8
3
 10
42.55368676061687
 20
105.6617125076922
 30
0.0
 11
42.226113549777317
 21
105.9892857185317
 31
0.0
  0
LINE
  5
12E4
  8
3
 10
43.659079625417803
 20
105.6617125076922
 30
0.0
 11
42.55368676061687
 21
105.6617125076922
 31
0.0
  0
LINE
  5
12E5
  8
3
 10
43.986652836257342
 20
105.9892857185317
 30
0.0
 11
43.659079625417803
 21
105.6617125076922
 31
0.0
  0
LINE
  5
12E6
  8
3
 10
40.720353427283612
 20
105.6617125076922
 30
0.0
 11
40.392780216443953
 21
105.9892857185317
 31
0.0
  0
LINE
  5
12E7
  8
3
 10
41.825746292084538
 20
105.6617125076922
 30
0.0
 11
40.720353427283612
 21
105.6617125076922
 31
0.0
  0
LINE
  5
12E8
  8
3
 10
42.153319502924091
 20
105.9892857185317
 30
0.0
 11
41.825746292084538
 21
105.6617125076922
 31
0.0
  0
LINE
  5
12E9
  8
3
 10
38.887020093950241
 20
105.6617125076922
 30
0.0
 11
38.559446883110581
 21
105.9892857185317
 31
0.0
  0
LINE
  5
12EA
  8
3
 10
39.992412958751181
 20
105.6617125076922
 30
0.0
 11
38.887020093950241
 21
105.6617125076922
 31
0.0
  0
LINE
  5
12EB
  8
3
 10
40.31998616959072
 20
105.9892857185317
 30
0.0
 11
39.992412958751181
 21
105.6617125076922
 31
0.0
  0
LINE
  5
12EC
  8
3
 10
38.15907962541781
 20
105.6617125076922
 30
0.0
 11
37.462020310270987
 21
105.6617125076922
 31
0.0
  0
LINE
  5
12ED
  8
3
 10
38.486652836257349
 20
105.9892857185317
 30
0.0
 11
38.15907962541781
 21
105.6617125076922
 31
0.0
  0
LINE
  5
12EE
  8
3
 10
50.118577363973941
 20
105.9892857185317
 30
0.0
 11
49.559446883110581
 21
105.9892857185317
 31
0.0
  0
LINE
  5
12EF
  8
3
 10
49.887020093950241
 20
105.6617125076922
 30
0.0
 11
49.559446883110581
 21
105.9892857185317
 31
0.0
  0
LINE
  5
12F0
  8
3
 10
50.584079409097058
 20
105.6617125076922
 30
0.0
 11
49.887020093950241
 21
105.6617125076922
 31
0.0
  0
LINE
  5
12F1
  8
3
 10
45.492412958751167
 20
86.15019226270465
 30
0.0
 11
45.683883039954708
 21
85.958722181501045
 31
0.0
  0
LINE
  5
12F2
  8
3
 10
44.387020093950241
 20
86.15019226270465
 30
0.0
 11
45.492412958751167
 21
86.15019226270465
 31
0.0
  0
LINE
  5
12F3
  8
3
 10
44.069545147722692
 20
85.832717316477158
 30
0.0
 11
44.387020093950241
 21
86.15019226270465
 31
0.0
  0
LINE
  5
12F4
  8
3
 10
43.659079625417803
 20
86.15019226270465
 30
0.0
 11
43.976554571645337
 21
85.832717316477158
 31
0.0
  0
LINE
  5
12F5
  8
3
 10
42.55368676061687
 20
86.15019226270465
 30
0.0
 11
43.659079625417803
 21
86.15019226270465
 31
0.0
  0
LINE
  5
12F6
  8
3
 10
42.362216679413329
 20
85.958722181501116
 30
0.0
 11
42.55368676061687
 21
86.15019226270465
 31
0.0
  0
LINE
  5
12F7
  8
3
 10
41.825746292084538
 20
86.15019226270465
 30
0.0
 11
41.9453099069583
 21
86.030628647830895
 31
0.0
  0
LINE
  5
12F8
  8
3
 10
41.398977091213617
 20
86.15019226270465
 30
0.0
 11
41.825746292084538
 21
86.15019226270465
 31
0.0
  0
LINE
  5
12F9
  8
3
 10
41.97003672219568
 20
107.6393362711366
 30
0.0
 11
41.825746292084538
 21
107.4950458410254
 31
0.0
  0
LINE
  5
12FA
  8
3
 10
41.825746292084538
 20
107.4950458410254
 30
0.0
 11
41.318857750052302
 21
107.4950458410254
 31
0.0
  0
LINE
  5
12FB
  8
3
 10
44.387020093950241
 20
107.4950458410254
 30
0.0
 11
44.059446883110581
 21
107.8226190518651
 31
0.0
  0
LINE
  5
12FC
  8
3
 10
45.492412958751167
 20
107.4950458410254
 30
0.0
 11
44.387020093950241
 21
107.4950458410254
 31
0.0
  0
LINE
  5
12FD
  8
3
 10
45.701220796241607
 20
107.703853678516
 30
0.0
 11
45.492412958751167
 21
107.4950458410254
 31
0.0
  0
LINE
  5
12FE
  8
3
 10
46.220353427283612
 20
107.4950458410254
 30
0.0
 11
46.076062997172471
 21
107.6393362711366
 31
0.0
  0
LINE
  5
12FF
  8
3
 10
46.727241969315742
 20
107.4950458410254
 30
0.0
 11
46.220353427283612
 21
107.4950458410254
 31
0.0
  0
LINE
  5
1300
  8
3
 10
46.100789812409737
 20
86.030628647830895
 30
0.0
 11
46.220353427283612
 21
86.15019226270465
 31
0.0
  0
LINE
  5
1301
  8
3
 10
46.220353427283612
 20
86.15019226270465
 30
0.0
 11
46.64712262815442
 21
86.15019226270465
 31
0.0
  0
LINE
  5
1302
  8
3
 10
49.887020093950241
 20
87.983525596038021
 30
0.0
 11
50.557079627755108
 21
87.983525596038021
 31
0.0
  0
LINE
  5
1303
  8
3
 10
49.559446883110581
 20
87.655952385198361
 30
0.0
 11
49.887020093950241
 21
87.983525596038021
 31
0.0
  0
LINE
  5
1304
  8
3
 10
51.720353427283612
 20
89.816858929371264
 30
0.0
 11
52.495305161764243
 21
89.816858929371264
 31
0.0
  0
LINE
  5
1305
  8
3
 10
51.392780216443953
 20
89.489285718531733
 30
0.0
 11
51.720353427283612
 21
89.816858929371264
 31
0.0
  0
LINE
  5
1306
  8
3
 10
53.553686760616863
 20
91.650192262704635
 30
0.0
 11
53.725753223952772
 21
91.650192262704635
 31
0.0
  0
LINE
  5
1307
  8
3
 10
53.226113549777317
 20
91.322619051865104
 30
0.0
 11
53.553686760616863
 21
91.650192262704635
 31
0.0
  0
LINE
  5
1308
  8
3
 10
53.553686760616863
 20
93.483525596038007
 30
0.0
 11
54.500815510057009
 21
93.483525596038007
 31
0.0
  0
LINE
  5
1309
  8
3
 10
53.226113549777317
 20
93.155952385198361
 30
0.0
 11
53.553686760616863
 21
93.483525596038007
 31
0.0
  0
LINE
  5
130A
  8
3
 10
35.220353427283612
 20
94.661712507692187
 30
0.0
 11
34.892780216443953
 21
94.989285718531733
 31
0.0
  0
LINE
  5
130B
  8
3
 10
36.325746292084553
 20
94.661712507692187
 30
0.0
 11
35.220353427283612
 21
94.661712507692187
 31
0.0
  0
LINE
  5
130C
  8
3
 10
36.653319502924091
 20
94.989285718531733
 30
0.0
 11
36.325746292084553
 21
94.661712507692187
 31
0.0
  0
LINE
  5
130D
  8
3
 10
33.387020093950241
 20
96.495045841025444
 30
0.0
 11
33.059446883110581
 21
96.822619051865104
 31
0.0
  0
LINE
  5
130E
  8
3
 10
34.492412958751167
 20
96.495045841025444
 30
0.0
 11
33.387020093950241
 21
96.495045841025444
 31
0.0
  0
LINE
  5
130F
  8
3
 10
34.81998616959072
 20
96.822619051865104
 30
0.0
 11
34.492412958751061
 21
96.495045841025444
 31
0.0
  0
LINE
  5
1310
  8
3
 10
35.220353427283612
 20
98.328379174358815
 30
0.0
 11
34.892780216443953
 21
98.655952385198376
 31
0.0
  0
LINE
  5
1311
  8
3
 10
36.325746292084553
 20
98.328379174358815
 30
0.0
 11
35.220353427283612
 21
98.328379174358815
 31
0.0
  0
LINE
  5
1312
  8
3
 10
36.653319502924091
 20
98.655952385198376
 30
0.0
 11
36.325746292084553
 21
98.328379174358815
 31
0.0
  0
LINE
  5
1313
  8
3
 10
53.553686760616863
 20
100.81685892937131
 30
0.0
 11
54.276138789293888
 21
100.81685892937131
 31
0.0
  0
LINE
  5
1314
  8
3
 10
53.226113549777317
 20
100.4892857185317
 30
0.0
 11
53.553686760616863
 21
100.81685892937131
 31
0.0
  0
LINE
  5
1315
  8
3
 10
53.226113549777317
 20
102.3226190518651
 30
0.0
 11
53.432944499428572
 21
102.52945000151639
 31
0.0
  0
LINE
  5
1316
  8
3
 10
51.720353427283612
 20
104.48352559603801
 30
0.0
 11
51.926443374645373
 21
104.48352559603801
 31
0.0
  0
LINE
  5
1317
  8
3
 10
51.392780216443953
 20
104.1559523851983
 30
0.0
 11
51.720353427283612
 21
104.48352559603801
 31
0.0
  0
LINE
  5
1318
  8
3
 10
49.559446883110581
 20
105.9892857185317
 30
0.0
 11
49.777530819950009
 21
106.207369655371
 31
0.0
  0
LINE
  5
1319
  8
3
 10
42.55368676061687
 20
107.4950458410254
 30
0.0
 11
42.344878923126423
 21
107.703853678516
 31
0.0
  0
LINE
  5
131A
  8
3
 10
43.659079625417803
 20
107.4950458410254
 30
0.0
 11
42.55368676061687
 21
107.4950458410254
 31
0.0
  0
LINE
  5
131B
  8
3
 10
43.986652836257342
 20
107.8226190518651
 30
0.0
 11
43.659079625417803
 21
107.4950458410254
 31
0.0
  0
LINE
  5
131C
  8
3
 10
33.387020093950241
 20
99.638839075744954
 30
0.0
 11
33.387020093950241
 21
98.983525596038021
 31
0.0
  0
LINE
  5
131D
  8
3
 10
33.387020093950241
 20
96.495045841025444
 30
0.0
 11
33.387020093950241
 21
95.316858929371278
 31
0.0
  0
LINE
  5
131E
  8
3
 10
33.387020093950241
 20
98.328379174358815
 30
0.0
 11
33.387020093950241
 21
97.15019226270465
 31
0.0
  0
LINE
  5
131F
  8
3
 10
33.387020093950241
 20
94.661712507692187
 30
0.0
 11
33.387020093950241
 21
94.026399027985121
 31
0.0
  0
LINE
  5
1320
  8
3
 10
54.65907962541781
 20
98.983525596038021
 30
0.0
 11
54.65907962541781
 21
99.638839075745011
 31
0.0
  0
LINE
  5
1321
  8
3
 10
54.65907962541781
 20
97.15019226270465
 30
0.0
 11
54.65907962541781
 21
98.328379174358815
 31
0.0
  0
LINE
  5
1322
  8
3
 10
54.65907962541781
 20
95.316858929371278
 30
0.0
 11
54.65907962541781
 21
96.495045841025444
 31
0.0
  0
LINE
  5
1323
  8
3
 10
53.553686760616863
 20
101.9950458410254
 30
0.0
 11
53.553686760616863
 21
100.81685892937131
 31
0.0
  0
LINE
  5
1324
  8
3
 10
53.553686760616863
 20
100.1617125076922
 30
0.0
 11
53.553686760616863
 21
98.983525596038021
 31
0.0
  0
LINE
  5
1325
  8
3
 10
53.553686760616863
 20
96.495045841025444
 30
0.0
 11
53.553686760616863
 21
95.316858929371278
 31
0.0
  0
LINE
  5
1326
  8
3
 10
53.553686760616863
 20
98.328379174358815
 30
0.0
 11
53.553686760616863
 21
97.15019226270465
 31
0.0
  0
LINE
  5
1327
  8
3
 10
54.65907962541781
 20
94.026399027985121
 30
0.0
 11
54.65907962541781
 21
94.661712507692187
 31
0.0
  0
LINE
  5
1328
  8
3
 10
53.553686760616863
 20
94.661712507692187
 30
0.0
 11
53.553686760616863
 21
93.483525596038007
 31
0.0
  0
LINE
  5
1329
  8
3
 10
34.492412958751167
 20
100.81685892937131
 30
0.0
 11
34.492412958751167
 21
101.9950458410254
 31
0.0
  0
LINE
  5
132A
  8
3
 10
34.492412958751167
 20
98.983525596038021
 30
0.0
 11
34.492412958751167
 21
100.1617125076922
 31
0.0
  0
LINE
  5
132B
  8
3
 10
34.492412958751167
 20
97.15019226270465
 30
0.0
 11
34.492412958751167
 21
98.328379174358815
 31
0.0
  0
LINE
  5
132C
  8
3
 10
34.492412958751167
 20
95.316858929371278
 30
0.0
 11
34.492412958751167
 21
96.495045841025444
 31
0.0
  0
LINE
  5
132D
  8
3
 10
34.492412958751167
 20
93.483525596038007
 30
0.0
 11
34.492412958751167
 21
94.661712507692187
 31
0.0
  0
LINE
  5
132E
  8
3
 10
34.492412958751167
 20
91.650192262704635
 30
0.0
 11
34.492412958751167
 21
92.828379174358815
 31
0.0
  0
LINE
  5
132F
  8
3
 10
34.856383193017336
 20
90.752140269546814
 30
0.0
 11
34.856383193017336
 21
102.9130978341833
 31
0.0
  0
LINE
  5
1330
  8
3
 10
52.825746292084538
 20
90.236215825939269
 30
0.0
 11
52.825746292084538
 21
90.995045841025444
 31
0.0
  0
LINE
  5
1331
  8
3
 10
53.189716526350701
 20
90.752140269546814
 30
0.0
 11
53.189716526350701
 21
102.9130978341833
 31
0.0
  0
LINE
  5
1332
  8
3
 10
52.825746292084538
 20
102.65019226270461
 30
0.0
 11
52.825746292084538
 21
103.42902227779081
 31
0.0
  0
LINE
  5
1333
  8
3
 10
52.825746292084538
 20
100.81685892937131
 30
0.0
 11
52.825746292084538
 21
101.9950458410254
 31
0.0
  0
LINE
  5
1334
  8
3
 10
52.825746292084538
 20
98.983525596038021
 30
0.0
 11
52.825746292084538
 21
100.1617125076922
 31
0.0
  0
LINE
  5
1335
  8
3
 10
52.825746292084538
 20
97.15019226270465
 30
0.0
 11
52.825746292084538
 21
98.328379174358815
 31
0.0
  0
LINE
  5
1336
  8
3
 10
52.825746292084538
 20
95.316858929371278
 30
0.0
 11
52.825746292084538
 21
96.495045841025444
 31
0.0
  0
LINE
  5
1337
  8
3
 10
52.825746292084538
 20
93.483525596038007
 30
0.0
 11
52.825746292084538
 21
94.661712507692187
 31
0.0
  0
LINE
  5
1338
  8
3
 10
52.825746292084538
 20
91.650192262704635
 30
0.0
 11
52.825746292084538
 21
92.828379174358815
 31
0.0
  0
LINE
  5
1339
  8
3
 10
51.720353427283612
 20
104.6908324485742
 30
0.0
 11
51.720353427283612
 21
104.48352559603801
 31
0.0
  0
LINE
  5
133A
  8
3
 10
51.720353427283612
 20
103.8283791743588
 30
0.0
 11
51.720353427283612
 21
102.65019226270461
 31
0.0
  0
LINE
  5
133B
  8
3
 10
51.720353427283612
 20
101.9950458410254
 30
0.0
 11
51.720353427283612
 21
100.81685892937131
 31
0.0
  0
LINE
  5
133C
  8
3
 10
51.720353427283612
 20
100.1617125076922
 30
0.0
 11
51.720353427283612
 21
98.983525596038021
 31
0.0
  0
LINE
  5
133D
  8
3
 10
51.720353427283612
 20
98.328379174358815
 30
0.0
 11
51.720353427283612
 21
97.15019226270465
 31
0.0
  0
LINE
  5
133E
  8
3
 10
51.720353427283612
 20
96.495045841025444
 30
0.0
 11
51.720353427283612
 21
95.316858929371278
 31
0.0
  0
LINE
  5
133F
  8
3
 10
51.720353427283612
 20
92.828379174358815
 30
0.0
 11
51.720353427283612
 21
91.650192262704635
 31
0.0
  0
LINE
  5
1340
  8
3
 10
51.720353427283612
 20
94.661712507692187
 30
0.0
 11
51.720353427283612
 21
93.483525596038007
 31
0.0
  0
LINE
  5
1341
  8
3
 10
51.720353427283612
 20
89.161712507692187
 30
0.0
 11
51.720353427283612
 21
88.974405655155934
 31
0.0
  0
LINE
  5
1342
  8
3
 10
36.325746292084553
 20
104.48352559603801
 30
0.0
 11
36.325746292084553
 21
104.6908324485742
 31
0.0
  0
LINE
  5
1343
  8
3
 10
36.325746292084553
 20
102.65019226270461
 30
0.0
 11
36.325746292084553
 21
103.8283791743588
 31
0.0
  0
LINE
  5
1344
  8
3
 10
35.220353427283612
 20
103.42902227779081
 30
0.0
 11
35.220353427283612
 21
102.65019226270461
 31
0.0
  0
LINE
  5
1345
  8
3
 10
36.325746292084553
 20
100.81685892937131
 30
0.0
 11
36.325746292084553
 21
101.9950458410254
 31
0.0
  0
LINE
  5
1346
  8
3
 10
35.220353427283612
 20
101.9950458410254
 30
0.0
 11
35.220353427283612
 21
100.81685892937131
 31
0.0
  0
LINE
  5
1347
  8
3
 10
36.325746292084553
 20
98.983525596038021
 30
0.0
 11
36.325746292084553
 21
100.1617125076922
 31
0.0
  0
LINE
  5
1348
  8
3
 10
35.220353427283612
 20
100.1617125076922
 30
0.0
 11
35.220353427283612
 21
98.983525596038021
 31
0.0
  0
LINE
  5
1349
  8
3
 10
36.325746292084553
 20
97.15019226270465
 30
0.0
 11
36.325746292084553
 21
98.328379174358815
 31
0.0
  0
LINE
  5
134A
  8
3
 10
35.220353427283612
 20
98.328379174358815
 30
0.0
 11
35.220353427283612
 21
97.15019226270465
 31
0.0
  0
LINE
  5
134B
  8
3
 10
36.325746292084553
 20
95.316858929371278
 30
0.0
 11
36.325746292084553
 21
96.495045841025444
 31
0.0
  0
LINE
  5
134C
  8
3
 10
35.220353427283612
 20
96.495045841025444
 30
0.0
 11
35.220353427283612
 21
95.316858929371278
 31
0.0
  0
LINE
  5
134D
  8
3
 10
36.325746292084553
 20
93.483525596038007
 30
0.0
 11
36.325746292084553
 21
94.661712507692187
 31
0.0
  0
LINE
  5
134E
  8
3
 10
35.220353427283612
 20
94.661712507692187
 30
0.0
 11
35.220353427283612
 21
93.483525596038007
 31
0.0
  0
LINE
  5
134F
  8
3
 10
36.325746292084553
 20
91.650192262704635
 30
0.0
 11
36.325746292084553
 21
92.828379174358815
 31
0.0
  0
LINE
  5
1350
  8
3
 10
35.220353427283612
 20
92.828379174358815
 30
0.0
 11
35.220353427283612
 21
91.650192262704635
 31
0.0
  0
LINE
  5
1351
  8
3
 10
36.325746292084553
 20
88.974405655155934
 30
0.0
 11
36.325746292084553
 21
89.161712507692187
 31
0.0
  0
LINE
  5
1352
  8
3
 10
36.325746292084553
 20
89.816858929371264
 30
0.0
 11
36.325746292084553
 21
90.995045841025444
 31
0.0
  0
LINE
  5
1353
  8
3
 10
35.220353427283612
 20
90.995045841025444
 30
0.0
 11
35.220353427283612
 21
90.236215825939269
 31
0.0
  0
LINE
  5
1354
  8
3
 10
36.689716526350708
 20
88.633703134365874
 30
0.0
 11
36.689716526350708
 21
105.0315349693643
 31
0.0
  0
LINE
  5
1355
  8
3
 10
50.992412958751167
 20
88.322156197627237
 30
0.0
 11
50.992412958751167
 21
89.161712507692187
 31
0.0
  0
LINE
  5
1356
  8
3
 10
51.356383193017329
 20
88.633703134365874
 30
0.0
 11
51.356383193017329
 21
105.0315349693643
 31
0.0
  0
LINE
  5
1357
  8
3
 10
50.992412958751167
 20
104.48352559603801
 30
0.0
 11
50.992412958751167
 21
105.3430819061028
 31
0.0
  0
LINE
  5
1358
  8
3
 10
50.992412958751167
 20
102.65019226270461
 30
0.0
 11
50.992412958751167
 21
103.8283791743588
 31
0.0
  0
LINE
  5
1359
  8
3
 10
50.992412958751167
 20
100.81685892937131
 30
0.0
 11
50.992412958751167
 21
101.9950458410254
 31
0.0
  0
LINE
  5
135A
  8
3
 10
50.992412958751167
 20
98.983525596038021
 30
0.0
 11
50.992412958751167
 21
100.1617125076922
 31
0.0
  0
LINE
  5
135B
  8
3
 10
50.992412958751167
 20
97.15019226270465
 30
0.0
 11
50.992412958751167
 21
98.328379174358815
 31
0.0
  0
LINE
  5
135C
  8
3
 10
50.992412958751167
 20
95.316858929371278
 30
0.0
 11
50.992412958751167
 21
96.495045841025444
 31
0.0
  0
LINE
  5
135D
  8
3
 10
50.992412958751167
 20
93.483525596038007
 30
0.0
 11
50.992412958751167
 21
94.661712507692187
 31
0.0
  0
LINE
  5
135E
  8
3
 10
50.992412958751167
 20
91.650192262704635
 30
0.0
 11
50.992412958751167
 21
92.828379174358815
 31
0.0
  0
LINE
  5
135F
  8
3
 10
50.992412958751167
 20
89.816858929371264
 30
0.0
 11
50.992412958751167
 21
90.995045841025444
 31
0.0
  0
LINE
  5
1360
  8
3
 10
49.887020093950241
 20
105.6617125076922
 30
0.0
 11
49.887020093950241
 21
104.48352559603801
 31
0.0
  0
LINE
  5
1361
  8
3
 10
49.887020093950241
 20
103.8283791743588
 30
0.0
 11
49.887020093950241
 21
102.65019226270461
 31
0.0
  0
LINE
  5
1362
  8
3
 10
49.887020093950241
 20
101.9950458410254
 30
0.0
 11
49.887020093950241
 21
100.81685892937131
 31
0.0
  0
LINE
  5
1363
  8
3
 10
49.887020093950241
 20
100.1617125076922
 30
0.0
 11
49.887020093950241
 21
98.983525596038021
 31
0.0
  0
LINE
  5
1364
  8
3
 10
49.887020093950241
 20
98.328379174358815
 30
0.0
 11
49.887020093950241
 21
97.15019226270465
 31
0.0
  0
LINE
  5
1365
  8
3
 10
49.887020093950241
 20
96.495045841025444
 30
0.0
 11
49.887020093950241
 21
95.316858929371278
 31
0.0
  0
LINE
  5
1366
  8
3
 10
49.887020093950241
 20
94.661712507692187
 30
0.0
 11
49.887020093950241
 21
93.483525596038007
 31
0.0
  0
LINE
  5
1367
  8
3
 10
49.887020093950241
 20
90.995045841025444
 30
0.0
 11
49.887020093950241
 21
89.816858929371264
 31
0.0
  0
LINE
  5
1368
  8
3
 10
49.887020093950241
 20
92.828379174358815
 30
0.0
 11
49.887020093950241
 21
91.650192262704635
 31
0.0
  0
LINE
  5
1369
  8
3
 10
38.15907962541781
 20
104.48352559603801
 30
0.0
 11
38.15907962541781
 21
105.6617125076922
 31
0.0
  0
LINE
  5
136A
  8
3
 10
37.05368676061687
 20
105.3430819061028
 30
0.0
 11
37.05368676061687
 21
104.48352559603801
 31
0.0
  0
LINE
  5
136B
  8
3
 10
38.15907962541781
 20
102.65019226270461
 30
0.0
 11
38.15907962541781
 21
103.8283791743588
 31
0.0
  0
LINE
  5
136C
  8
3
 10
37.05368676061687
 20
103.8283791743588
 30
0.0
 11
37.05368676061687
 21
102.65019226270461
 31
0.0
  0
LINE
  5
136D
  8
3
 10
38.15907962541781
 20
100.81685892937131
 30
0.0
 11
38.15907962541781
 21
101.9950458410254
 31
0.0
  0
LINE
  5
136E
  8
3
 10
37.05368676061687
 20
101.9950458410254
 30
0.0
 11
37.05368676061687
 21
100.81685892937131
 31
0.0
  0
LINE
  5
136F
  8
3
 10
38.15907962541781
 20
98.983525596038021
 30
0.0
 11
38.15907962541781
 21
100.1617125076922
 31
0.0
  0
LINE
  5
1370
  8
3
 10
37.05368676061687
 20
100.1617125076922
 30
0.0
 11
37.05368676061687
 21
98.983525596038021
 31
0.0
  0
LINE
  5
1371
  8
3
 10
38.15907962541781
 20
97.15019226270465
 30
0.0
 11
38.15907962541781
 21
98.328379174358815
 31
0.0
  0
LINE
  5
1372
  8
3
 10
37.05368676061687
 20
98.328379174358815
 30
0.0
 11
37.05368676061687
 21
97.15019226270465
 31
0.0
  0
LINE
  5
1373
  8
3
 10
38.15907962541781
 20
95.316858929371278
 30
0.0
 11
38.15907962541781
 21
96.495045841025444
 31
0.0
  0
LINE
  5
1374
  8
3
 10
37.05368676061687
 20
96.495045841025444
 30
0.0
 11
37.05368676061687
 21
95.316858929371278
 31
0.0
  0
LINE
  5
1375
  8
3
 10
38.15907962541781
 20
93.483525596038007
 30
0.0
 11
38.15907962541781
 21
94.661712507692187
 31
0.0
  0
LINE
  5
1376
  8
3
 10
37.05368676061687
 20
94.661712507692187
 30
0.0
 11
37.05368676061687
 21
93.483525596038007
 31
0.0
  0
LINE
  5
1377
  8
3
 10
38.15907962541781
 20
91.650192262704635
 30
0.0
 11
38.15907962541781
 21
92.828379174358815
 31
0.0
  0
LINE
  5
1378
  8
3
 10
37.05368676061687
 20
92.828379174358815
 30
0.0
 11
37.05368676061687
 21
91.650192262704635
 31
0.0
  0
LINE
  5
1379
  8
3
 10
38.15907962541781
 20
89.816858929371264
 30
0.0
 11
38.15907962541781
 21
90.995045841025444
 31
0.0
  0
LINE
  5
137A
  8
3
 10
37.05368676061687
 20
90.995045841025444
 30
0.0
 11
37.05368676061687
 21
89.816858929371264
 31
0.0
  0
LINE
  5
137B
  8
3
 10
38.15907962541781
 20
87.983525596038021
 30
0.0
 11
38.15907962541781
 21
89.161712507692187
 31
0.0
  0
LINE
  5
137C
  8
3
 10
37.05368676061687
 20
89.161712507692187
 30
0.0
 11
37.05368676061687
 21
88.322156197627237
 31
0.0
  0
LINE
  5
137D
  8
3
 10
38.523049859683972
 20
87.306339610236265
 30
0.0
 11
38.523049859683972
 21
106.3588984934939
 31
0.0
  0
LINE
  5
137E
  8
3
 10
39.992412958751181
 20
106.31685892937131
 30
0.0
 11
39.992412958751181
 21
107.06755755548279
 31
0.0
  0
LINE
  5
137F
  8
3
 10
38.887020093950241
 20
106.55996186712019
 30
0.0
 11
38.887020093950241
 21
106.31685892937131
 31
0.0
  0
LINE
  5
1380
  8
3
 10
39.992412958751181
 20
104.48352559603801
 30
0.0
 11
39.992412958751181
 21
105.6617125076922
 31
0.0
  0
LINE
  5
1381
  8
3
 10
38.887020093950241
 20
105.6617125076922
 30
0.0
 11
38.887020093950241
 21
104.48352559603801
 31
0.0
  0
LINE
  5
1382
  8
3
 10
39.992412958751181
 20
102.65019226270461
 30
0.0
 11
39.992412958751181
 21
103.8283791743588
 31
0.0
  0
LINE
  5
1383
  8
3
 10
38.887020093950241
 20
103.8283791743588
 30
0.0
 11
38.887020093950241
 21
102.65019226270461
 31
0.0
  0
LINE
  5
1384
  8
3
 10
39.992412958751181
 20
100.81685892937131
 30
0.0
 11
39.992412958751181
 21
101.9950458410254
 31
0.0
  0
LINE
  5
1385
  8
3
 10
38.887020093950241
 20
101.9950458410254
 30
0.0
 11
38.887020093950241
 21
100.81685892937131
 31
0.0
  0
LINE
  5
1386
  8
3
 10
39.992412958751181
 20
98.983525596038021
 30
0.0
 11
39.992412958751181
 21
100.1617125076922
 31
0.0
  0
LINE
  5
1387
  8
3
 10
38.887020093950241
 20
100.1617125076922
 30
0.0
 11
38.887020093950241
 21
98.983525596038021
 31
0.0
  0
LINE
  5
1388
  8
3
 10
39.992412958751181
 20
97.15019226270465
 30
0.0
 11
39.992412958751181
 21
98.328379174358815
 31
0.0
  0
LINE
  5
1389
  8
3
 10
38.887020093950241
 20
98.328379174358815
 30
0.0
 11
38.887020093950241
 21
97.15019226270465
 31
0.0
  0
LINE
  5
138A
  8
3
 10
39.992412958751181
 20
95.316858929371278
 30
0.0
 11
39.992412958751181
 21
96.495045841025444
 31
0.0
  0
LINE
  5
138B
  8
3
 10
38.887020093950241
 20
96.495045841025444
 30
0.0
 11
38.887020093950241
 21
95.316858929371278
 31
0.0
  0
LINE
  5
138C
  8
3
 10
39.992412958751181
 20
93.483525596038007
 30
0.0
 11
39.992412958751181
 21
94.661712507692187
 31
0.0
  0
LINE
  5
138D
  8
3
 10
38.887020093950241
 20
94.661712507692187
 30
0.0
 11
38.887020093950241
 21
93.483525596038007
 31
0.0
  0
LINE
  5
138E
  8
3
 10
39.992412958751181
 20
91.650192262704635
 30
0.0
 11
39.992412958751181
 21
92.828379174358815
 31
0.0
  0
LINE
  5
138F
  8
3
 10
38.887020093950241
 20
92.828379174358815
 30
0.0
 11
38.887020093950241
 21
91.650192262704635
 31
0.0
  0
LINE
  5
1390
  8
3
 10
39.992412958751181
 20
89.816858929371264
 30
0.0
 11
39.992412958751181
 21
90.995045841025444
 31
0.0
  0
LINE
  5
1391
  8
3
 10
38.887020093950241
 20
90.995045841025444
 30
0.0
 11
38.887020093950241
 21
89.816858929371264
 31
0.0
  0
LINE
  5
1392
  8
3
 10
38.887020093950241
 20
87.328379174358815
 30
0.0
 11
38.887020093950241
 21
87.105276236609882
 31
0.0
  0
LINE
  5
1393
  8
3
 10
39.992412958751181
 20
86.59768054824724
 30
0.0
 11
39.992412958751181
 21
87.328379174358815
 31
0.0
  0
LINE
  5
1394
  8
3
 10
39.992412958751181
 20
87.983525596038021
 30
0.0
 11
39.992412958751181
 21
89.161712507692187
 31
0.0
  0
LINE
  5
1395
  8
3
 10
38.887020093950241
 20
89.161712507692187
 30
0.0
 11
38.887020093950241
 21
87.983525596038021
 31
0.0
  0
LINE
  5
1396
  8
3
 10
40.356383193017336
 20
86.461719594462352
 30
0.0
 11
40.356383193017336
 21
107.2035185092677
 31
0.0
  0
LINE
  5
1397
  8
3
 10
47.325746292084538
 20
86.340136205779061
 30
0.0
 11
47.325746292084538
 21
87.328379174358815
 31
0.0
  0
LINE
  5
1398
  8
3
 10
47.689716526350701
 20
86.461719594462352
 30
0.0
 11
47.689716526350701
 21
107.2035185092677
 31
0.0
  0
LINE
  5
1399
  8
3
 10
47.325746292084538
 20
106.31685892937131
 30
0.0
 11
47.325746292084538
 21
107.3251018979511
 31
0.0
  0
LINE
  5
139A
  8
3
 10
47.325746292084538
 20
104.48352559603801
 30
0.0
 11
47.325746292084538
 21
105.6617125076922
 31
0.0
  0
LINE
  5
139B
  8
3
 10
47.325746292084538
 20
102.65019226270461
 30
0.0
 11
47.325746292084538
 21
103.8283791743588
 31
0.0
  0
LINE
  5
139C
  8
3
 10
47.325746292084538
 20
100.81685892937131
 30
0.0
 11
47.325746292084538
 21
101.9950458410254
 31
0.0
  0
LINE
  5
139D
  8
3
 10
47.325746292084538
 20
98.983525596038021
 30
0.0
 11
47.325746292084538
 21
100.1617125076922
 31
0.0
  0
LINE
  5
139E
  8
3
 10
47.325746292084538
 20
97.15019226270465
 30
0.0
 11
47.325746292084538
 21
98.328379174358815
 31
0.0
  0
LINE
  5
139F
  8
3
 10
47.325746292084538
 20
95.316858929371278
 30
0.0
 11
47.325746292084538
 21
96.495045841025444
 31
0.0
  0
LINE
  5
13A0
  8
3
 10
47.325746292084538
 20
93.483525596038007
 30
0.0
 11
47.325746292084538
 21
94.661712507692187
 31
0.0
  0
LINE
  5
13A1
  8
3
 10
47.325746292084538
 20
91.650192262704635
 30
0.0
 11
47.325746292084538
 21
92.828379174358815
 31
0.0
  0
LINE
  5
13A2
  8
3
 10
47.325746292084538
 20
89.816858929371264
 30
0.0
 11
47.325746292084538
 21
90.995045841025444
 31
0.0
  0
LINE
  5
13A3
  8
3
 10
47.325746292084538
 20
87.983525596038021
 30
0.0
 11
47.325746292084538
 21
89.161712507692187
 31
0.0
  0
LINE
  5
13A4
  8
3
 10
49.159079625417803
 20
106.31685892937131
 30
0.0
 11
49.159079625417803
 21
106.55996186712019
 31
0.0
  0
LINE
  5
13A5
  8
3
 10
48.05368676061687
 20
107.06755755548279
 30
0.0
 11
48.05368676061687
 21
106.31685892937131
 31
0.0
  0
LINE
  5
13A6
  8
3
 10
49.159079625417803
 20
104.48352559603801
 30
0.0
 11
49.159079625417803
 21
105.6617125076922
 31
0.0
  0
LINE
  5
13A7
  8
3
 10
48.05368676061687
 20
105.6617125076922
 30
0.0
 11
48.05368676061687
 21
104.48352559603801
 31
0.0
  0
LINE
  5
13A8
  8
3
 10
49.159079625417803
 20
102.65019226270461
 30
0.0
 11
49.159079625417803
 21
103.8283791743588
 31
0.0
  0
LINE
  5
13A9
  8
3
 10
48.05368676061687
 20
103.8283791743588
 30
0.0
 11
48.05368676061687
 21
102.65019226270461
 31
0.0
  0
LINE
  5
13AA
  8
3
 10
49.159079625417803
 20
100.81685892937131
 30
0.0
 11
49.159079625417803
 21
101.9950458410254
 31
0.0
  0
LINE
  5
13AB
  8
3
 10
48.05368676061687
 20
101.9950458410254
 30
0.0
 11
48.05368676061687
 21
100.81685892937131
 31
0.0
  0
LINE
  5
13AC
  8
3
 10
49.159079625417803
 20
98.983525596038021
 30
0.0
 11
49.159079625417803
 21
100.1617125076922
 31
0.0
  0
LINE
  5
13AD
  8
3
 10
48.05368676061687
 20
100.1617125076922
 30
0.0
 11
48.05368676061687
 21
98.983525596038021
 31
0.0
  0
LINE
  5
13AE
  8
3
 10
49.159079625417803
 20
97.15019226270465
 30
0.0
 11
49.159079625417803
 21
98.328379174358815
 31
0.0
  0
LINE
  5
13AF
  8
3
 10
48.05368676061687
 20
98.328379174358815
 30
0.0
 11
48.05368676061687
 21
97.15019226270465
 31
0.0
  0
LINE
  5
13B0
  8
3
 10
49.159079625417803
 20
95.316858929371278
 30
0.0
 11
49.159079625417803
 21
96.495045841025444
 31
0.0
  0
LINE
  5
13B1
  8
3
 10
48.05368676061687
 20
96.495045841025444
 30
0.0
 11
48.05368676061687
 21
95.316858929371278
 31
0.0
  0
LINE
  5
13B2
  8
3
 10
49.159079625417803
 20
93.483525596038007
 30
0.0
 11
49.159079625417803
 21
94.661712507692187
 31
0.0
  0
LINE
  5
13B3
  8
3
 10
48.05368676061687
 20
94.661712507692187
 30
0.0
 11
48.05368676061687
 21
93.483525596038007
 31
0.0
  0
LINE
  5
13B4
  8
3
 10
49.159079625417803
 20
91.650192262704635
 30
0.0
 11
49.159079625417803
 21
92.828379174358815
 31
0.0
  0
LINE
  5
13B5
  8
3
 10
48.05368676061687
 20
92.828379174358815
 30
0.0
 11
48.05368676061687
 21
91.650192262704635
 31
0.0
  0
LINE
  5
13B6
  8
3
 10
49.159079625417803
 20
89.816858929371264
 30
0.0
 11
49.159079625417803
 21
90.995045841025444
 31
0.0
  0
LINE
  5
13B7
  8
3
 10
48.05368676061687
 20
90.995045841025444
 30
0.0
 11
48.05368676061687
 21
89.816858929371264
 31
0.0
  0
LINE
  5
13B8
  8
3
 10
48.05368676061687
 20
87.328379174358815
 30
0.0
 11
48.05368676061687
 21
86.59768054824724
 31
0.0
  0
LINE
  5
13B9
  8
3
 10
49.159079625417803
 20
87.105276236609882
 30
0.0
 11
49.159079625417803
 21
87.328379174358815
 31
0.0
  0
LINE
  5
13BA
  8
3
 10
49.159079625417803
 20
87.983525596038021
 30
0.0
 11
49.159079625417803
 21
89.161712507692187
 31
0.0
  0
LINE
  5
13BB
  8
3
 10
48.05368676061687
 20
89.161712507692187
 30
0.0
 11
48.05368676061687
 21
87.983525596038021
 31
0.0
  0
LINE
  5
13BC
  8
3
 10
49.523049859683958
 20
87.306339610236265
 30
0.0
 11
49.523049859683958
 21
106.3588984934939
 31
0.0
  0
LINE
  5
13BD
  8
3
 10
46.220353427283612
 20
107.4950458410254
 30
0.0
 11
46.220353427283612
 21
106.31685892937131
 31
0.0
  0
LINE
  5
13BE
  8
3
 10
46.220353427283612
 20
105.6617125076922
 30
0.0
 11
46.220353427283612
 21
104.48352559603801
 31
0.0
  0
LINE
  5
13BF
  8
3
 10
46.220353427283612
 20
103.8283791743588
 30
0.0
 11
46.220353427283612
 21
102.65019226270461
 31
0.0
  0
LINE
  5
13C0
  8
3
 10
46.220353427283612
 20
101.9950458410254
 30
0.0
 11
46.220353427283612
 21
100.81685892937131
 31
0.0
  0
LINE
  5
13C1
  8
3
 10
46.220353427283612
 20
100.1617125076922
 30
0.0
 11
46.220353427283612
 21
98.983525596038021
 31
0.0
  0
LINE
  5
13C2
  8
3
 10
46.220353427283612
 20
98.328379174358815
 30
0.0
 11
46.220353427283612
 21
97.15019226270465
 31
0.0
  0
LINE
  5
13C3
  8
3
 10
46.220353427283612
 20
96.495045841025444
 30
0.0
 11
46.220353427283612
 21
95.316858929371278
 31
0.0
  0
LINE
  5
13C4
  8
3
 10
46.220353427283612
 20
94.661712507692187
 30
0.0
 11
46.220353427283612
 21
93.483525596038007
 31
0.0
  0
LINE
  5
13C5
  8
3
 10
46.220353427283612
 20
92.828379174358815
 30
0.0
 11
46.220353427283612
 21
91.650192262704635
 31
0.0
  0
LINE
  5
13C6
  8
3
 10
46.220353427283612
 20
89.161712507692187
 30
0.0
 11
46.220353427283612
 21
87.983525596038021
 31
0.0
  0
LINE
  5
13C7
  8
3
 10
46.220353427283612
 20
90.995045841025444
 30
0.0
 11
46.220353427283612
 21
89.816858929371264
 31
0.0
  0
LINE
  5
13C8
  8
3
 10
41.825746292084538
 20
106.31685892937131
 30
0.0
 11
41.825746292084538
 21
107.4950458410254
 31
0.0
  0
LINE
  5
13C9
  8
3
 10
40.720353427283612
 20
107.3251018979511
 30
0.0
 11
40.720353427283612
 21
106.31685892937131
 31
0.0
  0
LINE
  5
13CA
  8
3
 10
41.825746292084538
 20
104.48352559603801
 30
0.0
 11
41.825746292084538
 21
105.6617125076922
 31
0.0
  0
LINE
  5
13CB
  8
3
 10
40.720353427283612
 20
105.6617125076922
 30
0.0
 11
40.720353427283612
 21
104.48352559603801
 31
0.0
  0
LINE
  5
13CC
  8
3
 10
41.825746292084538
 20
102.65019226270461
 30
0.0
 11
41.825746292084538
 21
103.8283791743588
 31
0.0
  0
LINE
  5
13CD
  8
3
 10
40.720353427283612
 20
103.8283791743588
 30
0.0
 11
40.720353427283612
 21
102.65019226270461
 31
0.0
  0
LINE
  5
13CE
  8
3
 10
41.825746292084538
 20
100.81685892937131
 30
0.0
 11
41.825746292084538
 21
101.9950458410254
 31
0.0
  0
LINE
  5
13CF
  8
3
 10
40.720353427283612
 20
101.9950458410254
 30
0.0
 11
40.720353427283612
 21
100.81685892937131
 31
0.0
  0
LINE
  5
13D0
  8
3
 10
41.825746292084538
 20
98.983525596038021
 30
0.0
 11
41.825746292084538
 21
100.1617125076922
 31
0.0
  0
LINE
  5
13D1
  8
3
 10
40.720353427283612
 20
100.1617125076922
 30
0.0
 11
40.720353427283612
 21
98.983525596038021
 31
0.0
  0
LINE
  5
13D2
  8
3
 10
41.825746292084538
 20
97.15019226270465
 30
0.0
 11
41.825746292084538
 21
98.328379174358815
 31
0.0
  0
LINE
  5
13D3
  8
3
 10
40.720353427283612
 20
98.328379174358815
 30
0.0
 11
40.720353427283612
 21
97.15019226270465
 31
0.0
  0
LINE
  5
13D4
  8
3
 10
41.825746292084538
 20
95.316858929371278
 30
0.0
 11
41.825746292084538
 21
96.495045841025444
 31
0.0
  0
LINE
  5
13D5
  8
3
 10
40.720353427283612
 20
96.495045841025444
 30
0.0
 11
40.720353427283612
 21
95.316858929371278
 31
0.0
  0
LINE
  5
13D6
  8
3
 10
41.825746292084538
 20
93.483525596038007
 30
0.0
 11
41.825746292084538
 21
94.661712507692187
 31
0.0
  0
LINE
  5
13D7
  8
3
 10
40.720353427283612
 20
94.661712507692187
 30
0.0
 11
40.720353427283612
 21
93.483525596038007
 31
0.0
  0
LINE
  5
13D8
  8
3
 10
41.825746292084538
 20
91.650192262704635
 30
0.0
 11
41.825746292084538
 21
92.828379174358815
 31
0.0
  0
LINE
  5
13D9
  8
3
 10
40.720353427283612
 20
92.828379174358815
 30
0.0
 11
40.720353427283612
 21
91.650192262704635
 31
0.0
  0
LINE
  5
13DA
  8
3
 10
41.825746292084538
 20
89.816858929371264
 30
0.0
 11
41.825746292084538
 21
90.995045841025444
 31
0.0
  0
LINE
  5
13DB
  8
3
 10
40.720353427283612
 20
90.995045841025444
 30
0.0
 11
40.720353427283612
 21
89.816858929371264
 31
0.0
  0
LINE
  5
13DC
  8
3
 10
41.825746292084538
 20
87.983525596038021
 30
0.0
 11
41.825746292084538
 21
89.161712507692187
 31
0.0
  0
LINE
  5
13DD
  8
3
 10
40.720353427283612
 20
89.161712507692187
 30
0.0
 11
40.720353427283612
 21
87.983525596038021
 31
0.0
  0
LINE
  5
13DE
  8
3
 10
41.825746292084538
 20
86.15019226270465
 30
0.0
 11
41.825746292084538
 21
87.328379174358815
 31
0.0
  0
LINE
  5
13DF
  8
3
 10
40.720353427283612
 20
87.328379174358815
 30
0.0
 11
40.720353427283612
 21
86.340136205779061
 31
0.0
  0
LINE
  5
13E0
  8
3
 10
42.55368676061687
 20
87.328379174358815
 30
0.0
 11
42.55368676061687
 21
86.15019226270465
 31
0.0
  0
LINE
  5
13E1
  8
3
 10
42.55368676061687
 20
89.161712507692187
 30
0.0
 11
42.55368676061687
 21
87.983525596038021
 31
0.0
  0
LINE
  5
13E2
  8
3
 10
42.55368676061687
 20
90.995045841025444
 30
0.0
 11
42.55368676061687
 21
89.816858929371264
 31
0.0
  0
LINE
  5
13E3
  8
3
 10
42.55368676061687
 20
92.828379174358815
 30
0.0
 11
42.55368676061687
 21
91.650192262704635
 31
0.0
  0
LINE
  5
13E4
  8
3
 10
42.55368676061687
 20
94.661712507692187
 30
0.0
 11
42.55368676061687
 21
93.483525596038007
 31
0.0
  0
LINE
  5
13E5
  8
3
 10
42.55368676061687
 20
96.495045841025444
 30
0.0
 11
42.55368676061687
 21
95.316858929371278
 31
0.0
  0
LINE
  5
13E6
  8
3
 10
42.55368676061687
 20
98.328379174358815
 30
0.0
 11
42.55368676061687
 21
97.15019226270465
 31
0.0
  0
LINE
  5
13E7
  8
3
 10
42.55368676061687
 20
100.1617125076922
 30
0.0
 11
42.55368676061687
 21
98.983525596038021
 31
0.0
  0
LINE
  5
13E8
  8
3
 10
42.55368676061687
 20
101.9950458410254
 30
0.0
 11
42.55368676061687
 21
100.81685892937131
 31
0.0
  0
LINE
  5
13E9
  8
3
 10
42.55368676061687
 20
103.8283791743588
 30
0.0
 11
42.55368676061687
 21
102.65019226270461
 31
0.0
  0
LINE
  5
13EA
  8
3
 10
42.55368676061687
 20
105.6617125076922
 30
0.0
 11
42.55368676061687
 21
104.48352559603801
 31
0.0
  0
LINE
  5
13EB
  8
3
 10
42.55368676061687
 20
107.4950458410254
 30
0.0
 11
42.55368676061687
 21
106.31685892937131
 31
0.0
  0
LINE
  5
13EC
  8
3
 10
42.189716526350708
 20
85.986472782849091
 30
0.0
 11
42.189716526350708
 21
107.678765320881
 31
0.0
  0
LINE
  5
13ED
  8
3
 10
43.659079625417803
 20
106.31685892937131
 30
0.0
 11
43.659079625417803
 21
107.4950458410254
 31
0.0
  0
LINE
  5
13EE
  8
3
 10
43.659079625417803
 20
104.48352559603801
 30
0.0
 11
43.659079625417803
 21
105.6617125076922
 31
0.0
  0
LINE
  5
13EF
  8
3
 10
43.659079625417803
 20
102.65019226270461
 30
0.0
 11
43.659079625417803
 21
103.8283791743588
 31
0.0
  0
LINE
  5
13F0
  8
3
 10
43.659079625417803
 20
100.81685892937131
 30
0.0
 11
43.659079625417803
 21
101.9950458410254
 31
0.0
  0
LINE
  5
13F1
  8
3
 10
43.659079625417803
 20
98.983525596038021
 30
0.0
 11
43.659079625417803
 21
100.1617125076922
 31
0.0
  0
LINE
  5
13F2
  8
3
 10
43.659079625417803
 20
97.15019226270465
 30
0.0
 11
43.659079625417803
 21
98.328379174358815
 31
0.0
  0
LINE
  5
13F3
  8
3
 10
43.659079625417803
 20
95.316858929371278
 30
0.0
 11
43.659079625417803
 21
96.495045841025444
 31
0.0
  0
LINE
  5
13F4
  8
3
 10
43.659079625417803
 20
93.483525596038007
 30
0.0
 11
43.659079625417803
 21
94.661712507692187
 31
0.0
  0
LINE
  5
13F5
  8
3
 10
43.659079625417803
 20
91.650192262704635
 30
0.0
 11
43.659079625417803
 21
92.828379174358815
 31
0.0
  0
LINE
  5
13F6
  8
3
 10
43.659079625417803
 20
89.816858929371264
 30
0.0
 11
43.659079625417803
 21
90.995045841025444
 31
0.0
  0
LINE
  5
13F7
  8
3
 10
43.659079625417803
 20
87.983525596038021
 30
0.0
 11
43.659079625417803
 21
89.161712507692187
 31
0.0
  0
LINE
  5
13F8
  8
3
 10
43.659079625417803
 20
86.15019226270465
 30
0.0
 11
43.659079625417803
 21
87.328379174358815
 31
0.0
  0
LINE
  5
13F9
  8
3
 10
44.387020093950241
 20
87.328379174358815
 30
0.0
 11
44.387020093950241
 21
86.15019226270465
 31
0.0
  0
LINE
  5
13FA
  8
3
 10
44.387020093950241
 20
89.161712507692187
 30
0.0
 11
44.387020093950241
 21
87.983525596038021
 31
0.0
  0
LINE
  5
13FB
  8
3
 10
44.387020093950241
 20
90.995045841025444
 30
0.0
 11
44.387020093950241
 21
89.816858929371264
 31
0.0
  0
LINE
  5
13FC
  8
3
 10
44.387020093950241
 20
92.828379174358815
 30
0.0
 11
44.387020093950241
 21
91.650192262704635
 31
0.0
  0
LINE
  5
13FD
  8
3
 10
44.387020093950241
 20
94.661712507692187
 30
0.0
 11
44.387020093950241
 21
93.483525596038007
 31
0.0
  0
LINE
  5
13FE
  8
3
 10
44.387020093950241
 20
96.495045841025444
 30
0.0
 11
44.387020093950241
 21
95.316858929371278
 31
0.0
  0
LINE
  5
13FF
  8
3
 10
44.387020093950241
 20
98.328379174358815
 30
0.0
 11
44.387020093950241
 21
97.15019226270465
 31
0.0
  0
LINE
  5
1400
  8
3
 10
44.387020093950241
 20
100.1617125076922
 30
0.0
 11
44.387020093950241
 21
98.983525596038021
 31
0.0
  0
LINE
  5
1401
  8
3
 10
44.387020093950241
 20
101.9950458410254
 30
0.0
 11
44.387020093950241
 21
100.81685892937131
 31
0.0
  0
LINE
  5
1402
  8
3
 10
44.387020093950241
 20
103.8283791743588
 30
0.0
 11
44.387020093950241
 21
102.65019226270461
 31
0.0
  0
LINE
  5
1403
  8
3
 10
44.387020093950241
 20
105.6617125076922
 30
0.0
 11
44.387020093950241
 21
104.48352559603801
 31
0.0
  0
LINE
  5
1404
  8
3
 10
44.387020093950241
 20
107.4950458410254
 30
0.0
 11
44.387020093950241
 21
106.31685892937131
 31
0.0
  0
LINE
  5
1405
  8
3
 10
44.023049859683958
 20
85.832619051865095
 30
0.0
 11
44.023049859683958
 21
107.83261905186509
 31
0.0
  0
LINE
  5
1406
  8
3
 10
45.492412958751167
 20
106.31685892937131
 30
0.0
 11
45.492412958751167
 21
107.4950458410254
 31
0.0
  0
LINE
  5
1407
  8
3
 10
45.492412958751167
 20
104.48352559603801
 30
0.0
 11
45.492412958751167
 21
105.6617125076922
 31
0.0
  0
LINE
  5
1408
  8
3
 10
45.492412958751167
 20
102.65019226270461
 30
0.0
 11
45.492412958751167
 21
103.8283791743588
 31
0.0
  0
LINE
  5
1409
  8
3
 10
45.492412958751167
 20
100.81685892937131
 30
0.0
 11
45.492412958751167
 21
101.9950458410254
 31
0.0
  0
LINE
  5
140A
  8
3
 10
45.492412958751167
 20
98.983525596038021
 30
0.0
 11
45.492412958751167
 21
100.1617125076922
 31
0.0
  0
LINE
  5
140B
  8
3
 10
45.492412958751167
 20
97.15019226270465
 30
0.0
 11
45.492412958751167
 21
98.328379174358815
 31
0.0
  0
LINE
  5
140C
  8
3
 10
45.492412958751167
 20
95.316858929371278
 30
0.0
 11
45.492412958751167
 21
96.495045841025444
 31
0.0
  0
LINE
  5
140D
  8
3
 10
45.492412958751167
 20
93.483525596038007
 30
0.0
 11
45.492412958751167
 21
94.661712507692187
 31
0.0
  0
LINE
  5
140E
  8
3
 10
45.492412958751167
 20
91.650192262704635
 30
0.0
 11
45.492412958751167
 21
92.828379174358815
 31
0.0
  0
LINE
  5
140F
  8
3
 10
45.492412958751167
 20
89.816858929371264
 30
0.0
 11
45.492412958751167
 21
90.995045841025444
 31
0.0
  0
LINE
  5
1410
  8
3
 10
45.492412958751167
 20
87.983525596038021
 30
0.0
 11
45.492412958751167
 21
89.161712507692187
 31
0.0
  0
LINE
  5
1411
  8
3
 10
45.492412958751167
 20
86.15019226270465
 30
0.0
 11
45.492412958751167
 21
87.328379174358815
 31
0.0
  0
LINE
  5
1412
  8
3
 10
46.220353427283612
 20
87.328379174358815
 30
0.0
 11
46.220353427283612
 21
86.15019226270465
 31
0.0
  0
LINE
  5
1413
  8
3
 10
45.856383193017329
 20
85.986472782849091
 30
0.0
 11
45.856383193017329
 21
107.678765320881
 31
0.0
  0
LINE
  5
1414
  8
3
 10
49.887020093950241
 20
89.161712507692187
 30
0.0
 11
49.887020093950241
 21
87.983525596038021
 31
0.0
  0
LINE
  5
1415
  8
3
 10
51.720353427283612
 20
90.995045841025444
 30
0.0
 11
51.720353427283612
 21
89.816858929371264
 31
0.0
  0
LINE
  5
1416
  8
3
 10
53.553686760616863
 20
92.828379174358815
 30
0.0
 11
53.553686760616863
 21
91.650192262704635
 31
0.0
  0
CIRCLE
  5
1417
  8
0
 10
44.023049859686573
 20
96.832619051862025
 30
0.0
 40
11.0
  0
LINE
  5
1418
  8
0
 10
44.023049859686687
 20
84.130913129690285
 30
0.0
 11
55.023049859686459
 21
90.481766090776091
 31
0.0
  0
LINE
  5
1419
  8
0
 10
55.023049859686459
 20
90.481766090776091
 30
0.0
 11
55.023049859686459
 21
103.1834720129478
 31
0.0
  0
LINE
  5
141A
  8
0
 10
55.023049859686459
 20
103.1834720129479
 30
0.0
 11
44.023049859686473
 21
109.53432497403379
 31
0.0
  0
LINE
  5
141B
  8
0
 10
33.02304985968658
 20
103.1834720129479
 30
0.0
 11
33.02304985968658
 21
90.481766090776091
 31
0.0
  0
LINE
  5
141C
  8
0
 10
44.023049859686687
 20
109.53432497403379
 30
0.0
 11
33.02304985968658
 21
103.1834720129478
 31
0.0
  0
LINE
  5
141D
  8
0
 10
33.023049859686473
 20
90.481766090776091
 30
0.0
 11
44.023049859686687
 21
84.130913129690285
 31
0.0
  0
LINE
  5
141E
  8
1
 10
28.023049859686459
 20
96.832619051862025
 30
0.0
 11
60.023049859686459
 21
96.832619051862025
 31
0.0
  0
LINE
  5
141F
  8
1
 10
44.023049859686573
 20
78.357410437793988
 30
0.0
 11
44.023049859686473
 21
115.30782766592991
 31
0.0
  0
ARC
  5
1420
  8
0
 10
49.52304985968658
 20
40.284670877457749
 30
0.0
 40
15.88594976736252
 50
69.743841999604015
 51
110.2561580003959
  0
LINE
  5
1421
  8
0
 10
55.023049859686687
 20
56.17062064482031
 30
0.0
 11
54.699520447920463
 21
56.357410437794272
 31
0.0
  0
LINE
  5
1422
  8
0
 10
55.023049859686687
 20
57.357410437794158
 30
0.0
 11
55.02304985968658
 21
39.157410437794233
 31
0.0
  0
LINE
  5
1423
  8
0
 10
44.023049859686573
 20
55.188140272573548
 30
0.0
 11
44.023049859686353
 21
39.15741043779429
 31
0.0
  0
LINE
  5
1424
  8
0
 10
33.023049859686239
 20
57.357410437792559
 30
0.0
 11
33.023049859687148
 21
39.157410437794233
 31
0.0
  0
LINE
  5
1425
  8
0
 10
33.023049859686473
 20
56.17062064482031
 30
0.0
 11
33.346579271452583
 21
56.357410437794272
 31
0.0
  0
ARC
  5
1426
  8
0
 10
38.52304985968658
 20
40.284670877457749
 30
0.0
 40
15.88594976736252
 50
69.743841999604015
 51
110.2561580003959
  0
LINE
  5
1427
  8
0
 10
54.699520447920463
 20
56.357410437794272
 30
0.0
 11
33.346579271452583
 21
56.357410437794272
 31
0.0
  0
LINE
  5
1428
  8
1
 10
44.023049859686573
 20
63.357410437794272
 30
0.0
 11
44.023049859686573
 21
33.357410437794272
 31
0.0
  0
LINE
  5
1429
  8
0
 10
98.724755781858562
 20
56.170620644821163
 30
0.0
 11
98.724755781858562
 21
57.429935663600929
 31
0.0
  0
LINE
  5
142A
  8
0
 10
76.724755781858562
 20
57.484885211989138
 30
0.0
 11
76.724755781858562
 21
56.170620644821383
 31
0.0
  0
LINE
  5
142B
  8
0
 10
100.4264617040302
 20
55.188140272573769
 30
0.0
 11
100.4264617040302
 21
39.157410437794233
 31
0.0
  0
LINE
  5
142C
  8
0
 10
75.023049859686694
 20
55.188140272573889
 30
0.0
 11
75.023049859686694
 21
39.157410437794233
 31
0.0
  0
LINE
  5
142D
  8
1
 10
87.724755781858562
 20
63.357410437794272
 30
0.0
 11
87.724755781858562
 21
33.357410437794272
 31
0.0
  0
ARC
  5
142E
  8
0
 10
78.198476340229377
 20
50.547810598284059
 30
0.0
 40
5.6228100465361432
 50
55.615752531993259
 51
115.6157525321088
  0
ARC
  5
142F
  8
0
 10
87.724755781857652
 20
35.153101017039887
 30
0.0
 40
21.017519627780299
 50
72.412046226029517
 51
107.5879537739705
  0
LINE
  5
1430
  8
0
 10
75.023049859686694
 20
55.188140272573889
 30
0.0
 11
77.048285193622974
 21
56.357410437794393
 31
0.0
  0
LINE
  5
1431
  8
0
 10
100.42646170403
 20
55.188140272573889
 30
0.0
 11
98.401226370093582
 21
56.357410437794393
 31
0.0
  0
ARC
  5
1432
  8
0
 10
97.251035223487065
 20
50.547810598284059
 30
0.0
 40
5.6228100465361432
 50
64.384247467891115
 51
124.38424746800671
  0
LINE
  5
1433
  8
0
 10
77.048285193622974
 20
56.357410437794393
 30
0.0
 11
98.401226370093923
 21
56.357410437794101
 31
0.0
  0
LINE
  5
1434
  8
0
 10
94.075608742945974
 20
55.188140272573101
 30
0.0
 11
94.0756087429437
 21
39.157410437794233
 31
0.0
  0
LINE
  5
1435
  8
0
 10
81.373902820771605
 20
55.188140272573101
 30
0.0
 11
81.373902820773992
 21
39.157410437794233
 31
0.0
  0
LINE
  5
1436
  8
2
 10
92.777755781858559
 20
40.357410437794158
 30
0.0
 11
92.777755781858559
 21
53.357410437794158
 31
0.0
  0
LINE
  5
1437
  8
2
 10
82.671755781858565
 20
53.357410437794158
 30
0.0
 11
92.777755781858559
 21
53.357410437794158
 31
0.0
  0
LINE
  5
1438
  8
2
 10
82.671755781858451
 20
40.357410437794158
 30
0.0
 11
82.671755781858565
 21
53.357410437794158
 31
0.0
  0
LINE
  5
1439
  8
2
 10
49.076049859686691
 20
40.357410437794258
 30
0.0
 11
49.076049859686798
 21
53.357410437794272
 31
0.0
  0
LINE
  5
143A
  8
2
 10
38.970049859686704
 20
40.357410437794258
 30
0.0
 11
38.970049859686704
 21
53.357410437794272
 31
0.0
  0
LINE
  5
143B
  8
2
 10
38.970049859686704
 20
53.357410437794272
 30
0.0
 11
49.076049859686798
 21
53.357410437794272
 31
0.0
  0
LINE
  5
143C
  8
0
 10
33.823049859686762
 20
38.357410437794272
 30
0.0
 11
54.223049859686618
 21
38.357410437794272
 31
0.0
  0
LINE
  5
143D
  8
0
 10
55.02304985968658
 20
39.157410437794233
 30
0.0
 11
54.223049859686618
 21
38.357410437794272
 31
0.0
  0
LINE
  5
143E
  8
0
 10
33.823049859686762
 20
38.357410437794272
 30
0.0
 11
33.023049859686807
 21
39.157410437794233
 31
0.0
  0
LINE
  5
143F
  8
0
 10
33.023049859686807
 20
39.157410437794233
 30
0.0
 11
55.02304985968658
 21
39.157410437794233
 31
0.0
  0
LINE
  5
1440
  8
2
 10
38.02304985968658
 20
39.410410437794269
 30
0.0
 11
38.02304985968658
 21
48.357410437794272
 31
0.0
  0
LINE
  5
1441
  8
2
 10
50.02304985968658
 20
39.410410437794269
 30
0.0
 11
50.023049859686687
 21
48.357410437794272
 31
0.0
  0
LINE
  5
1442
  8
2
 10
38.023049859686807
 20
48.357410437794272
 30
0.0
 11
50.023049859686807
 21
48.357410437794272
 31
0.0
  0
LINE
  5
1443
  8
2
 10
50.023049859686807
 20
48.357410437794272
 30
0.0
 11
49.076049859686798
 21
49.997662552561962
 31
0.0
  0
LINE
  5
1444
  8
2
 10
38.023049859686353
 20
48.357410437794272
 30
0.0
 11
38.970049859686348
 21
49.997662552561962
 31
0.0
  0
LINE
  5
1445
  8
2
 10
51.076049859686691
 20
38.357410437794272
 30
0.0
 11
49.076049859686691
 21
40.357410437794258
 31
0.0
  0
LINE
  5
1446
  8
2
 10
49.076049859686691
 20
40.357410437794258
 30
0.0
 11
38.970049859686704
 21
40.357410437794258
 31
0.0
  0
LINE
  5
1447
  8
2
 10
36.970049859686583
 20
38.357410437794272
 30
0.0
 11
38.970049859686704
 21
40.357410437794258
 31
0.0
  0
LINE
  5
1448
  8
0
 10
75.023049859686125
 20
39.157410437794113
 30
0.0
 11
100.4264617040305
 21
39.157410437794113
 31
0.0
  0
LINE
  5
1449
  8
0
 10
75.823049859686193
 20
38.357410437794158
 30
0.0
 11
75.023049859686125
 21
39.157410437794113
 31
0.0
  0
LINE
  5
144A
  8
0
 10
75.823049859686193
 20
38.357410437794158
 30
0.0
 11
99.626461704030589
 21
38.357410437794158
 31
0.0
  0
LINE
  5
144B
  8
2
 10
80.671755781858337
 20
38.357410437794158
 30
0.0
 11
82.671755781858451
 21
40.357410437794158
 31
0.0
  0
LINE
  5
144C
  8
2
 10
92.777755781858446
 20
40.357410437794158
 30
0.0
 11
82.671755781858451
 21
40.357410437794158
 31
0.0
  0
LINE
  5
144D
  8
2
 10
94.777755781858545
 20
38.357410437794158
 30
0.0
 11
92.777755781858446
 21
40.357410437794158
 31
0.0
  0
LINE
  5
144E
  8
2
 10
81.724755781858235
 20
48.357410437794158
 30
0.0
 11
82.671755781858124
 21
49.997662552561849
 31
0.0
  0
LINE
  5
144F
  8
2
 10
93.724755781858562
 20
48.357410437794158
 30
0.0
 11
92.777755781858559
 21
49.997662552561849
 31
0.0
  0
LINE
  5
1450
  8
2
 10
81.724755781858562
 20
48.357410437794158
 30
0.0
 11
93.724755781858562
 21
48.357410437794158
 31
0.0
  0
LINE
  5
1451
  8
2
 10
93.724755781858448
 20
39.410410437794162
 30
0.0
 11
93.724755781858448
 21
48.357410437794158
 31
0.0
  0
LINE
  5
1452
  8
2
 10
81.724755781858434
 20
39.410410437794162
 30
0.0
 11
81.724755781858434
 21
48.357410437794158
 31
0.0
  0
LINE
  5
1453
  8
0
 10
100.4264617040305
 20
39.157410437794113
 30
0.0
 11
99.626461704030589
 21
38.357410437794158
 31
0.0
  0
LINE
  5
1454
  8
2
 10
49.076049859686918
 20
53.357410437794158
 30
0.0
 11
44.023049859686573
 21
56.393559145740653
 31
0.0
  0
LINE
  5
1455
  8
2
 10
38.970049859686469
 20
53.357410437794272
 30
0.0
 11
44.023049859686573
 21
56.393559145740653
 31
0.0
  0
LINE
  5
1456
  8
2
 10
82.671755781858323
 20
53.357410437794158
 30
0.0
 11
87.724755781858448
 21
56.393559145740532
 31
0.0
  0
LINE
  5
1457
  8
2
 10
92.7777557818589
 20
53.357410437794158
 30
0.0
 11
87.724755781858903
 21
56.393559145740532
 31
0.0
  0
TEXT
  5
1754
  8
0
 62
     3
 10
0.0
 20
0.0
 30
0.0
 40
5.0
  1
BJ812-12020-S
  7
STANDARD1
  0
ENDSEC
  0
EOF
