  0
SECTION
  2
HEADER
  9
$ACADVER
  1
AC1009
  9
$INSBASE
 10
0.0
 20
0.0
 30
0.0
  9
$EXTMIN
 10
0.0
 20
-1.4802182810368341
 30
0.0
  9
$EXTMAX
 10
100.4264617040304
 20
115.30782766593001
 30
0.0
  9
$LIMMIN
 10
0.0
 20
0.0
  9
$LIMMAX
 10
12.0
 20
9.0
  9
$ORTHOMODE
 70
     0
  9
$REGENMODE
 70
     1
  9
$FILLMODE
 70
     1
  9
$QTEXTMODE
 70
     0
  9
$MIRRTEXT
 70
     0
  9
$DRAGMODE
 70
     2
  9
$LTSCALE
 40
5.0
  9
$OSMODE
 70
  3071
  9
$ATTMODE
 70
     1
  9
$TEXTSIZE
 40
0.2
  9
$TRACEWID
 40
0.05
  9
$TEXTSTYLE
  7
STANDARD
  9
$CLAYER
  8
0
  9
$CELTYPE
  6
BYLAYER
  9
$CECOLOR
 62
   256
  9
$DIMSCALE
 40
1.0
  9
$DIMASZ
 40
0.18
  9
$DIMEXO
 40
0.0625
  9
$DIMDLI
 40
0.38
  9
$DIMRND
 40
0.0
  9
$DIMDLE
 40
0.0
  9
$DIMEXE
 40
0.18
  9
$DIMTP
 40
0.0
  9
$DIMTM
 40
0.0
  9
$DIMTXT
 40
0.18
  9
$DIMCEN
 40
0.09
  9
$DIMTSZ
 40
0.0
  9
$DIMTOL
 70
     0
  9
$DIMLIM
 70
     0
  9
$DIMTIH
 70
     1
  9
$DIMTOH
 70
     1
  9
$DIMSE1
 70
     0
  9
$DIMSE2
 70
     0
  9
$DIMTAD
 70
     0
  9
$DIMZIN
 70
     0
  9
$DIMBLK
  1

  9
$DIMASO
 70
     1
  9
$DIMSHO
 70
     1
  9
$DIMPOST
  1

  9
$DIMAPOST
  1

  9
$DIMALT
 70
     0
  9
$DIMALTD
 70
     2
  9
$DIMALTF
 40
25.399999999999999
  9
$DIMLFAC
 40
1.0
  9
$DIMTOFL
 70
     0
  9
$DIMTVP
 40
0.0
  9
$DIMTIX
 70
     0
  9
$DIMSOXD
 70
     0
  9
$DIMSAH
 70
     0
  9
$DIMBLK1
  1

  9
$DIMBLK2
  1

  9
$DIMSTYLE
  2
STANDARD
  9
$DIMCLRD
 70
     0
  9
$DIMCLRE
 70
     0
  9
$DIMCLRT
 70
     0
  9
$DIMTFAC
 40
1.0
  9
$DIMGAP
 40
0.09
  9
$LUNITS
 70
     2
  9
$LUPREC
 70
     4
  9
$SKETCHINC
 40
0.1
  9
$FILLETRAD
 40
0.0
  9
$AUNITS
 70
     0
  9
$AUPREC
 70
     0
  9
$MENU
  1
.
  9
$ELEVATION
 40
0.0
  9
$PELEVATION
 40
0.0
  9
$THICKNESS
 40
0.0
  9
$LIMCHECK
 70
     0
  9
$BLIPMODE
 70
     0
  9
$CHAMFERA
 40
0.0
  9
$CHAMFERB
 40
0.0
  9
$SKPOLY
 70
     0
  9
$TDCREATE
 40
2453083.4120647679
  9
$TDUPDATE
 40
2456598.4309956129
  9
$TDINDWG
 40
0.1545284838
  9
$TDUSRTIMER
 40
0.1545283681
  9
$USRTIMER
 70
     1
  9
$ANGBASE
 50
0.0
  9
$ANGDIR
 70
     0
  9
$PDMODE
 70
     0
  9
$PDSIZE
 40
0.0
  9
$PLINEWID
 40
0.0
  9
$COORDS
 70
     1
  9
$SPLFRAME
 70
     0
  9
$SPLINETYPE
 70
     6
  9
$SPLINESEGS
 70
     8
  9
$ATTDIA
 70
     0
  9
$ATTREQ
 70
     1
  9
$HANDLING
 70
     1
  9
$HANDSEED
  5
C37
  9
$SURFTAB1
 70
     6
  9
$SURFTAB2
 70
     6
  9
$SURFTYPE
 70
     6
  9
$SURFU
 70
     6
  9
$SURFV
 70
     6
  9
$UCSNAME
  2

  9
$UCSORG
 10
0.0
 20
0.0
 30
0.0
  9
$UCSXDIR
 10
1.0
 20
0.0
 30
0.0
  9
$UCSYDIR
 10
0.0
 20
1.0
 30
0.0
  9
$PUCSNAME
  2

  9
$PUCSORG
 10
0.0
 20
0.0
 30
0.0
  9
$PUCSXDIR
 10
1.0
 20
0.0
 30
0.0
  9
$PUCSYDIR
 10
0.0
 20
1.0
 30
0.0
  9
$USERI1
 70
     0
  9
$USERI2
 70
     1
  9
$USERI3
 70
     0
  9
$USERI4
 70
     0
  9
$USERI5
 70
     0
  9
$USERR1
 40
0.0
  9
$USERR2
 40
0.0
  9
$USERR3
 40
0.0
  9
$USERR4
 40
0.0
  9
$USERR5
 40
0.0
  9
$WORLDVIEW
 70
     1
  9
$SHADEDGE
 70
     3
  9
$SHADEDIF
 70
    70
  9
$TILEMODE
 70
     1
  9
$MAXACTVP
 70
    64
  9
$PLIMCHECK
 70
     0
  9
$PEXTMIN
 10
0.0
 20
0.0
 30
0.0
  9
$PEXTMAX
 10
0.0
 20
0.0
 30
0.0
  9
$PLIMMIN
 10
0.0
 20
0.0
  9
$PLIMMAX
 10
12.0
 20
9.0
  9
$UNITMODE
 70
     0
  9
$VISRETAIN
 70
     1
  9
$PLINEGEN
 70
     0
  9
$PSLTSCALE
 70
     1
  0
ENDSEC
  0
SECTION
  2
TABLES
  0
TABLE
  2
VPORT
 70
     1
  0
VPORT
  2
*ACTIVE
 70
     0
 10
0.0
 20
0.0
 11
1.0
 21
1.0
 12
53.44943373230533
 22
56.914941816340708
 13
0.0
 23
0.0
 14
0.5
 24
0.5
 15
0.5
 25
0.5
 16
0.0
 26
0.0
 36
1.0
 17
0.0
 27
0.0
 37
0.0
 40
117.84027921599581
 41
1.831871345029239
 42
50.0
 43
0.0
 44
0.0
 50
0.0
 51
0.0
 71
     0
 72
  1000
 73
     1
 74
     2
 75
     0
 76
     0
 77
     0
 78
     0
  0
ENDTAB
  0
TABLE
  2
LTYPE
 70
     4
  0
LTYPE
  2
CONTINUOUS
 70
     0
  3
Solid Line
 72
    65
 73
     0
 40
0.0
  0
LTYPE
  2
CENTER
 70
     0
  3
____ _ ____ _ ____ _ ____ _ ____ _ ____ _ ____
 72
    65
 73
     4
 40
2.0
 49
1.25
 49
-0.25
 49
0.25
 49
-0.25
  0
LTYPE
  2
HIDDEN
 70
     0
  3
_ _ _ _ _ _ _ _ _ _ _ _ _ _ _ _ _ _ _ _ _ _ _
 72
    65
 73
     2
 40
0.375
 49
0.25
 49
-0.125
  0
LTYPE
  2
PHANTOM2
 70
     0
  3
___ _ _ ___ _ _ ___ _ _ ___ _ _
 72
    65
 73
     6
 40
1.25
 49
0.625
 49
-0.125
 49
0.125
 49
-0.125
 49
0.125
 49
-0.125
  0
ENDTAB
  0
TABLE
  2
LAYER
 70
     3
  0
LAYER
  2
0
 70
     0
 62
     7
  6
CONTINUOUS
  0
LAYER
  2
1
 70
     0
 62
     1
  6
CENTER
  0
LAYER
  2
2
 70
     0
 62
     2
  6
HIDDEN
  0
ENDTAB
  0
TABLE
  2
STYLE
 70
     2
  0
STYLE
  2
STANDARD
 70
     0
 40
0.0
 41
1.0
 50
0.0
 71
     0
 42
0.2
  3
simplex.shx
  4
bigfont.shx
  0
STYLE
  2
STANDARD1
 70
     0
 40
0.0
 41
1.0
 50
0.0
 71
     0
 42
3.0
  3
txt
  4

  0
ENDTAB
  0
TABLE
  2
VIEW
 70
     0
  0
ENDTAB
  0
TABLE
  2
UCS
 70
     0
  0
ENDTAB
  0
TABLE
  2
APPID
 70
     3
  0
APPID
  2
ACAD
 70
     0
  0
APPID
  2
ACAD_MLEADERVER
 70
     0
  0
APPID
  2
ACAD_NAV_VCDISPLAY
 70
     0
  0
ENDTAB
  0
TABLE
  2
DIMSTYLE
 70
     1
  0
DIMSTYLE
  2
STANDARD
 70
     0
  3

  4

  5

  6

  7

 40
1.0
 41
0.18
 42
0.0625
 43
0.38
 44
0.18
 45
0.0
 46
0.0
 47
0.0
 48
0.0
140
0.18
141
0.09
142
0.0
143
25.399999999999999
144
1.0
145
0.0
146
1.0
147
0.09
 71
     0
 72
     0
 73
     1
 74
     1
 75
     0
 76
     0
 77
     0
 78
     0
170
     0
171
     2
172
     0
173
     0
174
     0
175
     0
176
     0
177
     0
178
     0
  0
ENDTAB
  0
ENDSEC
  0
SECTION
  2
BLOCKS
  0
BLOCK
  8
0
  2
$MODEL_SPACE
 70
     0
 10
0.0
 20
0.0
 30
0.0
  3
$MODEL_SPACE
  1

  0
ENDBLK
  5
21
  8
0
  0
BLOCK
 67
     1
  8
0
  2
$PAPER_SPACE
 70
     0
 10
0.0
 20
0.0
 30
0.0
  3
$PAPER_SPACE
  1

  0
ENDBLK
  5
5B
 67
     1
  8
0
  0
ENDSEC
  0
SECTION
  2
ENTITIES
  0
LINE
  5
75F
  8
0
 10
44.023049859685379
 20
84.130913129690285
 30
0.0
 11
55.023049859685209
 21
90.481766090776091
 31
0.0
  0
LINE
  5
760
  8
0
 10
55.023049859685209
 20
90.481766090776091
 30
0.0
 11
55.023049859685273
 21
103.1834720129479
 31
0.0
  0
LINE
  5
761
  8
0
 10
55.023049859685273
 20
103.1834720129479
 30
0.0
 11
44.023049859685273
 21
109.53432497403379
 31
0.0
  0
LINE
  5
762
  8
0
 10
33.023049859685329
 20
103.1834720129479
 30
0.0
 11
33.023049859685329
 21
90.481766090776134
 31
0.0
  0
LINE
  5
763
  8
0
 10
44.023049859685379
 20
109.53432497403379
 30
0.0
 11
33.023049859685329
 21
103.1834720129479
 31
0.0
  0
LINE
  5
764
  8
0
 10
33.02304985968528
 20
90.481766090776134
 30
0.0
 11
44.023049859685379
 21
84.130913129690285
 31
0.0
  0
LINE
  5
765
  8
1
 10
28.023049859685269
 20
96.832619051862025
 30
0.0
 11
60.023049859685209
 21
96.832619051862025
 31
0.0
  0
LINE
  5
766
  8
1
 10
44.023049859685329
 20
78.357410437794044
 30
0.0
 11
44.023049859685273
 21
115.30782766593001
 31
0.0
  0
LINE
  5
9F5
  8
2
 10
92.777755781858787
 20
53.357410437794158
 30
0.0
 11
87.724755781858747
 21
56.393559145740532
 31
0.0
  0
LINE
  5
9F6
  8
2
 10
92.777755781858446
 20
35.357410437794186
 30
0.0
 11
92.777755781858517
 21
53.357410437794158
 31
0.0
  0
LINE
  5
9F7
  8
2
 10
82.671755781858451
 20
53.357410437794158
 30
0.0
 11
92.777755781858517
 21
53.357410437794158
 31
0.0
  0
LINE
  5
9F8
  8
2
 10
82.67175578185828
 20
35.35741043779413
 30
0.0
 11
82.671755781858451
 21
53.357410437794158
 31
0.0
  0
LINE
  5
9F9
  8
2
 10
82.671755781858224
 20
53.357410437794158
 30
0.0
 11
87.724755781858278
 21
56.393559145740532
 31
0.0
  0
LINE
  5
9FA
  8
2
 10
49.076049859686457
 20
35.357410437794329
 30
0.0
 11
49.076049859686691
 21
53.357410437794272
 31
0.0
  0
LINE
  5
9FB
  8
2
 10
49.076049859686741
 20
53.357410437794158
 30
0.0
 11
44.023049859686473
 21
56.393559145740653
 31
0.0
  0
LINE
  5
9FC
  8
2
 10
38.970049859686469
 20
35.357410437794222
 30
0.0
 11
38.97004985968664
 21
53.357410437794272
 31
0.0
  0
LINE
  5
9FD
  8
2
 10
38.97004985968664
 20
53.357410437794272
 30
0.0
 11
49.076049859686691
 21
53.357410437794272
 31
0.0
  0
LINE
  5
9FE
  8
2
 10
38.970049859686412
 20
53.357410437794272
 30
0.0
 11
44.023049859686473
 21
56.393559145740653
 31
0.0
  0
LINE
  5
9FF
  8
0
 10
33.823049859686712
 20
33.357410437794272
 30
0.0
 11
54.223049859686512
 21
33.357410437794272
 31
0.0
  0
LINE
  5
A00
  8
0
 10
55.02304985968653
 20
34.157410437794233
 30
0.0
 11
54.223049859686512
 21
33.357410437794272
 31
0.0
  0
LINE
  5
A01
  8
0
 10
33.823049859686712
 20
33.357410437794272
 30
0.0
 11
33.023049859686701
 21
34.157410437794233
 31
0.0
  0
LINE
  5
A02
  8
0
 10
33.023049859686701
 20
34.157410437794233
 30
0.0
 11
55.02304985968653
 21
34.157410437794233
 31
0.0
  0
LINE
  5
A03
  8
2
 10
38.02304985968658
 20
34.410410437794383
 30
0.0
 11
38.023049859686459
 21
48.357410437794272
 31
0.0
  0
LINE
  5
A04
  8
2
 10
50.023049859686459
 20
34.410410437794269
 30
0.0
 11
50.02304985968658
 21
48.357410437794272
 31
0.0
  0
LINE
  5
A05
  8
2
 10
38.023049859686637
 20
48.357410437794272
 30
0.0
 11
50.02304985968663
 21
48.357410437794272
 31
0.0
  0
LINE
  5
A06
  8
2
 10
50.02304985968663
 20
48.357410437794272
 30
0.0
 11
49.076049859686691
 21
49.997662552561962
 31
0.0
  0
LINE
  5
A07
  8
2
 10
38.023049859686303
 20
48.357410437794272
 30
0.0
 11
38.970049859686242
 21
49.997662552561962
 31
0.0
  0
LINE
  5
A08
  8
2
 10
51.076049859686577
 20
33.357410437794272
 30
0.0
 11
49.07604985968652
 21
35.357410437794272
 31
0.0
  0
LINE
  5
A09
  8
2
 10
49.07604985968652
 20
35.357410437794272
 30
0.0
 11
38.970049859686533
 21
35.357410437794272
 31
0.0
  0
LINE
  5
A0A
  8
2
 10
36.970049859686469
 20
33.357410437794272
 30
0.0
 11
38.970049859686533
 21
35.357410437794272
 31
0.0
  0
LINE
  5
A0B
  8
0
 10
75.023049859686054
 20
34.157410437794113
 30
0.0
 11
100.4264617040304
 21
34.157410437794113
 31
0.0
  0
LINE
  5
A0C
  8
0
 10
75.82304985968608
 20
33.357410437794158
 30
0.0
 11
75.023049859686054
 21
34.157410437794113
 31
0.0
  0
LINE
  5
A0D
  8
0
 10
75.82304985968608
 20
33.357410437794158
 30
0.0
 11
99.626461704030547
 21
33.357410437794158
 31
0.0
  0
LINE
  5
A0E
  8
2
 10
80.67175578185828
 20
33.357410437794158
 30
0.0
 11
82.671755781858323
 21
35.357410437794158
 31
0.0
  0
LINE
  5
A0F
  8
2
 10
92.777755781858332
 20
35.357410437794158
 30
0.0
 11
82.671755781858323
 21
35.357410437794158
 31
0.0
  0
LINE
  5
A10
  8
2
 10
94.777755781858389
 20
33.357410437794158
 30
0.0
 11
92.777755781858332
 21
35.357410437794158
 31
0.0
  0
LINE
  5
A11
  8
2
 10
81.724755781858093
 20
48.357410437794158
 30
0.0
 11
82.671755781858039
 21
49.997662552561849
 31
0.0
  0
LINE
  5
A12
  8
2
 10
93.724755781858448
 20
48.357410437794158
 30
0.0
 11
92.777755781858517
 21
49.997662552561849
 31
0.0
  0
LINE
  5
A13
  8
2
 10
81.724755781858434
 20
48.357410437794158
 30
0.0
 11
93.724755781858448
 21
48.357410437794158
 31
0.0
  0
LINE
  5
A14
  8
2
 10
93.724755781858164
 20
34.410410437794269
 30
0.0
 11
93.724755781858406
 21
48.357410437794158
 31
0.0
  0
LINE
  5
A15
  8
2
 10
81.724755781858434
 20
34.410410437794333
 30
0.0
 11
81.724755781858278
 21
48.357410437794158
 31
0.0
  0
LINE
  5
A16
  8
0
 10
100.4264617040304
 20
34.157410437794113
 30
0.0
 11
99.626461704030419
 21
33.357410437794158
 31
0.0
  0
ARC
  5
A17
  8
0
 10
76.124755781858482
 20
55.621382151570849
 30
0.0
 40
2.000000000000036
 50
99.559844575909082
 51
123.42554936036871
  0
ARC
  5
A18
  8
0
 10
99.324755781858656
 20
55.621382151570849
 30
0.0
 40
2.0
 50
56.574450639631273
 51
80.440155424090904
  0
LINE
  5
A19
  8
0
 10
90.522638951142696
 20
58.357410437794272
 30
0.0
 11
84.9268726125743
 21
58.357410437794272
 31
0.0
  0
ARC
  5
A1A
  8
0
 10
84.9268726125743
 20
3.3574104377943561
 30
0.0
 40
54.999999999999922
 50
90.0
 51
99.559844575909082
  0
ARC
  5
A1B
  8
0
 10
90.522638951142497
 20
3.357410437792566
 30
0.0
 40
55.000000000001698
 50
80.440155424090904
 51
90.0
  0
LINE
  5
A1C
  8
0
 10
75.023049859686751
 20
57.290586770858681
 30
0.0
 11
75.023049859686637
 21
34.157410437794262
 31
0.0
  0
LINE
  5
A1D
  8
0
 10
100.4264617040304
 20
57.290586770858681
 30
0.0
 11
100.4264617040304
 21
34.157410437794262
 31
0.0
  0
LINE
  5
A1E
  8
0
 10
94.075608742944439
 20
56.759902985420581
 30
0.0
 11
94.075608742944155
 21
34.157410437794233
 31
0.0
  0
LINE
  5
A1F
  8
0
 10
81.373902820772614
 20
56.759902985421149
 30
0.0
 11
81.373902820772386
 21
34.059557476708193
 31
0.0
  0
LINE
  5
A20
  8
1
 10
87.724755781858448
 20
63.357410437794208
 30
0.0
 11
87.724755781858562
 21
28.357410437794272
 31
0.0
  0
LINE
  5
A21
  8
0
 10
46.820933028969471
 20
58.357410437794272
 30
0.0
 11
41.225166690401061
 21
58.357410437794272
 31
0.0
  0
ARC
  5
A22
  8
0
 10
41.225166690401181
 20
3.357410437793475
 30
0.0
 40
55.000000000000782
 50
90.0
 51
98.576477217802392
  0
ARC
  5
A23
  8
0
 10
46.820933028969591
 20
3.3574104377958909
 30
0.0
 40
54.999999999998373
 50
81.423522782197622
 51
90.0
  0
LINE
  5
A24
  8
0
 10
33.023049859686523
 20
57.742383357667102
 30
0.0
 11
33.023049859686473
 21
34.157410437794262
 31
0.0
  0
LINE
  5
A25
  8
0
 10
44.023049859686751
 20
56.759902985421313
 30
0.0
 11
44.023049859686687
 21
34.157410437794233
 31
0.0
  0
LINE
  5
A26
  8
0
 10
55.02304985968653
 20
57.742383357666768
 30
0.0
 11
55.02304985968658
 21
34.15741043779429
 31
0.0
  0
LINE
  5
A27
  8
1
 10
44.023049859686573
 20
63.357410437794272
 30
0.0
 11
44.023049859686473
 21
28.357410437794272
 31
0.0
  0
ARC
  5
A28
  8
0
 10
78.19847634022932
 20
52.119573311130871
 30
0.0
 40
5.6228100465361432
 50
55.615752531993287
 51
115.6157525321089
  0
LINE
  5
A29
  8
0
 10
75.023049859686523
 20
56.759902985420688
 30
0.0
 11
75.767546200631443
 21
57.189738148275858
 31
0.0
  0
ARC
  5
A2A
  8
0
 10
87.724755781857596
 20
36.724863729886692
 30
0.0
 40
21.017519627780299
 50
72.412046226029531
 51
107.5879537739705
  0
LINE
  5
A2B
  8
0
 10
100.4264617040299
 20
56.759902985420688
 30
0.0
 11
99.681965363085567
 21
57.189738148275687
 31
0.0
  0
ARC
  5
A2C
  8
0
 10
97.251035223487008
 20
52.119573311130871
 30
0.0
 40
5.6228100465361432
 50
64.3842474678911
 51
124.38424746800671
  0
ARC
  5
A2D
  8
0
 10
49.523049859685273
 20
41.856433590304619
 30
0.0
 40
15.88594976736252
 50
69.743841999607483
 51
110.2561580003925
  0
ARC
  5
A2E
  8
0
 10
38.523049859685273
 20
41.856433590304619
 30
0.0
 40
15.88594976736252
 50
69.743841999607483
 51
110.2561580003925
  0
TEXT
  5
BA3
  8
0
 62
     3
 10
0.0
 20
0.0
 30
0.0
 40
5.0
  1
BJ812-12025-R
  7
STANDARD1
  0
ENDSEC
  0
EOF
