  0
SECTION
  2
HEADER
  9
$ACADVER
  1
AC1009
  9
$INSBASE
 10
0.0
 20
0.0
 30
0.0
  9
$EXTMIN
 10
0.0
 20
-1.4802182810368341
 30
0.0
  9
$EXTMAX
 10
105.4264617040304
 20
120.30782766593001
 30
0.0
  9
$LIMMIN
 10
0.0
 20
0.0
  9
$LIMMAX
 10
12.0
 20
9.0
  9
$ORTHOMODE
 70
     0
  9
$REGENMODE
 70
     1
  9
$FILLMODE
 70
     1
  9
$QTEXTMODE
 70
     0
  9
$MIRRTEXT
 70
     0
  9
$DRAGMODE
 70
     2
  9
$LTSCALE
 40
5.0
  9
$OSMODE
 70
  3071
  9
$ATTMODE
 70
     1
  9
$TEXTSIZE
 40
0.2
  9
$TRACEWID
 40
0.05
  9
$TEXTSTYLE
  7
STANDARD
  9
$CLAYER
  8
0
  9
$CELTYPE
  6
BYLAYER
  9
$CECOLOR
 62
   256
  9
$DIMSCALE
 40
1.0
  9
$DIMASZ
 40
0.18
  9
$DIMEXO
 40
0.0625
  9
$DIMDLI
 40
0.38
  9
$DIMRND
 40
0.0
  9
$DIMDLE
 40
0.0
  9
$DIMEXE
 40
0.18
  9
$DIMTP
 40
0.0
  9
$DIMTM
 40
0.0
  9
$DIMTXT
 40
0.18
  9
$DIMCEN
 40
0.09
  9
$DIMTSZ
 40
0.0
  9
$DIMTOL
 70
     0
  9
$DIMLIM
 70
     0
  9
$DIMTIH
 70
     1
  9
$DIMTOH
 70
     1
  9
$DIMSE1
 70
     0
  9
$DIMSE2
 70
     0
  9
$DIMTAD
 70
     0
  9
$DIMZIN
 70
     0
  9
$DIMBLK
  1

  9
$DIMASO
 70
     1
  9
$DIMSHO
 70
     1
  9
$DIMPOST
  1

  9
$DIMAPOST
  1

  9
$DIMALT
 70
     0
  9
$DIMALTD
 70
     2
  9
$DIMALTF
 40
25.399999999999999
  9
$DIMLFAC
 40
1.0
  9
$DIMTOFL
 70
     0
  9
$DIMTVP
 40
0.0
  9
$DIMTIX
 70
     0
  9
$DIMSOXD
 70
     0
  9
$DIMSAH
 70
     0
  9
$DIMBLK1
  1

  9
$DIMBLK2
  1

  9
$DIMSTYLE
  2
STANDARD
  9
$DIMCLRD
 70
     0
  9
$DIMCLRE
 70
     0
  9
$DIMCLRT
 70
     0
  9
$DIMTFAC
 40
1.0
  9
$DIMGAP
 40
0.09
  9
$LUNITS
 70
     2
  9
$LUPREC
 70
     4
  9
$SKETCHINC
 40
0.1
  9
$FILLETRAD
 40
0.0
  9
$AUNITS
 70
     0
  9
$AUPREC
 70
     0
  9
$MENU
  1
.
  9
$ELEVATION
 40
0.0
  9
$PELEVATION
 40
0.0
  9
$THICKNESS
 40
0.0
  9
$LIMCHECK
 70
     0
  9
$BLIPMODE
 70
     0
  9
$CHAMFERA
 40
0.0
  9
$CHAMFERB
 40
0.0
  9
$SKPOLY
 70
     0
  9
$TDCREATE
 40
2453083.4120647679
  9
$TDUPDATE
 40
2456598.4311957061
  9
$TDINDWG
 40
0.1560884722
  9
$TDUSRTIMER
 40
0.1560883565
  9
$USRTIMER
 70
     1
  9
$ANGBASE
 50
0.0
  9
$ANGDIR
 70
     0
  9
$PDMODE
 70
     0
  9
$PDSIZE
 40
0.0
  9
$PLINEWID
 40
0.0
  9
$COORDS
 70
     1
  9
$SPLFRAME
 70
     0
  9
$SPLINETYPE
 70
     6
  9
$SPLINESEGS
 70
     8
  9
$ATTDIA
 70
     0
  9
$ATTREQ
 70
     1
  9
$HANDLING
 70
     1
  9
$HANDSEED
  5
10E9
  9
$SURFTAB1
 70
     6
  9
$SURFTAB2
 70
     6
  9
$SURFTYPE
 70
     6
  9
$SURFU
 70
     6
  9
$SURFV
 70
     6
  9
$UCSNAME
  2

  9
$UCSORG
 10
0.0
 20
0.0
 30
0.0
  9
$UCSXDIR
 10
1.0
 20
0.0
 30
0.0
  9
$UCSYDIR
 10
0.0
 20
1.0
 30
0.0
  9
$PUCSNAME
  2

  9
$PUCSORG
 10
0.0
 20
0.0
 30
0.0
  9
$PUCSXDIR
 10
1.0
 20
0.0
 30
0.0
  9
$PUCSYDIR
 10
0.0
 20
1.0
 30
0.0
  9
$USERI1
 70
     0
  9
$USERI2
 70
     1
  9
$USERI3
 70
     0
  9
$USERI4
 70
     0
  9
$USERI5
 70
     0
  9
$USERR1
 40
0.0
  9
$USERR2
 40
0.0
  9
$USERR3
 40
0.0
  9
$USERR4
 40
0.0
  9
$USERR5
 40
0.0
  9
$WORLDVIEW
 70
     1
  9
$SHADEDGE
 70
     3
  9
$SHADEDIF
 70
    70
  9
$TILEMODE
 70
     1
  9
$MAXACTVP
 70
    64
  9
$PLIMCHECK
 70
     0
  9
$PEXTMIN
 10
0.0
 20
0.0
 30
0.0
  9
$PEXTMAX
 10
0.0
 20
0.0
 30
0.0
  9
$PLIMMIN
 10
0.0
 20
0.0
  9
$PLIMMAX
 10
12.0
 20
9.0
  9
$UNITMODE
 70
     0
  9
$VISRETAIN
 70
     1
  9
$PLINEGEN
 70
     0
  9
$PSLTSCALE
 70
     1
  0
ENDSEC
  0
SECTION
  2
TABLES
  0
TABLE
  2
VPORT
 70
     1
  0
VPORT
  2
*ACTIVE
 70
     0
 10
0.0
 20
0.0
 11
1.0
 21
1.0
 12
56.087982245428769
 22
59.415024026837258
 13
0.0
 23
0.0
 14
0.5
 24
0.5
 15
0.5
 25
0.5
 16
0.0
 26
0.0
 36
1.0
 17
0.0
 27
0.0
 37
0.0
 40
122.8852643059784
 41
1.831871345029239
 42
50.0
 43
0.0
 44
0.0
 50
0.0
 51
0.0
 71
     0
 72
  1000
 73
     1
 74
     2
 75
     0
 76
     0
 77
     0
 78
     0
  0
ENDTAB
  0
TABLE
  2
LTYPE
 70
     4
  0
LTYPE
  2
CONTINUOUS
 70
     0
  3
Solid Line
 72
    65
 73
     0
 40
0.0
  0
LTYPE
  2
CENTER
 70
     0
  3
____ _ ____ _ ____ _ ____ _ ____ _ ____ _ ____
 72
    65
 73
     4
 40
2.0
 49
1.25
 49
-0.25
 49
0.25
 49
-0.25
  0
LTYPE
  2
HIDDEN
 70
     0
  3
_ _ _ _ _ _ _ _ _ _ _ _ _ _ _ _ _ _ _ _ _ _ _
 72
    65
 73
     2
 40
0.375
 49
0.25
 49
-0.125
  0
LTYPE
  2
PHANTOM2
 70
     0
  3
___ _ _ ___ _ _ ___ _ _ ___ _ _
 72
    65
 73
     6
 40
1.25
 49
0.625
 49
-0.125
 49
0.125
 49
-0.125
 49
0.125
 49
-0.125
  0
ENDTAB
  0
TABLE
  2
LAYER
 70
     3
  0
LAYER
  2
0
 70
     0
 62
     7
  6
CONTINUOUS
  0
LAYER
  2
1
 70
     0
 62
     1
  6
CENTER
  0
LAYER
  2
2
 70
     0
 62
     2
  6
HIDDEN
  0
ENDTAB
  0
TABLE
  2
STYLE
 70
     2
  0
STYLE
  2
STANDARD
 70
     0
 40
0.0
 41
1.0
 50
0.0
 71
     0
 42
0.2
  3
simplex.shx
  4
bigfont.shx
  0
STYLE
  2
STANDARD1
 70
     0
 40
0.0
 41
1.0
 50
0.0
 71
     0
 42
3.0
  3
txt
  4

  0
ENDTAB
  0
TABLE
  2
VIEW
 70
     0
  0
ENDTAB
  0
TABLE
  2
UCS
 70
     0
  0
ENDTAB
  0
TABLE
  2
APPID
 70
     3
  0
APPID
  2
ACAD
 70
     0
  0
APPID
  2
ACAD_MLEADERVER
 70
     0
  0
APPID
  2
ACAD_NAV_VCDISPLAY
 70
     0
  0
ENDTAB
  0
TABLE
  2
DIMSTYLE
 70
     1
  0
DIMSTYLE
  2
STANDARD
 70
     0
  3

  4

  5

  6

  7

 40
1.0
 41
0.18
 42
0.0625
 43
0.38
 44
0.18
 45
0.0
 46
0.0
 47
0.0
 48
0.0
140
0.18
141
0.09
142
0.0
143
25.399999999999999
144
1.0
145
0.0
146
1.0
147
0.09
 71
     0
 72
     0
 73
     1
 74
     1
 75
     0
 76
     0
 77
     0
 78
     0
170
     0
171
     2
172
     0
173
     0
174
     0
175
     0
176
     0
177
     0
178
     0
  0
ENDTAB
  0
ENDSEC
  0
SECTION
  2
BLOCKS
  0
BLOCK
  8
0
  2
$MODEL_SPACE
 70
     0
 10
0.0
 20
0.0
 30
0.0
  3
$MODEL_SPACE
  1

  0
ENDBLK
  5
21
  8
0
  0
BLOCK
 67
     1
  8
0
  2
$PAPER_SPACE
 70
     0
 10
0.0
 20
0.0
 30
0.0
  3
$PAPER_SPACE
  1

  0
ENDBLK
  5
5B
 67
     1
  8
0
  0
ENDSEC
  0
SECTION
  2
ENTITIES
  0
LINE
  5
75F
  8
0
 10
44.023049859685379
 20
89.130913129690285
 30
0.0
 11
55.023049859685209
 21
95.481766090776091
 31
0.0
  0
LINE
  5
760
  8
0
 10
55.023049859685209
 20
95.481766090776091
 30
0.0
 11
55.023049859685273
 21
108.1834720129479
 31
0.0
  0
LINE
  5
761
  8
0
 10
55.023049859685273
 20
108.1834720129479
 30
0.0
 11
44.023049859685273
 21
114.53432497403369
 31
0.0
  0
LINE
  5
762
  8
0
 10
33.023049859685329
 20
108.1834720129479
 30
0.0
 11
33.023049859685329
 21
95.481766090776134
 31
0.0
  0
LINE
  5
763
  8
0
 10
44.023049859685379
 20
114.53432497403369
 30
0.0
 11
33.023049859685329
 21
108.1834720129479
 31
0.0
  0
LINE
  5
764
  8
0
 10
33.02304985968528
 20
95.481766090776134
 30
0.0
 11
44.023049859685379
 21
89.130913129690285
 31
0.0
  0
LINE
  5
765
  8
1
 10
28.023049859685269
 20
101.832619051862
 30
0.0
 11
60.023049859685209
 21
101.832619051862
 31
0.0
  0
LINE
  5
766
  8
1
 10
44.023049859685329
 20
83.357410437794044
 30
0.0
 11
44.023049859685273
 21
120.30782766593001
 31
0.0
  0
LINE
  5
F20
  8
2
 10
97.777755781858787
 20
53.357410437794158
 30
0.0
 11
92.724755781858747
 21
56.393559145740532
 31
0.0
  0
LINE
  5
F21
  8
2
 10
97.777755781858446
 20
25.357410437794019
 30
0.0
 11
97.777755781858517
 21
53.357410437794158
 31
0.0
  0
LINE
  5
F22
  8
2
 10
87.671755781858451
 20
53.357410437794158
 30
0.0
 11
97.777755781858517
 21
53.357410437794158
 31
0.0
  0
LINE
  5
F23
  8
2
 10
87.671755781858224
 20
25.357410437794101
 30
0.0
 11
87.671755781858451
 21
53.357410437794158
 31
0.0
  0
LINE
  5
F24
  8
2
 10
87.671755781858224
 20
53.357410437794158
 30
0.0
 11
92.724755781858278
 21
56.393559145740532
 31
0.0
  0
LINE
  5
F25
  8
2
 10
49.07604985968652
 20
25.357410437794272
 30
0.0
 11
49.076049859686691
 21
53.357410437794272
 31
0.0
  0
LINE
  5
F26
  8
2
 10
49.076049859686741
 20
53.357410437794158
 30
0.0
 11
44.023049859686473
 21
56.393559145740653
 31
0.0
  0
LINE
  5
F27
  8
2
 10
38.970049859686469
 20
25.35741043779419
 30
0.0
 11
38.97004985968664
 21
53.357410437794272
 31
0.0
  0
LINE
  5
F28
  8
2
 10
38.97004985968664
 20
53.357410437794272
 30
0.0
 11
49.076049859686691
 21
53.357410437794272
 31
0.0
  0
LINE
  5
F29
  8
2
 10
38.970049859686412
 20
53.357410437794272
 30
0.0
 11
44.023049859686473
 21
56.393559145740653
 31
0.0
  0
LINE
  5
F2A
  8
0
 10
33.823049859686712
 20
23.357410437794272
 30
0.0
 11
54.223049859686512
 21
23.357410437794272
 31
0.0
  0
LINE
  5
F2B
  8
0
 10
55.02304985968653
 20
24.15741043779423
 30
0.0
 11
54.223049859686512
 21
23.357410437794272
 31
0.0
  0
LINE
  5
F2C
  8
0
 10
33.823049859686712
 20
23.357410437794272
 30
0.0
 11
33.023049859686701
 21
24.15741043779423
 31
0.0
  0
LINE
  5
F2D
  8
0
 10
33.023049859686701
 20
24.15741043779423
 30
0.0
 11
55.02304985968653
 21
24.15741043779423
 31
0.0
  0
LINE
  5
F2E
  8
2
 10
38.023049859686637
 20
24.4104104377945
 30
0.0
 11
38.023049859686459
 21
48.357410437794272
 31
0.0
  0
LINE
  5
F2F
  8
2
 10
50.023049859686289
 20
24.41041043779444
 30
0.0
 11
50.02304985968658
 21
48.357410437794272
 31
0.0
  0
LINE
  5
F30
  8
2
 10
38.023049859686637
 20
48.357410437794272
 30
0.0
 11
50.02304985968663
 21
48.357410437794272
 31
0.0
  0
LINE
  5
F31
  8
2
 10
50.02304985968663
 20
48.357410437794272
 30
0.0
 11
49.076049859686691
 21
49.997662552561962
 31
0.0
  0
LINE
  5
F32
  8
2
 10
38.023049859686303
 20
48.357410437794272
 30
0.0
 11
38.970049859686242
 21
49.997662552561962
 31
0.0
  0
LINE
  5
F33
  8
2
 10
51.076049859686577
 20
23.357410437794272
 30
0.0
 11
49.07604985968652
 21
25.357410437794272
 31
0.0
  0
LINE
  5
F34
  8
2
 10
49.07604985968652
 20
25.357410437794272
 30
0.0
 11
38.970049859686533
 21
25.357410437794272
 31
0.0
  0
LINE
  5
F35
  8
2
 10
36.970049859686469
 20
23.357410437794272
 30
0.0
 11
38.970049859686533
 21
25.357410437794272
 31
0.0
  0
LINE
  5
F36
  8
0
 10
80.023049859686054
 20
24.157410437794109
 30
0.0
 11
105.4264617040303
 21
24.157410437794109
 31
0.0
  0
LINE
  5
F37
  8
0
 10
80.82304985968608
 20
23.357410437794162
 30
0.0
 11
80.023049859686054
 21
24.157410437794109
 31
0.0
  0
LINE
  5
F38
  8
0
 10
80.82304985968608
 20
23.357410437794162
 30
0.0
 11
104.6264617040306
 21
23.357410437794162
 31
0.0
  0
LINE
  5
F39
  8
2
 10
85.67175578185828
 20
23.357410437794162
 30
0.0
 11
87.671755781858323
 21
25.357410437794162
 31
0.0
  0
LINE
  5
F3A
  8
2
 10
97.777755781858332
 20
25.357410437794162
 30
0.0
 11
87.671755781858323
 21
25.357410437794162
 31
0.0
  0
LINE
  5
F3B
  8
2
 10
99.777755781858389
 20
23.357410437794162
 30
0.0
 11
97.777755781858332
 21
25.357410437794162
 31
0.0
  0
LINE
  5
F3C
  8
2
 10
86.724755781858093
 20
48.357410437794158
 30
0.0
 11
87.671755781858039
 21
49.997662552561849
 31
0.0
  0
LINE
  5
F3D
  8
2
 10
98.724755781858448
 20
48.357410437794158
 30
0.0
 11
97.777755781858517
 21
49.997662552561849
 31
0.0
  0
LINE
  5
F3E
  8
2
 10
86.724755781858434
 20
48.357410437794158
 30
0.0
 11
98.724755781858448
 21
48.357410437794158
 31
0.0
  0
LINE
  5
F3F
  8
2
 10
98.724755781857993
 20
24.410410437794411
 30
0.0
 11
98.724755781858406
 21
48.357410437794158
 31
0.0
  0
LINE
  5
F40
  8
2
 10
86.724755781858505
 20
24.410410437794351
 30
0.0
 11
86.724755781858278
 21
48.357410437794158
 31
0.0
  0
LINE
  5
F41
  8
0
 10
105.4264617040303
 20
24.157410437794109
 30
0.0
 11
104.62646170403031
 21
23.357410437794162
 31
0.0
  0
ARC
  5
F42
  8
0
 10
81.124755781858497
 20
60.621382151570849
 30
0.0
 40
2.000000000000036
 50
99.559844575909082
 51
123.42554936036871
  0
ARC
  5
F43
  8
0
 10
104.3247557818586
 20
60.621382151570849
 30
0.0
 40
2.0
 50
56.574450639631273
 51
80.440155424090904
  0
LINE
  5
F44
  8
0
 10
95.522638951142696
 20
63.357410437794272
 30
0.0
 11
89.9268726125743
 21
63.357410437794272
 31
0.0
  0
ARC
  5
F45
  8
0
 10
89.9268726125743
 20
8.3574104377943552
 30
0.0
 40
54.999999999999922
 50
90.0
 51
99.559844575909082
  0
ARC
  5
F46
  8
0
 10
95.522638951142497
 20
8.3574104377925664
 30
0.0
 40
55.000000000001698
 50
80.440155424090904
 51
90.0
  0
LINE
  5
F47
  8
0
 10
80.023049859686765
 20
62.290586770858681
 30
0.0
 11
80.02304985968658
 21
24.15741043779423
 31
0.0
  0
LINE
  5
F48
  8
0
 10
105.4264617040303
 20
62.290586770858681
 30
0.0
 11
105.4264617040304
 21
24.15741043779423
 31
0.0
  0
LINE
  5
F49
  8
0
 10
99.075608742944439
 20
61.759902985420581
 30
0.0
 11
99.075608742943885
 21
24.157410437794201
 31
0.0
  0
LINE
  5
F4A
  8
0
 10
86.373902820772614
 20
61.759902985421149
 30
0.0
 11
86.373902820772116
 21
24.15741043779423
 31
0.0
  0
LINE
  5
F4B
  8
1
 10
92.724755781858448
 20
68.357410437794215
 30
0.0
 11
92.724755781858676
 21
18.357410437794279
 31
0.0
  0
LINE
  5
F4C
  8
0
 10
46.820933028969471
 20
63.357410437794272
 30
0.0
 11
41.225166690401061
 21
63.357410437794272
 31
0.0
  0
ARC
  5
F4D
  8
0
 10
41.225166690401181
 20
8.3574104377934741
 30
0.0
 40
55.000000000000782
 50
90.0
 51
98.576477217802392
  0
ARC
  5
F4E
  8
0
 10
46.820933028969591
 20
8.3574104377958918
 30
0.0
 40
54.999999999998373
 50
81.423522782197622
 51
90.0
  0
LINE
  5
F4F
  8
0
 10
33.023049859686523
 20
62.742383357667102
 30
0.0
 11
33.023049859686473
 21
24.15741043779423
 31
0.0
  0
LINE
  5
F50
  8
0
 10
44.023049859686751
 20
61.759902985421313
 30
0.0
 11
44.023049859686687
 21
24.15741043779423
 31
0.0
  0
LINE
  5
F51
  8
0
 10
55.02304985968653
 20
62.742383357666768
 30
0.0
 11
55.02304985968653
 21
24.15741043779423
 31
0.0
  0
LINE
  5
F52
  8
1
 10
44.023049859686573
 20
68.357410437794272
 30
0.0
 11
44.023049859686523
 21
18.357410437794279
 31
0.0
  0
ARC
  5
F53
  8
0
 10
83.198476340229334
 20
57.119573311130871
 30
0.0
 40
5.6228100465361432
 50
55.615752531993259
 51
115.6157525321088
  0
LINE
  5
F54
  8
0
 10
80.023049859686523
 20
61.759902985420688
 30
0.0
 11
80.767546200631443
 21
62.189738148275858
 31
0.0
  0
ARC
  5
F55
  8
0
 10
92.724755781857596
 20
41.724863729886692
 30
0.0
 40
21.017519627780299
 50
72.412046226029517
 51
107.5879537739705
  0
LINE
  5
F56
  8
0
 10
105.4264617040298
 20
61.759902985420688
 30
0.0
 11
104.6819653630855
 21
62.189738148275687
 31
0.0
  0
ARC
  5
F57
  8
0
 10
102.25103522348689
 20
57.119573311130871
 30
0.0
 40
5.6228100465361432
 50
64.384247467891115
 51
124.38424746800671
  0
ARC
  5
F58
  8
0
 10
49.523049859685273
 20
46.856433590304619
 30
0.0
 40
15.88594976736252
 50
69.743841999607469
 51
110.2561580003925
  0
ARC
  5
F59
  8
0
 10
38.523049859685273
 20
46.856433590304619
 30
0.0
 40
15.88594976736252
 50
69.743841999607469
 51
110.2561580003925
  0
TEXT
  5
1055
  8
0
 62
     3
 10
0.0
 20
0.0
 30
0.0
 40
5.0
  1
BJ812-12040-R
  7
STANDARD1
  0
ENDSEC
  0
EOF
