  0
SECTION
  2
HEADER
  9
$ACADVER
  1
AC1009
  9
$INSBASE
 10
0.0
 20
0.0
 30
0.0
  9
$EXTMIN
 10
0.0
 20
-1.4802182810368341
 30
0.0
  9
$EXTMAX
 10
110.4264617040307
 20
125.3078276659302
 30
0.0
  9
$LIMMIN
 10
0.0
 20
0.0
  9
$LIMMAX
 10
12.0
 20
9.0
  9
$ORTHOMODE
 70
     0
  9
$REGENMODE
 70
     1
  9
$FILLMODE
 70
     1
  9
$QTEXTMODE
 70
     0
  9
$MIRRTEXT
 70
     0
  9
$DRAGMODE
 70
     2
  9
$LTSCALE
 40
5.0
  9
$OSMODE
 70
  3071
  9
$ATTMODE
 70
     1
  9
$TEXTSIZE
 40
0.2
  9
$TRACEWID
 40
0.05
  9
$TEXTSTYLE
  7
STANDARD
  9
$CLAYER
  8
0
  9
$CELTYPE
  6
BYLAYER
  9
$CECOLOR
 62
   256
  9
$DIMSCALE
 40
1.0
  9
$DIMASZ
 40
0.18
  9
$DIMEXO
 40
0.0625
  9
$DIMDLI
 40
0.38
  9
$DIMRND
 40
0.0
  9
$DIMDLE
 40
0.0
  9
$DIMEXE
 40
0.18
  9
$DIMTP
 40
0.0
  9
$DIMTM
 40
0.0
  9
$DIMTXT
 40
0.18
  9
$DIMCEN
 40
0.09
  9
$DIMTSZ
 40
0.0
  9
$DIMTOL
 70
     0
  9
$DIMLIM
 70
     0
  9
$DIMTIH
 70
     1
  9
$DIMTOH
 70
     1
  9
$DIMSE1
 70
     0
  9
$DIMSE2
 70
     0
  9
$DIMTAD
 70
     0
  9
$DIMZIN
 70
     0
  9
$DIMBLK
  1

  9
$DIMASO
 70
     1
  9
$DIMSHO
 70
     1
  9
$DIMPOST
  1

  9
$DIMAPOST
  1

  9
$DIMALT
 70
     0
  9
$DIMALTD
 70
     2
  9
$DIMALTF
 40
25.399999999999999
  9
$DIMLFAC
 40
1.0
  9
$DIMTOFL
 70
     0
  9
$DIMTVP
 40
0.0
  9
$DIMTIX
 70
     0
  9
$DIMSOXD
 70
     0
  9
$DIMSAH
 70
     0
  9
$DIMBLK1
  1

  9
$DIMBLK2
  1

  9
$DIMSTYLE
  2
STANDARD
  9
$DIMCLRD
 70
     0
  9
$DIMCLRE
 70
     0
  9
$DIMCLRT
 70
     0
  9
$DIMTFAC
 40
1.0
  9
$DIMGAP
 40
0.09
  9
$LUNITS
 70
     2
  9
$LUPREC
 70
     4
  9
$SKETCHINC
 40
0.1
  9
$FILLETRAD
 40
0.0
  9
$AUNITS
 70
     0
  9
$AUPREC
 70
     0
  9
$MENU
  1
.
  9
$ELEVATION
 40
0.0
  9
$PELEVATION
 40
0.0
  9
$THICKNESS
 40
0.0
  9
$LIMCHECK
 70
     0
  9
$BLIPMODE
 70
     0
  9
$CHAMFERA
 40
0.0
  9
$CHAMFERB
 40
0.0
  9
$SKPOLY
 70
     0
  9
$TDCREATE
 40
2453083.4120647679
  9
$TDUPDATE
 40
2456598.431267349
  9
$TDINDWG
 40
0.155607338
  9
$TDUSRTIMER
 40
0.1556072222
  9
$USRTIMER
 70
     1
  9
$ANGBASE
 50
0.0
  9
$ANGDIR
 70
     0
  9
$PDMODE
 70
     0
  9
$PDSIZE
 40
0.0
  9
$PLINEWID
 40
0.0
  9
$COORDS
 70
     1
  9
$SPLFRAME
 70
     0
  9
$SPLINETYPE
 70
     6
  9
$SPLINESEGS
 70
     8
  9
$ATTDIA
 70
     0
  9
$ATTREQ
 70
     1
  9
$HANDLING
 70
     1
  9
$HANDSEED
  5
11DF
  9
$SURFTAB1
 70
     6
  9
$SURFTAB2
 70
     6
  9
$SURFTYPE
 70
     6
  9
$SURFU
 70
     6
  9
$SURFV
 70
     6
  9
$UCSNAME
  2

  9
$UCSORG
 10
0.0
 20
0.0
 30
0.0
  9
$UCSXDIR
 10
1.0
 20
0.0
 30
0.0
  9
$UCSYDIR
 10
0.0
 20
1.0
 30
0.0
  9
$PUCSNAME
  2

  9
$PUCSORG
 10
0.0
 20
0.0
 30
0.0
  9
$PUCSXDIR
 10
1.0
 20
0.0
 30
0.0
  9
$PUCSYDIR
 10
0.0
 20
1.0
 30
0.0
  9
$USERI1
 70
     0
  9
$USERI2
 70
     1
  9
$USERI3
 70
     0
  9
$USERI4
 70
     0
  9
$USERI5
 70
     0
  9
$USERR1
 40
0.0
  9
$USERR2
 40
0.0
  9
$USERR3
 40
0.0
  9
$USERR4
 40
0.0
  9
$USERR5
 40
0.0
  9
$WORLDVIEW
 70
     1
  9
$SHADEDGE
 70
     3
  9
$SHADEDIF
 70
    70
  9
$TILEMODE
 70
     1
  9
$MAXACTVP
 70
    64
  9
$PLIMCHECK
 70
     0
  9
$PEXTMIN
 10
0.0
 20
0.0
 30
0.0
  9
$PEXTMAX
 10
0.0
 20
0.0
 30
0.0
  9
$PLIMMIN
 10
0.0
 20
0.0
  9
$PLIMMAX
 10
12.0
 20
9.0
  9
$UNITMODE
 70
     0
  9
$VISRETAIN
 70
     1
  9
$PLINEGEN
 70
     0
  9
$PSLTSCALE
 70
     1
  0
ENDSEC
  0
SECTION
  2
TABLES
  0
TABLE
  2
VPORT
 70
     1
  0
VPORT
  2
*ACTIVE
 70
     0
 10
0.0
 20
0.0
 11
1.0
 21
1.0
 12
58.726647680563332
 22
61.912996411141698
 13
0.0
 23
0.0
 14
0.5
 24
0.5
 15
0.5
 25
0.5
 16
0.0
 26
0.0
 36
1.0
 17
0.0
 27
0.0
 37
0.0
 40
127.93450689276141
 41
1.831871345029239
 42
50.0
 43
0.0
 44
0.0
 50
0.0
 51
0.0
 71
     0
 72
  1000
 73
     1
 74
     2
 75
     0
 76
     0
 77
     0
 78
     0
  0
ENDTAB
  0
TABLE
  2
LTYPE
 70
     4
  0
LTYPE
  2
CONTINUOUS
 70
     0
  3
Solid Line
 72
    65
 73
     0
 40
0.0
  0
LTYPE
  2
CENTER
 70
     0
  3
____ _ ____ _ ____ _ ____ _ ____ _ ____ _ ____
 72
    65
 73
     4
 40
2.0
 49
1.25
 49
-0.25
 49
0.25
 49
-0.25
  0
LTYPE
  2
HIDDEN
 70
     0
  3
_ _ _ _ _ _ _ _ _ _ _ _ _ _ _ _ _ _ _ _ _ _ _
 72
    65
 73
     2
 40
0.375
 49
0.25
 49
-0.125
  0
LTYPE
  2
PHANTOM2
 70
     0
  3
___ _ _ ___ _ _ ___ _ _ ___ _ _
 72
    65
 73
     6
 40
1.25
 49
0.625
 49
-0.125
 49
0.125
 49
-0.125
 49
0.125
 49
-0.125
  0
ENDTAB
  0
TABLE
  2
LAYER
 70
     3
  0
LAYER
  2
0
 70
     0
 62
     7
  6
CONTINUOUS
  0
LAYER
  2
1
 70
     0
 62
     1
  6
CENTER
  0
LAYER
  2
2
 70
     0
 62
     2
  6
HIDDEN
  0
ENDTAB
  0
TABLE
  2
STYLE
 70
     2
  0
STYLE
  2
STANDARD
 70
     0
 40
0.0
 41
1.0
 50
0.0
 71
     0
 42
0.2
  3
simplex.shx
  4
bigfont.shx
  0
STYLE
  2
STANDARD1
 70
     0
 40
0.0
 41
1.0
 50
0.0
 71
     0
 42
3.0
  3
txt
  4

  0
ENDTAB
  0
TABLE
  2
VIEW
 70
     0
  0
ENDTAB
  0
TABLE
  2
UCS
 70
     0
  0
ENDTAB
  0
TABLE
  2
APPID
 70
     3
  0
APPID
  2
ACAD
 70
     0
  0
APPID
  2
ACAD_MLEADERVER
 70
     0
  0
APPID
  2
ACAD_NAV_VCDISPLAY
 70
     0
  0
ENDTAB
  0
TABLE
  2
DIMSTYLE
 70
     1
  0
DIMSTYLE
  2
STANDARD
 70
     0
  3

  4

  5

  6

  7

 40
1.0
 41
0.18
 42
0.0625
 43
0.38
 44
0.18
 45
0.0
 46
0.0
 47
0.0
 48
0.0
140
0.18
141
0.09
142
0.0
143
25.399999999999999
144
1.0
145
0.0
146
1.0
147
0.09
 71
     0
 72
     0
 73
     1
 74
     1
 75
     0
 76
     0
 77
     0
 78
     0
170
     0
171
     2
172
     0
173
     0
174
     0
175
     0
176
     0
177
     0
178
     0
  0
ENDTAB
  0
ENDSEC
  0
SECTION
  2
BLOCKS
  0
BLOCK
  8
0
  2
$MODEL_SPACE
 70
     0
 10
0.0
 20
0.0
 30
0.0
  3
$MODEL_SPACE
  1

  0
ENDBLK
  5
21
  8
0
  0
BLOCK
 67
     1
  8
0
  2
$PAPER_SPACE
 70
     0
 10
0.0
 20
0.0
 30
0.0
  3
$PAPER_SPACE
  1

  0
ENDBLK
  5
5B
 67
     1
  8
0
  0
ENDSEC
  0
SECTION
  2
ENTITIES
  0
LINE
  5
4F2
  8
1
 10
44.023049859686473
 20
88.357410437794243
 30
0.0
 11
44.023049859686473
 21
125.3078276659302
 31
0.0
  0
LINE
  5
4F3
  8
1
 10
28.023049859686459
 20
106.8326190518622
 30
0.0
 11
60.023049859686353
 21
106.8326190518622
 31
0.0
  0
LINE
  5
4F4
  8
0
 10
33.023049859686473
 20
100.4817660907763
 30
0.0
 11
44.023049859686473
 21
94.130913129690526
 31
0.0
  0
LINE
  5
4F5
  8
0
 10
44.023049859686473
 20
119.53432497403401
 30
0.0
 11
33.023049859686473
 21
113.1834720129481
 31
0.0
  0
LINE
  5
4F6
  8
0
 10
33.023049859686473
 20
113.1834720129482
 30
0.0
 11
33.023049859686473
 21
100.4817660907763
 31
0.0
  0
LINE
  5
4F7
  8
0
 10
55.023049859686459
 20
113.1834720129481
 30
0.0
 11
44.023049859686473
 21
119.53432497403401
 31
0.0
  0
LINE
  5
4F8
  8
0
 10
55.023049859686353
 20
100.4817660907763
 30
0.0
 11
55.023049859686459
 21
113.1834720129481
 31
0.0
  0
LINE
  5
4F9
  8
0
 10
44.023049859686473
 20
94.130913129690526
 30
0.0
 11
55.023049859686353
 21
100.4817660907763
 31
0.0
  0
CIRCLE
  5
4FA
  8
0
 10
44.023049859686473
 20
106.8326190518622
 30
0.0
 40
11.0
  0
CIRCLE
  5
4FB
  8
0
 10
44.023049859686473
 20
106.8326190518622
 30
0.0
 40
10.199999999999999
  0
LINE
  5
104B
  8
0
 10
91.373902820771491
 20
65.188140272573122
 30
0.0
 11
91.373902820777914
 21
19.157410437794251
 31
0.0
  0
LINE
  5
104C
  8
0
 10
104.0756087429459
 20
65.188140272573122
 30
0.0
 11
104.0756087429386
 21
19.157410437794251
 31
0.0
  0
LINE
  5
104D
  8
0
 10
87.048285193622974
 20
66.357410437794414
 30
0.0
 11
108.4012263700938
 21
66.357410437794073
 31
0.0
  0
ARC
  5
104E
  8
0
 10
107.25103522348699
 20
60.54781059828403
 30
0.0
 40
5.6228100465361432
 50
64.384247467891115
 51
124.38424746800671
  0
LINE
  5
104F
  8
0
 10
110.4264617040299
 20
65.188140272573904
 30
0.0
 11
108.4012263700934
 21
66.357410437794414
 31
0.0
  0
LINE
  5
1050
  8
0
 10
85.023049859686466
 20
65.188140272573904
 30
0.0
 11
87.048285193622974
 21
66.357410437794414
 31
0.0
  0
ARC
  5
1051
  8
0
 10
97.724755781857553
 20
45.153101017039859
 30
0.0
 40
21.017519627780299
 50
72.412046226029517
 51
107.5879537739705
  0
ARC
  5
1052
  8
0
 10
88.198476340229377
 20
60.54781059828403
 30
0.0
 40
5.6228100465361432
 50
55.615752531993259
 51
115.6157525321088
  0
LINE
  5
1053
  8
1
 10
97.724755781858448
 20
73.357410437794243
 30
0.0
 11
97.724755781858605
 21
13.35741043779424
 31
0.0
  0
LINE
  5
1054
  8
0
 10
85.023049859686694
 20
65.188140272573904
 30
0.0
 11
85.023049859684704
 21
19.157410437794251
 31
0.0
  0
LINE
  5
1055
  8
0
 10
110.4264617040301
 20
65.188140272573733
 30
0.0
 11
110.4264617040307
 21
19.157410437794251
 31
0.0
  0
LINE
  5
1056
  8
0
 10
86.724755781858335
 20
67.557410437794232
 30
0.0
 11
108.72475578185821
 21
67.557410437794232
 31
0.0
  0
LINE
  5
1057
  8
0
 10
87.524755781858403
 20
68.357410437794243
 30
0.0
 11
107.92475578185829
 21
68.357410437794243
 31
0.0
  0
LINE
  5
1058
  8
0
 10
86.724755781858335
 20
67.557410437794232
 30
0.0
 11
86.724755781858434
 21
66.170620644821355
 31
0.0
  0
LINE
  5
1059
  8
0
 10
108.72475578185851
 20
66.170620644821113
 30
0.0
 11
108.72475578185821
 21
67.557410437794232
 31
0.0
  0
LINE
  5
105A
  8
0
 10
87.524755781858403
 20
68.357410437794243
 30
0.0
 11
86.724755781858335
 21
67.557410437794232
 31
0.0
  0
LINE
  5
105B
  8
0
 10
108.72475578185821
 20
67.557410437794232
 30
0.0
 11
107.92475578185829
 21
68.357410437794243
 31
0.0
  0
LINE
  5
105C
  8
1
 10
44.023049859686473
 20
73.357410437794243
 30
0.0
 11
44.023049859686573
 21
13.35741043779424
 31
0.0
  0
LINE
  5
105D
  8
0
 10
33.023049859686473
 20
67.557410437794232
 30
0.0
 11
55.023049859686459
 21
67.557410437794232
 31
0.0
  0
LINE
  5
105E
  8
0
 10
33.823049859686421
 20
68.357410437794243
 30
0.0
 11
54.223049859686512
 21
68.357410437794243
 31
0.0
  0
LINE
  5
105F
  8
0
 10
33.823049859686421
 20
68.357410437794243
 30
0.0
 11
33.023049859686473
 21
67.557410437794232
 31
0.0
  0
LINE
  5
1060
  8
0
 10
55.023049859686459
 20
67.557410437794232
 30
0.0
 11
54.223049859686512
 21
68.357410437794243
 31
0.0
  0
LINE
  5
1061
  8
0
 10
54.699520447920349
 20
66.357410437794243
 30
0.0
 11
33.34657927145247
 21
66.357410437794243
 31
0.0
  0
ARC
  5
1062
  8
0
 10
38.523049859686473
 20
50.284670877457778
 30
0.0
 40
15.88594976736252
 50
69.743841999607497
 51
110.2561580003925
  0
LINE
  5
1063
  8
0
 10
33.023049859686353
 20
66.170620644820332
 30
0.0
 11
33.34657927145247
 21
66.357410437794243
 31
0.0
  0
LINE
  5
1064
  8
0
 10
44.023049859686473
 20
65.18814027257352
 30
0.0
 11
44.023049859686289
 21
19.157410437794251
 31
0.0
  0
LINE
  5
1065
  8
0
 10
55.023049859686459
 20
67.557410437794232
 30
0.0
 11
55.023049859686921
 21
19.157410437794251
 31
0.0
  0
LINE
  5
1066
  8
0
 10
55.023049859686459
 20
66.170620644820332
 30
0.0
 11
54.699520447920463
 21
66.357410437794243
 31
0.0
  0
ARC
  5
1067
  8
0
 10
49.523049859686459
 20
50.284670877457778
 30
0.0
 40
15.88594976736252
 50
69.743841999607497
 51
110.2561580003925
  0
LINE
  5
1068
  8
0
 10
33.823049859686648
 20
18.35741043779424
 30
0.0
 11
54.223049859686448
 21
18.35741043779424
 31
0.0
  0
LINE
  5
1069
  8
0
 10
55.023049859686459
 20
19.157410437794251
 30
0.0
 11
54.223049859686448
 21
18.35741043779424
 31
0.0
  0
LINE
  5
106A
  8
0
 10
33.823049859686648
 20
18.35741043779424
 30
0.0
 11
33.023049859686637
 21
19.157410437794251
 31
0.0
  0
LINE
  5
106B
  8
0
 10
33.023049859686637
 20
19.157410437794251
 30
0.0
 11
55.023049859686459
 21
19.157410437794251
 31
0.0
  0
LINE
  5
106C
  8
2
 10
38.023049859686523
 20
19.410410437794301
 30
0.0
 11
38.023049859686409
 21
43.357410437794243
 31
0.0
  0
LINE
  5
106D
  8
2
 10
38.970049859686242
 20
20.357410437793959
 30
0.0
 11
38.970049859686583
 21
48.35741043779425
 31
0.0
  0
LINE
  5
106E
  8
2
 10
49.07604985968657
 20
20.35741043779413
 30
0.0
 11
49.076049859686641
 21
48.35741043779425
 31
0.0
  0
LINE
  5
106F
  8
2
 10
50.023049859686353
 20
19.410410437794351
 30
0.0
 11
50.02304985968653
 21
43.357410437794243
 31
0.0
  0
LINE
  5
1070
  8
2
 10
38.02304985968658
 20
43.357410437794243
 30
0.0
 11
50.02304985968658
 21
43.357410437794243
 31
0.0
  0
LINE
  5
1071
  8
2
 10
38.970049859686583
 20
48.35741043779425
 30
0.0
 11
49.076049859686641
 21
48.35741043779425
 31
0.0
  0
LINE
  5
1072
  8
2
 10
38.970049859686348
 20
48.35741043779425
 30
0.0
 11
44.023049859686402
 21
51.393559145740618
 31
0.0
  0
LINE
  5
1073
  8
2
 10
49.076049859686691
 20
48.357410437794179
 30
0.0
 11
44.023049859686402
 21
51.393559145740618
 31
0.0
  0
LINE
  5
1074
  8
2
 10
50.02304985968658
 20
43.357410437794243
 30
0.0
 11
49.076049859686641
 21
44.997662552561927
 31
0.0
  0
LINE
  5
1075
  8
2
 10
38.023049859686239
 20
43.357410437794243
 30
0.0
 11
38.970049859686192
 21
44.997662552561927
 31
0.0
  0
LINE
  5
1076
  8
2
 10
51.07604985968652
 20
18.35741043779424
 30
0.0
 11
49.076049859686457
 21
20.35741043779424
 31
0.0
  0
LINE
  5
1077
  8
2
 10
49.076049859686457
 20
20.35741043779424
 30
0.0
 11
38.970049859686469
 21
20.35741043779424
 31
0.0
  0
LINE
  5
1078
  8
2
 10
36.970049859686419
 20
18.35741043779424
 30
0.0
 11
38.970049859686469
 21
20.35741043779424
 31
0.0
  0
LINE
  5
1079
  8
0
 10
85.023049859686012
 20
19.157410437794141
 30
0.0
 11
110.4264617040303
 21
19.157410437794141
 31
0.0
  0
LINE
  5
107A
  8
0
 10
85.823049859686023
 20
18.35741043779413
 30
0.0
 11
85.023049859686012
 21
19.157410437794141
 31
0.0
  0
LINE
  5
107B
  8
0
 10
85.823049859686023
 20
18.35741043779413
 30
0.0
 11
109.6264617040304
 21
18.35741043779419
 31
0.0
  0
LINE
  5
107C
  8
2
 10
90.671755781858224
 20
18.35741043779413
 30
0.0
 11
92.67175578185828
 21
20.35741043779413
 31
0.0
  0
LINE
  5
107D
  8
2
 10
102.7777557818583
 20
20.35741043779413
 30
0.0
 11
92.67175578185828
 21
20.35741043779413
 31
0.0
  0
LINE
  5
107E
  8
2
 10
104.7777557818583
 20
18.35741043779413
 30
0.0
 11
102.7777557818583
 21
20.35741043779413
 31
0.0
  0
LINE
  5
107F
  8
2
 10
91.72475578185805
 20
43.35741043779413
 30
0.0
 11
92.671755781857996
 21
44.99766255256182
 31
0.0
  0
LINE
  5
1080
  8
2
 10
103.72475578185841
 20
43.35741043779413
 30
0.0
 11
102.7777557818584
 21
44.99766255256182
 31
0.0
  0
LINE
  5
1081
  8
2
 10
92.671755781858394
 20
48.35741043779413
 30
0.0
 11
102.7777557818584
 21
48.35741043779413
 31
0.0
  0
LINE
  5
1082
  8
2
 10
91.724755781858391
 20
43.35741043779413
 30
0.0
 11
103.72475578185841
 21
43.35741043779413
 31
0.0
  0
LINE
  5
1083
  8
2
 10
103.72475578185809
 20
19.410410437794411
 30
0.0
 11
103.72475578185831
 21
43.35741043779413
 31
0.0
  0
LINE
  5
1084
  8
2
 10
102.7777557818583
 20
20.35741043779413
 30
0.0
 11
102.7777557818584
 21
48.35741043779413
 31
0.0
  0
LINE
  5
1085
  8
2
 10
92.671755781858224
 20
20.357410437794069
 30
0.0
 11
92.671755781858394
 21
48.35741043779413
 31
0.0
  0
LINE
  5
1086
  8
2
 10
91.724755781858278
 20
19.41041043779413
 30
0.0
 11
91.724755781858235
 21
43.35741043779413
 31
0.0
  0
LINE
  5
1087
  8
0
 10
110.4264617040303
 20
19.157410437794141
 30
0.0
 11
109.6264617040304
 21
18.35741043779413
 31
0.0
  0
LINE
  5
1088
  8
2
 10
102.7777557818585
 20
48.357410437794073
 30
0.0
 11
97.724755781858221
 21
51.393559145740511
 31
0.0
  0
LINE
  5
1089
  8
2
 10
92.671755781858167
 20
48.35741043779413
 30
0.0
 11
97.724755781858221
 21
51.393559145740511
 31
0.0
  0
LINE
  5
108A
  8
0
 10
33.023049859686239
 20
67.557410437794232
 30
0.0
 11
33.023049859687148
 21
19.157410437794251
 31
0.0
  0
TEXT
  5
114B
  8
0
 62
     3
 10
0.0
 20
0.0
 30
0.0
 40
5.0
  1
BJ812-12050-F
  7
STANDARD1
  0
ENDSEC
  0
EOF
