  0
SECTION
  2
HEADER
  9
$ACADVER
  1
AC1009
  9
$INSBASE
 10
0.0
 20
0.0
 30
0.0
  9
$EXTMIN
 10
0.0
 20
-2.960436562073669
 30
0.0
  9
$EXTMAX
 10
158.05345806746749
 20
83.948864097658998
 30
0.0
  9
$LIMMIN
 10
0.0
 20
0.0
  9
$LIMMAX
 10
375.0
 20
270.0
  9
$ORTHOMODE
 70
     0
  9
$REGENMODE
 70
     1
  9
$FILLMODE
 70
     1
  9
$QTEXTMODE
 70
     0
  9
$MIRRTEXT
 70
     0
  9
$DRAGMODE
 70
     2
  9
$LTSCALE
 40
5.0
  9
$OSMODE
 70
  3071
  9
$ATTMODE
 70
     1
  9
$TEXTSIZE
 40
0.2
  9
$TRACEWID
 40
0.05
  9
$TEXTSTYLE
  7
STANDARD
  9
$CLAYER
  8
0
  9
$CELTYPE
  6
BYLAYER
  9
$CECOLOR
 62
   256
  9
$DIMSCALE
 40
1.0
  9
$DIMASZ
 40
3.0
  9
$DIMEXO
 40
2.0
  9
$DIMDLI
 40
0.38
  9
$DIMRND
 40
0.0
  9
$DIMDLE
 40
0.0
  9
$DIMEXE
 40
2.0
  9
$DIMTP
 40
0.0
  9
$DIMTM
 40
0.0
  9
$DIMTXT
 40
3.2000000000000002
  9
$DIMCEN
 40
0.0
  9
$DIMTSZ
 40
0.0
  9
$DIMTOL
 70
     0
  9
$DIMLIM
 70
     0
  9
$DIMTIH
 70
     0
  9
$DIMTOH
 70
     0
  9
$DIMSE1
 70
     0
  9
$DIMSE2
 70
     0
  9
$DIMTAD
 70
     1
  9
$DIMZIN
 70
     0
  9
$DIMBLK
  1

  9
$DIMASO
 70
     0
  9
$DIMSHO
 70
     0
  9
$DIMPOST
  1

  9
$DIMAPOST
  1

  9
$DIMALT
 70
     0
  9
$DIMALTD
 70
     2
  9
$DIMALTF
 40
25.399999999999999
  9
$DIMLFAC
 40
1.0
  9
$DIMTOFL
 70
     1
  9
$DIMTVP
 40
1.6000000000000001
  9
$DIMTIX
 70
     1
  9
$DIMSOXD
 70
     0
  9
$DIMSAH
 70
     0
  9
$DIMBLK1
  1

  9
$DIMBLK2
  1

  9
$DIMSTYLE
  2
STANDARD
  9
$DIMCLRD
 70
     0
  9
$DIMCLRE
 70
     0
  9
$DIMCLRT
 70
     0
  9
$DIMTFAC
 40
1.0
  9
$DIMGAP
 40
0.09
  9
$LUNITS
 70
     2
  9
$LUPREC
 70
     4
  9
$SKETCHINC
 40
0.1
  9
$FILLETRAD
 40
0.0
  9
$AUNITS
 70
     0
  9
$AUPREC
 70
     4
  9
$MENU
  1
E:\r13\win\SUPPORT\ACAD
  9
$ELEVATION
 40
0.0
  9
$PELEVATION
 40
0.0
  9
$THICKNESS
 40
0.0
  9
$LIMCHECK
 70
     0
  9
$BLIPMODE
 70
     0
  9
$CHAMFERA
 40
0.0
  9
$CHAMFERB
 40
0.0
  9
$SKPOLY
 70
     0
  9
$TDCREATE
 40
2449840.6513888892
  9
$TDUPDATE
 40
2456598.4313893872
  9
$TDINDWG
 40
0.0340263542
  9
$TDUSRTIMER
 40
0.0340263542
  9
$USRTIMER
 70
     1
  9
$ANGBASE
 50
0.0
  9
$ANGDIR
 70
     0
  9
$PDMODE
 70
     0
  9
$PDSIZE
 40
0.0
  9
$PLINEWID
 40
0.0
  9
$COORDS
 70
     1
  9
$SPLFRAME
 70
     0
  9
$SPLINETYPE
 70
     6
  9
$SPLINESEGS
 70
     8
  9
$ATTDIA
 70
     0
  9
$ATTREQ
 70
     1
  9
$HANDLING
 70
     1
  9
$HANDSEED
  5
A17
  9
$SURFTAB1
 70
     6
  9
$SURFTAB2
 70
     6
  9
$SURFTYPE
 70
     6
  9
$SURFU
 70
     6
  9
$SURFV
 70
     6
  9
$UCSNAME
  2

  9
$UCSORG
 10
0.0
 20
0.0
 30
0.0
  9
$UCSXDIR
 10
1.0
 20
0.0
 30
0.0
  9
$UCSYDIR
 10
0.0
 20
1.0
 30
0.0
  9
$PUCSNAME
  2

  9
$PUCSORG
 10
0.0
 20
0.0
 30
0.0
  9
$PUCSXDIR
 10
1.0
 20
0.0
 30
0.0
  9
$PUCSYDIR
 10
0.0
 20
1.0
 30
0.0
  9
$USERI1
 70
     0
  9
$USERI2
 70
     1
  9
$USERI3
 70
     0
  9
$USERI4
 70
     0
  9
$USERI5
 70
     0
  9
$USERR1
 40
0.0
  9
$USERR2
 40
0.0
  9
$USERR3
 40
0.0
  9
$USERR4
 40
0.0
  9
$USERR5
 40
0.0
  9
$WORLDVIEW
 70
     1
  9
$SHADEDGE
 70
     3
  9
$SHADEDIF
 70
    70
  9
$TILEMODE
 70
     1
  9
$MAXACTVP
 70
    16
  9
$PLIMCHECK
 70
     0
  9
$PEXTMIN
 10
1.0000000000000000E+020
 20
1.0000000000000000E+020
 30
1.0000000000000000E+020
  9
$PEXTMAX
 10
-1.0000000000000000E+020
 20
-1.0000000000000000E+020
 30
-1.0000000000000000E+020
  9
$PLIMMIN
 10
0.0
 20
0.0
  9
$PLIMMAX
 10
12.0
 20
9.0
  9
$UNITMODE
 70
     0
  9
$VISRETAIN
 70
     0
  9
$PLINEGEN
 70
     0
  9
$PSLTSCALE
 70
     0
  0
ENDSEC
  0
SECTION
  2
TABLES
  0
TABLE
  2
VPORT
 70
     1
  0
VPORT
  2
*ACTIVE
 70
     0
 10
0.0
 20
0.0
 11
1.0
 21
1.0
 12
195.0581083320873
 22
133.5127261426681
 13
0.0
 23
0.0
 14
5.0
 24
5.0
 15
10.0
 25
10.0
 16
0.0
 26
0.0
 36
1.0
 17
0.0
 27
0.0
 37
0.0
 40
275.42274993631997
 41
1.831871345029239
 42
50.0
 43
0.0
 44
0.0
 50
0.0
 51
0.0
 71
     0
 72
   500
 73
     1
 74
     0
 75
     0
 76
     0
 77
     0
 78
     2
  0
ENDTAB
  0
TABLE
  2
LTYPE
 70
     3
  0
LTYPE
  2
CONTINUOUS
 70
     0
  3
Solid Line
 72
    65
 73
     0
 40
0.0
  0
LTYPE
  2
CENTER
 70
     0
  3
____ _ ____ _ ____ _ ____ _ ____ _ ____ _ ____
 72
    65
 73
     4
 40
2.0
 49
1.25
 49
-0.25
 49
0.25
 49
-0.25
  0
LTYPE
  2
PHANTOM2
 70
     0
  3
___ _ _ ___ _ _ ___ _ _ ___ _ _
 72
    65
 73
     6
 40
1.25
 49
0.625
 49
-0.125
 49
0.125
 49
-0.125
 49
0.125
 49
-0.125
  0
ENDTAB
  0
TABLE
  2
LAYER
 70
     3
  0
LAYER
  2
0
 70
     0
 62
     7
  6
CONTINUOUS
  0
LAYER
  2
1
 70
     0
 62
     1
  6
CENTER
  0
LAYER
  2
3
 70
     0
 62
     3
  6
CONTINUOUS
  0
ENDTAB
  0
TABLE
  2
STYLE
 70
     2
  0
STYLE
  2
STANDARD
 70
     0
 40
0.0
 41
1.0
 50
0.0
 71
     0
 42
0.2
  3
TXT
  4
BIGFONT
  0
STYLE
  2
STANDARD1
 70
     0
 40
0.0
 41
1.0
 50
0.0
 71
     0
 42
3.0
  3
txt
  4

  0
ENDTAB
  0
TABLE
  2
VIEW
 70
     1
  0
VIEW
  2
ALL
 70
     0
 40
270.0
 10
220.99159663865549
 20
135.0
 41
0.0
 11
0.0
 21
0.0
 31
1.0
 12
0.0
 22
0.0
 32
0.0
 42
0.0
 43
0.0
 44
0.0
 50
0.0
 71
     0
  0
ENDTAB
  0
TABLE
  2
UCS
 70
     0
  0
ENDTAB
  0
TABLE
  2
APPID
 70
     4
  0
APPID
  2
ACAD
 70
     0
  0
APPID
  2
_CALL_MAC$
 70
     0
  0
APPID
  2
ACAD_MLEADERVER
 70
     0
  0
APPID
  2
ACAD_NAV_VCDISPLAY
 70
     0
  0
ENDTAB
  0
TABLE
  2
DIMSTYLE
 70
     1
  0
DIMSTYLE
  2
STANDARD
 70
     0
  3

  4

  5

  6

  7

 40
1.0
 41
0.18
 42
0.0625
 43
0.38
 44
0.18
 45
0.0
 46
0.0
 47
0.0
 48
0.0
140
0.18
141
0.09
142
0.0
143
25.399999999999999
144
1.0
145
0.0
146
1.0
147
0.09
 71
     0
 72
     0
 73
     1
 74
     1
 75
     0
 76
     0
 77
     0
 78
     0
170
     0
171
     2
172
     0
173
     0
174
     0
175
     0
176
     0
177
     0
178
     0
  0
ENDTAB
  0
ENDSEC
  0
SECTION
  2
BLOCKS
  0
BLOCK
  8
0
  2
$MODEL_SPACE
 70
     0
 10
0.0
 20
0.0
 30
0.0
  3
$MODEL_SPACE
  1

  0
ENDBLK
  5
6E2
  8
0
  0
BLOCK
 67
     1
  8
0
  2
$PAPER_SPACE
 70
     0
 10
0.0
 20
0.0
 30
0.0
  3
$PAPER_SPACE
  1

  0
ENDBLK
  5
6E0
 67
     1
  8
0
  0
BLOCK
  8
0
  2
STDGX5
 70
     0
 10
0.0
 20
0.0
 30
0.0
  3
STDGX5
  1

  0
ENDBLK
  5
2C7
  8
0
  0
BLOCK
  8
0
  2
*X1
 70
     1
 10
0.0
 20
0.0
 30
0.0
  3
*X1
  1

  0
LINE
  5
9A1
  8
0
 62
     0
 10
119.2043389683185
 20
66.94886409253138
 30
0.0
 11
120.5534580674675
 21
68.29798319168043
 31
0.0
  0
LINE
  5
9A2
  8
0
 62
     0
 10
117.4365720153522
 20
66.94886409253138
 30
0.0
 11
120.5534580674676
 21
70.065750144646813
 31
0.0
  0
LINE
  5
9A3
  8
0
 62
     0
 10
115.6688050623857
 20
66.948864092531352
 30
0.0
 11
120.5534580674675
 21
71.833517097613168
 31
0.0
  0
LINE
  5
9A4
  8
0
 62
     0
 10
118.8711339591857
 20
71.918959942297761
 30
0.0
 11
120.5534580674675
 21
73.601284050579579
 31
0.0
  0
LINE
  5
9A5
  8
0
 62
     0
 10
113.9010381094194
 20
66.94886409253138
 30
0.0
 11
117.0833622228289
 21
70.13118820594093
 31
0.0
  0
LINE
  5
9A6
  8
0
 62
     0
 10
118.942308738447
 20
73.757901674525328
 30
0.0
 11
120.5534580674676
 21
75.369051003545906
 31
0.0
  0
LINE
  5
9A7
  8
0
 62
     0
 10
112.13327115645301
 20
66.94886409253138
 30
0.0
 11
115.2444204906013
 21
70.060013426679632
 31
0.0
  0
LINE
  5
9A8
  8
0
 62
     0
 10
118.32505595388859
 20
74.908415842933294
 30
0.0
 11
120.5534580674675
 21
77.13681795651226
 31
0.0
  0
LINE
  5
9A9
  8
0
 62
     0
 10
110.36550420348659
 20
66.948864092531352
 30
0.0
 11
114.09390632219331
 21
70.677266211238049
 31
0.0
  0
LINE
  5
9AA
  8
0
 62
     0
 10
117.3181385593836
 20
75.669265401394739
 30
0.0
 11
120.5534580674676
 21
78.904584909478672
 31
0.0
  0
LINE
  5
9AB
  8
0
 62
     0
 10
108.5977372505203
 20
66.94886409253138
 30
0.0
 11
113.3330567637319
 21
71.684183605743044
 31
0.0
  0
LINE
  5
9AC
  8
0
 62
     0
 10
115.8209464561473
 20
75.939840251124764
 30
0.0
 11
118.8299702975541
 21
78.948864092531579
 31
0.0
  0
LINE
  5
9AD
  8
0
 62
     0
 10
106.8299702975539
 20
66.948864092531409
 30
0.0
 11
113.06248191400191
 21
73.181375708979346
 31
0.0
  0
LINE
  5
9AE
  8
0
 62
     0
 10
105.0622033445875
 20
66.94886409253138
 30
0.0
 11
117.0622033445877
 21
78.948864092531593
 31
0.0
  0
LINE
  5
9AF
  8
0
 62
     0
 10
103.2944363916212
 20
66.94886409253138
 30
0.0
 11
115.2944363916214
 21
78.948864092531593
 31
0.0
  0
LINE
  5
9B0
  8
0
 62
     0
 10
101.52666943865481
 20
66.948864092531352
 30
0.0
 11
113.52666943865501
 21
78.948864092531579
 31
0.0
  0
LINE
  5
9B1
  8
0
 62
     0
 10
99.758902485688452
 20
66.94886409253138
 30
0.0
 11
111.75890248568859
 21
78.948864092531551
 31
0.0
  0
LINE
  5
9B2
  8
0
 62
     0
 10
97.991135532722097
 20
66.94886409253138
 30
0.0
 11
109.9911355327222
 21
78.948864092531593
 31
0.0
  0
LINE
  5
9B3
  8
0
 62
     0
 10
97.053458067467659
 20
67.778953580243325
 30
0.0
 11
108.2233685797559
 21
78.948864092531579
 31
0.0
  0
LINE
  5
9B4
  8
0
 62
     0
 10
97.053458067467659
 20
69.54672053320968
 30
0.0
 11
106.4556016267895
 21
78.948864092531551
 31
0.0
  0
LINE
  5
9B5
  8
0
 62
     0
 10
97.053458067467631
 20
71.314487486176091
 30
0.0
 11
104.6878346738232
 21
78.948864092531579
 31
0.0
  0
LINE
  5
9B6
  8
0
 62
     0
 10
97.053458067467659
 20
73.082254439142446
 30
0.0
 11
102.92006772085681
 21
78.948864092531593
 31
0.0
  0
LINE
  5
9B7
  8
0
 62
     0
 10
97.053458067467659
 20
74.850021392108772
 30
0.0
 11
101.1523007678904
 21
78.948864092531593
 31
0.0
  0
LINE
  5
9B8
  8
0
 62
     0
 10
97.053458067467702
 20
76.617788345075184
 30
0.0
 11
99.384533814924154
 21
78.948864092531636
 31
0.0
  0
LINE
  5
9B9
  8
0
 62
     0
 10
97.053458067467659
 20
78.385555298041524
 30
0.0
 11
97.616766861957728
 21
78.948864092531593
 31
0.0
  0
ENDBLK
  5
9BB
  8
0
  0
BLOCK
  8
0
  2
*X2
 70
     1
 10
0.0
 20
0.0
 30
0.0
  3
*X2
  1

  0
LINE
  5
9BD
  8
0
 62
     0
 10
120.5534580674675
 20
78.146155887078663
 30
0.0
 11
119.75074985688801
 21
78.948864097658173
 31
0.0
  0
LINE
  5
9BE
  8
0
 62
     0
 10
120.5534580674675
 20
76.37838893411228
 30
0.0
 11
117.9829829039216
 21
78.948864097658188
 31
0.0
  0
LINE
  5
9BF
  8
0
 62
     0
 10
120.5534580674675
 20
74.610621981145925
 30
0.0
 11
116.2152159509552
 21
78.948864097658202
 31
0.0
  0
LINE
  5
9C0
  8
0
 62
     0
 10
120.5534580674675
 20
72.842855028179585
 30
0.0
 11
114.4474489979888
 21
78.94886409765823
 31
0.0
  0
LINE
  5
9C1
  8
0
 62
     0
 10
115.7005157593495
 20
75.928030383331148
 30
0.0
 11
112.6796820450225
 21
78.948864097658145
 31
0.0
  0
LINE
  5
9C2
  8
0
 62
     0
 10
120.5534580674675
 20
71.075088075213174
 30
0.0
 11
119.0326243480132
 21
72.595921794667447
 31
0.0
  0
LINE
  5
9C3
  8
0
 62
     0
 10
114.4052451492792
 20
75.455534040435182
 30
0.0
 11
110.9119150920562
 21
78.948864097658188
 31
0.0
  0
LINE
  5
9C4
  8
0
 62
     0
 10
120.5534580674675
 20
69.307321122246833
 30
0.0
 11
118.56012800511721
 21
71.3006511845971
 31
0.0
  0
LINE
  5
9C5
  8
0
 62
     0
 10
113.5267777965242
 20
74.566234440223781
 30
0.0
 11
109.14414813908969
 21
78.94886409765823
 31
0.0
  0
LINE
  5
9C6
  8
0
 62
     0
 10
120.5534580674674
 20
67.539554169280507
 30
0.0
 11
117.67082840490581
 21
70.422183831842176
 31
0.0
  0
LINE
  5
9C7
  8
0
 62
     0
 10
113.0692237726299
 20
73.256021511151658
 30
0.0
 11
107.3763811861234
 21
78.948864097658159
 31
0.0
  0
LINE
  5
9C8
  8
0
 62
     0
 10
119.3763811861236
 20
66.94886409765796
 30
0.0
 11
116.3606154758337
 21
69.964629807947858
 31
0.0
  0
LINE
  5
9C9
  8
0
 62
     0
 10
117.6086142331572
 20
66.948864097657975
 30
0.0
 11
105.608614233157
 21
78.948864097658202
 31
0.0
  0
LINE
  5
9CA
  8
0
 62
     0
 10
115.8408472801909
 20
66.948864097657946
 30
0.0
 11
103.8408472801906
 21
78.948864097658159
 31
0.0
  0
LINE
  5
9CB
  8
0
 62
     0
 10
114.0730803272246
 20
66.948864097657918
 30
0.0
 11
102.0730803272243
 21
78.948864097658159
 31
0.0
  0
LINE
  5
9CC
  8
0
 62
     0
 10
112.30531337425811
 20
66.948864097657989
 30
0.0
 11
100.30531337425791
 21
78.948864097658173
 31
0.0
  0
LINE
  5
9CD
  8
0
 62
     0
 10
110.53754642129179
 20
66.948864097657946
 30
0.0
 11
98.537546421291594
 21
78.948864097658173
 31
0.0
  0
LINE
  5
9CE
  8
0
 62
     0
 10
108.7697794683254
 20
66.948864097657975
 30
0.0
 11
97.053458067467659
 21
78.665185498515754
 31
0.0
  0
LINE
  5
9CF
  8
0
 62
     0
 10
107.002012515359
 20
66.948864097657989
 30
0.0
 11
97.053458067467631
 21
76.897418545549414
 31
0.0
  0
LINE
  5
9D0
  8
0
 62
     0
 10
105.2342455623927
 20
66.948864097657932
 30
0.0
 11
97.053458067467631
 21
75.129651592583016
 31
0.0
  0
LINE
  5
9D1
  8
0
 62
     0
 10
103.4664786094263
 20
66.948864097657975
 30
0.0
 11
97.053458067467659
 21
73.361884639616676
 31
0.0
  0
LINE
  5
9D2
  8
0
 62
     0
 10
101.69871165645991
 20
66.948864097657946
 30
0.0
 11
97.053458067467631
 21
71.594117686650236
 31
0.0
  0
LINE
  5
9D3
  8
0
 62
     0
 10
99.930944703493594
 20
66.94886409765796
 30
0.0
 11
97.053458067467659
 21
69.826350733683896
 31
0.0
  0
LINE
  5
9D4
  8
0
 62
     0
 10
98.163177750527154
 20
66.948864097658003
 30
0.0
 11
97.053458067467645
 21
68.058583780717527
 31
0.0
  0
ENDBLK
  5
9D6
  8
0
  0
ENDSEC
  0
SECTION
  2
ENTITIES
  0
INSERT
  5
364
  8
0
  2
STDGX5
 10
0.0
 20
0.0
 30
0.0
  0
INSERT
  5
365
  8
0
  2
STDGX5
 10
0.0
 20
0.0
 30
0.0
  0
INSERT
  5
366
  8
0
  2
STDGX5
 10
275.0
 20
0.0
 30
0.0
  0
INSERT
  5
367
  8
0
  2
STDGX5
 10
275.0
 20
0.0
 30
0.0
  0
INSERT
  5
4ED
  8
0
  2
STDGX5
 10
0.0
 20
0.0
 30
0.0
  0
INSERT
  5
4EE
  8
0
  2
STDGX5
 10
0.0
 20
0.0
 30
0.0
  0
INSERT
  5
4EF
  8
0
  2
STDGX5
 10
275.0
 20
0.0
 30
0.0
  0
INSERT
  5
4F0
  8
0
  2
STDGX5
 10
275.0
 20
0.0
 30
0.0
  0
INSERT
  5
500
  8
0
  2
STDGX5
 10
471.79233269980392
 20
233.9519585625761
 30
0.0
  0
INSERT
  5
501
  8
0
  2
STDGX5
 10
471.79233269980392
 20
233.9519585625761
 30
0.0
  0
INSERT
  5
502
  8
0
  2
STDGX5
 10
471.79233269980392
 20
233.9519585625761
 30
0.0
  0
INSERT
  5
503
  8
0
  2
STDGX5
 10
471.79233269980392
 20
233.9519585625761
 30
0.0
  0
INSERT
  5
67F
  8
0
  2
STDGX5
 10
0.0
 20
0.0
 30
0.0
  0
INSERT
  5
680
  8
0
  2
STDGX5
 10
0.0
 20
0.0
 30
0.0
  0
INSERT
  5
681
  8
0
  2
STDGX5
 10
275.0
 20
0.0
 30
0.0
  0
INSERT
  5
682
  8
0
  2
STDGX5
 10
275.0
 20
0.0
 30
0.0
  0
INSERT
  5
692
  8
0
  2
STDGX5
 10
471.79233269980392
 20
233.9519585625761
 30
0.0
  0
INSERT
  5
693
  8
0
  2
STDGX5
 10
471.79233269980392
 20
233.9519585625761
 30
0.0
  0
INSERT
  5
694
  8
0
  2
STDGX5
 10
471.79233269980392
 20
233.9519585625761
 30
0.0
  0
INSERT
  5
695
  8
0
  2
STDGX5
 10
471.79233269980392
 20
233.9519585625761
 30
0.0
  0
INSERT
  5
698
  8
0
  2
STDGX5
 10
625.17172490477549
 20
209.60057380630951
 30
0.0
  0
INSERT
  5
699
  8
0
  2
STDGX5
 10
625.17172490477549
 20
209.60057380630951
 30
0.0
  0
INSERT
  5
69A
  8
0
  2
STDGX5
 10
625.17172490477549
 20
209.60057380630951
 30
0.0
  0
INSERT
  5
69B
  8
0
  2
STDGX5
 10
625.17172490477549
 20
209.60057380630951
 30
0.0
  0
INSERT
  5
69C
  8
0
  2
STDGX5
 10
611.48701390477561
 20
209.6279228063095
 30
0.0
 41
0.1
 42
0.1
 43
0.1
  0
INSERT
  5
69D
  8
0
  2
STDGX5
 10
611.48701390477561
 20
209.6279228063095
 30
0.0
 41
0.1
 42
0.1
 43
0.1
  0
INSERT
  5
69E
  8
0
  2
STDGX5
 10
611.48701390477561
 20
209.6279228063095
 30
0.0
 41
0.1
 42
0.1
 43
0.1
  0
CIRCLE
  5
847
  8
0
 10
147.05345806746749
 20
72.948864097658998
 30
0.0
 40
3.999999999999317
  0
INSERT
  5
848
  8
3
  6
CONTINUOUS
  2
*X1
 10
0.0
 20
0.0
 30
0.0
1001
ACAD
1000
HATCH
1002
{
1070
    19
1000
ANSI31
1040
10.0
1040
0.0
1000
R14_HATCH_DATA
1000
848
1011
1.0
1021
0.0
1031
0.0
1021
0.0
1031
0.0
1011
0.0
1021
0.0
1031
0.0
1021
1.0
1031
0.0
1011
0.0
1021
0.0
1031
0.0
1021
0.0
1031
1.0
1040
0.0
1010
0.0
1020
0.0
1030
1.0
1000
ANSI31
1070
     0
1070
     0
1071
        3
1071
       16
1071
        1
1070
     2
1040
116.0534580674676
1040
72.948864097658998
1040
2.9999999999999432
1040
0.0
1040
6.2831853071795862
1070
     1
1071
        0
1071
        1
1071
        4
1070
     1
1040
97.053458067467659
1040
78.948864092531593
1040
120.5534580674675
1040
78.948864092531593
1070
     1
1040
120.5534580674675
1040
78.948864092531593
1040
120.5534580674675
1040
66.94886409253138
1070
     1
1040
120.5534580674675
1040
66.94886409253138
1040
97.053458067467659
1040
66.94886409253138
1070
     1
1040
97.053458067467659
1040
66.94886409253138
1040
97.053458067467659
1040
78.948864092531593
1071
        0
1071
       49
1071
        1
1070
     1
1040
120.5534580674675
1040
67.140499683923963
1040
120.36182247607491
1040
66.94886409253138
1071
        0
1070
     0
1070
     1
1040
0.0
1040
10.0
1070
     0
1070
     1
1040
0.7853981633974483
1040
-251.05681656923321
1040
-151.28433348991251
1040
-0.8838834764831842
1040
0.8838834764831844
1070
     0
1071
        1
1040
-251.05681656923321
1040
-151.28433348991251
1040
0.0
1002
}
  0
INSERT
  5
849
  8
3
  6
CONTINUOUS
  2
*X2
 10
0.0
 20
0.0
 30
0.0
1001
ACAD
1000
HATCH
1002
{
1070
    19
1000
ANSI31
1040
10.0
1040
1.5707963267948959
1000
R14_HATCH_DATA
1000
849
1011
1.0
1021
0.0
1031
0.0
1021
0.0
1031
0.0
1011
0.0
1021
0.0
1031
0.0
1021
1.0
1031
0.0
1011
0.0
1021
0.0
1031
0.0
1021
0.0
1031
1.0
1040
0.0
1010
0.0
1020
0.0
1030
1.0
1000
ANSI31
1070
     0
1070
     0
1071
        3
1071
       16
1071
        1
1070
     2
1040
116.0534580674676
1040
72.948864102785592
1040
2.9999999999999432
1040
0.0
1040
6.2831853071795862
1070
     1
1071
        0
1071
        1
1071
        4
1070
     1
1040
97.053458067467659
1040
78.948864097658202
1040
120.5534580674675
1040
78.948864097658202
1070
     1
1040
120.5534580674675
1040
78.948864097658202
1040
120.5534580674675
1040
66.948864097657975
1070
     1
1040
120.5534580674675
1040
66.948864097657975
1040
97.053458067467659
1040
66.948864097657975
1070
     1
1040
97.053458067467659
1040
66.948864097657975
1040
97.053458067467659
1040
78.948864097658202
1071
        0
1071
       49
1071
        1
1070
     1
1040
120.5534580674675
1040
67.140499689050543
1040
120.36182247607491
1040
66.948864097657975
1071
        0
1070
     0
1070
     1
1040
1.5707963267948959
1040
10.0
1070
     0
1070
     1
1040
2.3561944901923439
1040
-251.05681656923321
1040
-151.28433348478589
1040
-0.8838834764831844
1040
-0.8838834764831842
1070
     0
1071
        1
1040
-251.05681656923321
1040
-151.28433348478589
1040
0.0
1002
}
  0
CIRCLE
  5
84A
  8
0
 10
147.05345806746749
 20
72.948864097658998
 30
0.0
 40
6.0
  0
LINE
  5
84B
  8
1
 10
158.05345806746749
 20
72.948864097659111
 30
0.0
 11
136.05345806746749
 21
72.948864097658998
 31
0.0
  0
LINE
  5
84C
  8
1
 10
147.05345806746749
 20
61.948864097658991
 30
0.0
 11
147.05345806746749
 21
83.948864097658998
 31
0.0
  0
LINE
  5
84D
  8
1
 10
45.053458067467538
 20
61.948864097658891
 30
0.0
 11
45.053458067467538
 21
83.948864097658884
 31
0.0
  0
LINE
  5
84E
  8
1
 10
56.053458067467602
 20
72.948864097658998
 30
0.0
 11
34.053458067467609
 21
72.948864097658884
 31
0.0
  0
POLYLINE
  5
84F
  8
0
 66
     1
 10
0.0
 20
0.0
 30
0.0
 70
   128
  0
VERTEX
  5
9D7
  8
0
 10
72.553458080506118
 20
73.885613779955293
 30
0.0
  0
VERTEX
  5
9D8
  8
0
 10
72.230447937613519
 20
73.553586455479945
 30
0.0
  0
VERTEX
  5
9D9
  8
0
 10
72.043725095568391
 20
73.225738790304135
 30
0.0
  0
VERTEX
  5
9DA
  8
0
 10
71.993761269254776
 20
72.961872748626305
 30
0.0
  0
VERTEX
  5
9DB
  8
0
 10
72.035147963902148
 20
72.696865729474212
 30
0.0
  0
VERTEX
  5
9DC
  8
0
 10
72.179039047910067
 20
72.414435930502336
 30
0.0
  0
VERTEX
  5
9DD
  8
0
 10
72.553458080506118
 20
72.012114415363143
 30
0.0
  0
SEQEND
  5
9DE
  8
0
  0
LINE
  5
850
  8
1
 10
116.0534580674676
 20
67.448864102785706
 30
0.0
 11
116.0534580674676
 21
78.448864102785592
 31
0.0
  0
LINE
  5
851
  8
1
 10
66.053458067467602
 20
72.948864097658998
 30
0.0
 11
126.0534580674675
 21
72.948864097658998
 31
0.0
  0
LINE
  5
852
  8
0
 10
91.053458067467545
 20
68.448864097658429
 30
0.0
 11
91.053458067467588
 21
77.448864097658074
 31
0.0
  0
LINE
  5
853
  8
0
 10
91.553458067467602
 20
77.948864097658074
 30
0.0
 11
91.553458067467545
 21
67.948864097658429
 31
0.0
  0
LINE
  5
854
  8
0
 10
96.053458067467545
 20
67.948864097658316
 30
0.0
 11
96.053458067467545
 21
77.948864097658202
 31
0.0
  0
LINE
  5
855
  8
0
 10
121.0534580674675
 20
78.448864097657975
 30
0.0
 11
121.0534580674675
 21
67.448864097657975
 31
0.0
  0
LINE
  5
856
  8
0
 10
71.053458067467545
 20
70.350787886305852
 30
0.0
 11
71.053458067467602
 21
75.546940309012484
 31
0.0
  0
LINE
  5
857
  8
0
 10
72.553458067467602
 20
72.012114397314903
 30
0.0
 11
91.053457620432695
 21
72.012114415363044
 31
0.0
  0
LINE
  5
858
  8
0
 10
72.553458067467545
 20
69.948864097659225
 30
0.0
 11
72.553458067467602
 21
72.012114397314903
 31
0.0
  0
LINE
  5
859
  8
0
 10
72.553458067467602
 20
73.885613796834491
 30
0.0
 11
72.553458067467659
 21
75.948864097659225
 31
0.0
  0
LINE
  5
85A
  8
0
 10
72.553458067467602
 20
73.885613796834491
 30
0.0
 11
91.053457620432766
 21
73.885613779955179
 31
0.0
  0
LINE
  5
85B
  8
0
 10
91.053458067467545
 20
68.448864097658429
 30
0.0
 11
91.553458067467545
 21
67.948864097658429
 31
0.0
  0
LINE
  5
85C
  8
0
 10
91.553458067467602
 20
77.948864097658074
 30
0.0
 11
91.053458067467588
 21
77.448864097658074
 31
0.0
  0
LINE
  5
85D
  8
0
 10
96.053458067467545
 20
77.948864097658202
 30
0.0
 11
91.553458067467602
 21
77.948864097658074
 31
0.0
  0
LINE
  5
85E
  8
0
 10
91.553458067467545
 20
67.948864097658429
 30
0.0
 11
96.053458067467545
 21
67.948864097658316
 31
0.0
  0
LINE
  5
85F
  8
0
 10
96.053458067467545
 20
67.948864097658316
 30
0.0
 11
97.053458067467545
 21
66.948864097658202
 31
0.0
  0
LINE
  5
860
  8
0
 10
97.053458067467659
 20
78.948864097658202
 30
0.0
 11
96.053458067467545
 21
77.948864097658202
 31
0.0
  0
LINE
  5
861
  8
0
 10
121.0534580674675
 20
78.448864097657975
 30
0.0
 11
120.5534580674675
 21
78.948864097657975
 31
0.0
  0
LINE
  5
862
  8
0
 10
120.5534580674675
 20
66.948864097657975
 30
0.0
 11
121.0534580674675
 21
67.448864097657975
 31
0.0
  0
LINE
  5
863
  8
0
 10
71.053458067467545
 20
70.350787886305852
 30
0.0
 11
72.553458067467545
 21
69.948864097659225
 31
0.0
  0
LINE
  5
864
  8
0
 10
72.553458067467659
 20
75.948864097659225
 30
0.0
 11
71.053458067467602
 21
75.546940309012484
 31
0.0
  0
LINE
  5
865
  8
0
 10
91.053457620432823
 20
75.948864123736143
 30
0.0
 11
72.553458067467659
 21
75.948864097659225
 31
0.0
  0
LINE
  5
866
  8
0
 10
72.553458067467545
 20
69.948864097659225
 30
0.0
 11
91.053457620432695
 21
69.948864071582079
 31
0.0
  0
CIRCLE
  5
867
  8
0
 10
116.0534580674676
 20
72.948864102785592
 30
0.0
 40
2.9999999999999432
  0
LINE
  5
868
  8
0
 10
120.5534580674675
 20
78.948864097658202
 30
0.0
 11
120.5534580674675
 21
66.948864097657975
 31
0.0
  0
LINE
  5
869
  8
0
 10
97.053458067467659
 20
66.948864097657975
 30
0.0
 11
120.5534580674675
 21
66.948864097657975
 31
0.0
  0
LINE
  5
86A
  8
0
 10
97.053458067467659
 20
78.948864097658202
 30
0.0
 11
97.053458067467659
 21
66.948864097657975
 31
0.0
  0
LINE
  5
86B
  8
0
 10
97.053458067467659
 20
78.948864097658202
 30
0.0
 11
120.5534580674675
 21
78.948864097658202
 31
0.0
  0
LINE
  5
86C
  8
0
 10
120.5534580674675
 20
67.140499689050543
 30
0.0
 11
120.36182247607491
 21
66.948864097657975
 31
0.0
  0
CIRCLE
  5
86D
  8
0
 10
45.053458067467602
 20
72.948864097658884
 30
0.0
 40
6.0
  0
ARC
  5
86E
  8
0
 10
45.053458067467602
 20
72.948864097658884
 30
0.0
 40
3.0000000000003029
 50
341.80512764946559
 51
18.19487232703041
  0
CIRCLE
  5
86F
  8
0
 10
45.053458067467602
 20
72.948864097658884
 30
0.0
 40
4.9999999999998286
  0
LINE
  5
870
  8
0
 10
47.903458067659692
 20
73.885613796835173
 30
0.0
 11
47.90345806727543
 21
72.012114397315599
 31
0.0
  0
ARC
  5
871
  8
0
 10
45.053458067467602
 20
72.948864097659893
 30
0.0
 40
3.0000000000000009
 50
18.194872327016
 51
341.80512764948008
  0
CIRCLE
  5
872
  8
0
 10
45.053458067467538
 20
72.948864097659893
 30
0.0
 40
2.5980762113533298
  0
LINE
  5
881
  8
0
 10
145.55345806746769
 20
72.082838693874692
 30
0.0
 11
147.05345806746769
 21
71.216813290090215
 31
0.0
  0
LINE
  5
882
  8
0
 10
147.05345806746769
 20
71.216813290090215
 30
0.0
 11
148.55345806746749
 21
72.082838693874692
 31
0.0
  0
LINE
  5
883
  8
0
 10
148.55345806746749
 20
72.082838693874692
 30
0.0
 11
148.55345806746749
 21
73.814889501443815
 31
0.0
  0
LINE
  5
884
  8
0
 10
148.55345806746749
 20
73.814889501443815
 30
0.0
 11
147.05345806746749
 21
74.680914905227951
 31
0.0
  0
LINE
  5
885
  8
0
 10
147.05345806746749
 20
74.680914905227951
 30
0.0
 11
145.55345806746729
 21
73.814889501443304
 31
0.0
  0
LINE
  5
886
  8
0
 10
145.55345806746729
 20
73.814889501443304
 30
0.0
 11
145.55345806746769
 21
72.082838693874692
 31
0.0
  0
CIRCLE
  5
887
  8
0
 10
147.05345806746749
 20
72.948864097658998
 30
0.0
 40
2.9803847577293112
  0
CIRCLE
  5
888
  8
0
 10
147.05345806746749
 20
72.948864097658998
 30
0.0
 40
3.5
  0
TEXT
  5
947
  8
0
 62
     3
 10
0.0
 20
0.0
 30
0.0
 40
10.0
  1
BJ820-06020
  7
STANDARD1
  0
ENDSEC
  0
EOF
