  0
SECTION
  2
HEADER
  9
$ACADVER
  1
AC1009
  9
$INSBASE
 10
0.0
 20
0.0
 30
0.0
  9
$EXTMIN
 10
0.0
 20
-2.960436562073669
 30
0.0
  9
$EXTMAX
 10
172.87178323366149
 20
88.846591192805477
 30
0.0
  9
$LIMMIN
 10
0.0
 20
0.0
  9
$LIMMAX
 10
375.0
 20
270.0
  9
$ORTHOMODE
 70
     1
  9
$REGENMODE
 70
     1
  9
$FILLMODE
 70
     1
  9
$QTEXTMODE
 70
     0
  9
$MIRRTEXT
 70
     0
  9
$DRAGMODE
 70
     2
  9
$LTSCALE
 40
5.0
  9
$OSMODE
 70
  3071
  9
$ATTMODE
 70
     1
  9
$TEXTSIZE
 40
0.2
  9
$TRACEWID
 40
0.05
  9
$TEXTSTYLE
  7
STANDARD
  9
$CLAYER
  8
0
  9
$CELTYPE
  6
BYLAYER
  9
$CECOLOR
 62
   256
  9
$DIMSCALE
 40
1.0
  9
$DIMASZ
 40
3.0
  9
$DIMEXO
 40
2.0
  9
$DIMDLI
 40
0.38
  9
$DIMRND
 40
0.0
  9
$DIMDLE
 40
0.0
  9
$DIMEXE
 40
2.0
  9
$DIMTP
 40
0.0
  9
$DIMTM
 40
0.0
  9
$DIMTXT
 40
3.2000000000000002
  9
$DIMCEN
 40
0.0
  9
$DIMTSZ
 40
0.0
  9
$DIMTOL
 70
     0
  9
$DIMLIM
 70
     0
  9
$DIMTIH
 70
     0
  9
$DIMTOH
 70
     0
  9
$DIMSE1
 70
     0
  9
$DIMSE2
 70
     0
  9
$DIMTAD
 70
     1
  9
$DIMZIN
 70
     0
  9
$DIMBLK
  1

  9
$DIMASO
 70
     0
  9
$DIMSHO
 70
     0
  9
$DIMPOST
  1

  9
$DIMAPOST
  1

  9
$DIMALT
 70
     0
  9
$DIMALTD
 70
     2
  9
$DIMALTF
 40
25.399999999999999
  9
$DIMLFAC
 40
1.0
  9
$DIMTOFL
 70
     1
  9
$DIMTVP
 40
1.6000000000000001
  9
$DIMTIX
 70
     1
  9
$DIMSOXD
 70
     0
  9
$DIMSAH
 70
     0
  9
$DIMBLK1
  1

  9
$DIMBLK2
  1

  9
$DIMSTYLE
  2
STANDARD
  9
$DIMCLRD
 70
     0
  9
$DIMCLRE
 70
     0
  9
$DIMCLRT
 70
     0
  9
$DIMTFAC
 40
1.0
  9
$DIMGAP
 40
0.09
  9
$LUNITS
 70
     2
  9
$LUPREC
 70
     4
  9
$SKETCHINC
 40
0.1
  9
$FILLETRAD
 40
0.0
  9
$AUNITS
 70
     0
  9
$AUPREC
 70
     4
  9
$MENU
  1
E:\r13\win\SUPPORT\ACAD
  9
$ELEVATION
 40
0.0
  9
$PELEVATION
 40
0.0
  9
$THICKNESS
 40
0.0
  9
$LIMCHECK
 70
     0
  9
$BLIPMODE
 70
     0
  9
$CHAMFERA
 40
0.0
  9
$CHAMFERB
 40
0.0
  9
$SKPOLY
 70
     0
  9
$TDCREATE
 40
2449840.6513888892
  9
$TDUPDATE
 40
2456598.431497639
  9
$TDINDWG
 40
0.0307574421
  9
$TDUSRTIMER
 40
0.0307574421
  9
$USRTIMER
 70
     1
  9
$ANGBASE
 50
0.0
  9
$ANGDIR
 70
     0
  9
$PDMODE
 70
     0
  9
$PDSIZE
 40
0.0
  9
$PLINEWID
 40
0.0
  9
$COORDS
 70
     1
  9
$SPLFRAME
 70
     0
  9
$SPLINETYPE
 70
     6
  9
$SPLINESEGS
 70
     8
  9
$ATTDIA
 70
     0
  9
$ATTREQ
 70
     1
  9
$HANDLING
 70
     1
  9
$HANDSEED
  5
A69
  9
$SURFTAB1
 70
     6
  9
$SURFTAB2
 70
     6
  9
$SURFTYPE
 70
     6
  9
$SURFU
 70
     6
  9
$SURFV
 70
     6
  9
$UCSNAME
  2

  9
$UCSORG
 10
0.0
 20
0.0
 30
0.0
  9
$UCSXDIR
 10
1.0
 20
0.0
 30
0.0
  9
$UCSYDIR
 10
0.0
 20
1.0
 30
0.0
  9
$PUCSNAME
  2

  9
$PUCSORG
 10
0.0
 20
0.0
 30
0.0
  9
$PUCSXDIR
 10
1.0
 20
0.0
 30
0.0
  9
$PUCSYDIR
 10
0.0
 20
1.0
 30
0.0
  9
$USERI1
 70
     0
  9
$USERI2
 70
     1
  9
$USERI3
 70
     0
  9
$USERI4
 70
     0
  9
$USERI5
 70
     0
  9
$USERR1
 40
0.0
  9
$USERR2
 40
0.0
  9
$USERR3
 40
0.0
  9
$USERR4
 40
0.0
  9
$USERR5
 40
0.0
  9
$WORLDVIEW
 70
     1
  9
$SHADEDGE
 70
     3
  9
$SHADEDIF
 70
    70
  9
$TILEMODE
 70
     1
  9
$MAXACTVP
 70
    16
  9
$PLIMCHECK
 70
     0
  9
$PEXTMIN
 10
1.0000000000000000E+020
 20
1.0000000000000000E+020
 30
1.0000000000000000E+020
  9
$PEXTMAX
 10
-1.0000000000000000E+020
 20
-1.0000000000000000E+020
 30
-1.0000000000000000E+020
  9
$PLIMMIN
 10
0.0
 20
0.0
  9
$PLIMMAX
 10
12.0
 20
9.0
  9
$UNITMODE
 70
     0
  9
$VISRETAIN
 70
     0
  9
$PLINEGEN
 70
     0
  9
$PSLTSCALE
 70
     0
  0
ENDSEC
  0
SECTION
  2
TABLES
  0
TABLE
  2
VPORT
 70
     1
  0
VPORT
  2
*ACTIVE
 70
     0
 10
0.0
 20
0.0
 11
1.0
 21
1.0
 12
195.0581083320873
 22
133.5127261426681
 13
0.0
 23
0.0
 14
5.0
 24
5.0
 15
10.0
 25
10.0
 16
0.0
 26
0.0
 36
1.0
 17
0.0
 27
0.0
 37
0.0
 40
275.42274993631997
 41
1.831871345029239
 42
50.0
 43
0.0
 44
0.0
 50
0.0
 51
0.0
 71
     0
 72
   500
 73
     1
 74
     0
 75
     0
 76
     0
 77
     0
 78
     2
  0
ENDTAB
  0
TABLE
  2
LTYPE
 70
     3
  0
LTYPE
  2
CONTINUOUS
 70
     0
  3
Solid Line
 72
    65
 73
     0
 40
0.0
  0
LTYPE
  2
CENTER
 70
     0
  3
____ _ ____ _ ____ _ ____ _ ____ _ ____ _ ____
 72
    65
 73
     4
 40
2.0
 49
1.25
 49
-0.25
 49
0.25
 49
-0.25
  0
LTYPE
  2
PHANTOM2
 70
     0
  3
___ _ _ ___ _ _ ___ _ _ ___ _ _
 72
    65
 73
     6
 40
1.25
 49
0.625
 49
-0.125
 49
0.125
 49
-0.125
 49
0.125
 49
-0.125
  0
ENDTAB
  0
TABLE
  2
LAYER
 70
     3
  0
LAYER
  2
0
 70
     0
 62
     7
  6
CONTINUOUS
  0
LAYER
  2
1
 70
     0
 62
     1
  6
CENTER
  0
LAYER
  2
3
 70
     0
 62
     3
  6
CONTINUOUS
  0
ENDTAB
  0
TABLE
  2
STYLE
 70
     2
  0
STYLE
  2
STANDARD
 70
     0
 40
0.0
 41
1.0
 50
0.0
 71
     0
 42
0.2
  3
TXT
  4
BIGFONT
  0
STYLE
  2
STANDARD1
 70
     0
 40
0.0
 41
1.0
 50
0.0
 71
     0
 42
3.0
  3
txt
  4

  0
ENDTAB
  0
TABLE
  2
VIEW
 70
     1
  0
VIEW
  2
ALL
 70
     0
 40
270.0
 10
220.99159663865549
 20
135.0
 41
0.0
 11
0.0
 21
0.0
 31
1.0
 12
0.0
 22
0.0
 32
0.0
 42
0.0
 43
0.0
 44
0.0
 50
0.0
 71
     0
  0
ENDTAB
  0
TABLE
  2
UCS
 70
     0
  0
ENDTAB
  0
TABLE
  2
APPID
 70
     4
  0
APPID
  2
ACAD
 70
     0
  0
APPID
  2
_CALL_MAC$
 70
     0
  0
APPID
  2
ACAD_MLEADERVER
 70
     0
  0
APPID
  2
ACAD_NAV_VCDISPLAY
 70
     0
  0
ENDTAB
  0
TABLE
  2
DIMSTYLE
 70
     1
  0
DIMSTYLE
  2
STANDARD
 70
     0
  3

  4

  5

  6

  7

 40
1.0
 41
0.18
 42
0.0625
 43
0.38
 44
0.18
 45
0.0
 46
0.0
 47
0.0
 48
0.0
140
0.18
141
0.09
142
0.0
143
25.399999999999999
144
1.0
145
0.0
146
1.0
147
0.09
 71
     0
 72
     0
 73
     1
 74
     1
 75
     0
 76
     0
 77
     0
 78
     0
170
     0
171
     2
172
     0
173
     0
174
     0
175
     0
176
     0
177
     0
178
     0
  0
ENDTAB
  0
ENDSEC
  0
SECTION
  2
BLOCKS
  0
BLOCK
  8
0
  2
$MODEL_SPACE
 70
     0
 10
0.0
 20
0.0
 30
0.0
  3
$MODEL_SPACE
  1

  0
ENDBLK
  5
6E2
  8
0
  0
BLOCK
 67
     1
  8
0
  2
$PAPER_SPACE
 70
     0
 10
0.0
 20
0.0
 30
0.0
  3
$PAPER_SPACE
  1

  0
ENDBLK
  5
6E0
 67
     1
  8
0
  0
BLOCK
  8
0
  2
*X0
 70
     1
 10
0.0
 20
0.0
 30
0.0
  3
*X0
  1

  0
LINE
  5
9E6
  8
0
 62
     0
 10
133.3717832336593
 20
83.453504143194067
 30
0.0
 11
132.978696184048
 21
83.846591192805406
 31
0.0
  0
LINE
  5
9E7
  8
0
 62
     0
 10
133.3717832336593
 20
81.685737190227684
 30
0.0
 11
131.21092923108159
 21
83.846591192805406
 31
0.0
  0
LINE
  5
9E8
  8
0
 62
     0
 10
133.3717832336593
 20
79.917970237261343
 30
0.0
 11
129.44316227811521
 21
83.846591192805406
 31
0.0
  0
LINE
  5
9E9
  8
0
 62
     0
 10
133.3717832336593
 20
78.150203284294989
 30
0.0
 11
127.6753953251488
 21
83.846591192805406
 31
0.0
  0
LINE
  5
9EA
  8
0
 62
     0
 10
130.23549751820121
 20
79.518722046786635
 30
0.0
 11
125.9076283721825
 21
83.846591192805406
 31
0.0
  0
LINE
  5
9EB
  8
0
 62
     0
 10
133.3717832336593
 20
76.382436331328648
 30
0.0
 11
131.5439140968725
 21
78.210305468115379
 31
0.0
  0
LINE
  5
9EC
  8
0
 62
     0
 10
128.21307156042749
 20
79.773381051594072
 30
0.0
 11
124.1398614192161
 21
83.846591192805448
 31
0.0
  0
LINE
  5
9ED
  8
0
 62
     0
 10
133.37178323365919
 20
74.61466937836235
 30
0.0
 11
131.79857310167989
 21
76.187879510341645
 31
0.0
  0
LINE
  5
9EE
  8
0
 62
     0
 10
127.01541988591011
 20
79.203265773145091
 30
0.0
 11
122.37209446624971
 21
83.846591192805477
 31
0.0
  0
LINE
  5
9EF
  8
0
 62
     0
 10
133.37178323365919
 20
72.846902425395939
 30
0.0
 11
131.228457823231
 21
74.990227835824186
 31
0.0
  0
LINE
  5
9F0
  8
0
 62
     0
 10
126.2136075508832
 20
78.237311155205646
 30
0.0
 11
120.60432751328329
 21
83.846591192805505
 31
0.0
  0
LINE
  5
9F1
  8
0
 62
     0
 10
133.37178323365919
 20
71.079135472429613
 30
0.0
 11
130.26250320529149
 21
74.188415500797305
 31
0.0
  0
LINE
  5
9F2
  8
0
 62
     0
 10
125.8719924776419
 20
76.811159275480577
 30
0.0
 11
118.8365605603169
 21
83.846591192805533
 31
0.0
  0
LINE
  5
9F3
  8
0
 62
     0
 10
132.83656056031921
 20
69.846591192803217
 30
0.0
 11
128.8363513255664
 21
73.846800427556033
 31
0.0
  0
LINE
  5
9F4
  8
0
 62
     0
 10
131.0687936073528
 20
69.846591192803231
 30
0.0
 11
117.0687936073505
 21
83.846591192805533
 31
0.0
  0
LINE
  5
9F5
  8
0
 62
     0
 10
129.3010266543865
 20
69.846591192803231
 30
0.0
 11
115.3010266543842
 21
83.846591192805533
 31
0.0
  0
LINE
  5
9F6
  8
0
 62
     0
 10
127.53325970142011
 20
69.846591192803231
 30
0.0
 11
113.5332597014178
 21
83.846591192805505
 31
0.0
  0
LINE
  5
9F7
  8
0
 62
     0
 10
125.7654927484537
 20
69.84659119280326
 30
0.0
 11
111.76549274845139
 21
83.846591192805562
 31
0.0
  0
LINE
  5
9F8
  8
0
 62
     0
 10
123.9977257954873
 20
69.846591192803288
 30
0.0
 11
109.997725795485
 21
83.846591192805576
 31
0.0
  0
LINE
  5
9F9
  8
0
 62
     0
 10
122.229958842521
 20
69.846591192803231
 30
0.0
 11
108.2299588425186
 21
83.84659119280559
 31
0.0
  0
LINE
  5
9FA
  8
0
 62
     0
 10
120.4621918895546
 20
69.846591192803288
 30
0.0
 11
106.4621918895523
 21
83.846591192805604
 31
0.0
  0
LINE
  5
9FB
  8
0
 62
     0
 10
118.69442493658821
 20
69.846591192803317
 30
0.0
 11
104.6944249365858
 21
83.846591192805647
 31
0.0
  0
LINE
  5
9FC
  8
0
 62
     0
 10
116.92665798362179
 20
69.846591192803345
 30
0.0
 11
102.92665798361951
 21
83.846591192805604
 31
0.0
  0
LINE
  5
9FD
  8
0
 62
     0
 10
115.1588910306554
 20
69.846591192803345
 30
0.0
 11
101.15889103065309
 21
83.846591192805633
 31
0.0
  0
LINE
  5
9FE
  8
0
 62
     0
 10
113.391124077689
 20
69.846591192803331
 30
0.0
 11
99.871783233659329
 21
83.365932036833044
 31
0.0
  0
LINE
  5
9FF
  8
0
 62
     0
 10
111.6233571247227
 20
69.846591192803345
 30
0.0
 11
99.871783233659357
 21
81.598165083866675
 31
0.0
  0
LINE
  5
A00
  8
0
 62
     0
 10
109.85559017175621
 20
69.846591192803416
 30
0.0
 11
99.871783233659315
 21
79.830398130900363
 31
0.0
  0
LINE
  5
A01
  8
0
 62
     0
 10
108.08782321878989
 20
69.846591192803402
 30
0.0
 11
99.871783233659315
 21
78.06263117793398
 31
0.0
  0
LINE
  5
A02
  8
0
 62
     0
 10
106.3200562658235
 20
69.846591192803416
 30
0.0
 11
99.871783233659315
 21
76.294864224967625
 31
0.0
  0
LINE
  5
A03
  8
0
 62
     0
 10
104.5522893128571
 20
69.84659119280343
 30
0.0
 11
99.871783233659272
 21
74.527097272001285
 31
0.0
  0
LINE
  5
A04
  8
0
 62
     0
 10
102.7845223598907
 20
69.846591192803444
 30
0.0
 11
99.871783233659258
 21
72.759330319034916
 31
0.0
  0
LINE
  5
A05
  8
0
 62
     0
 10
101.0167554069244
 20
69.846591192803487
 30
0.0
 11
99.871783233659272
 21
70.99156336606859
 31
0.0
  0
ENDBLK
  5
A07
  8
0
  0
BLOCK
  8
0
  2
*X1
 70
     1
 10
0.0
 20
0.0
 30
0.0
  3
*X1
  1

  0
LINE
  5
A09
  8
0
 62
     0
 10
131.7075167961352
 20
69.846591192803231
 30
0.0
 11
133.3717832336593
 21
71.510857630327308
 31
0.0
  0
LINE
  5
A0A
  8
0
 62
     0
 10
129.93974984316881
 20
69.84659119280326
 30
0.0
 11
133.3717832336593
 21
73.278624583293663
 31
0.0
  0
LINE
  5
A0B
  8
0
 62
     0
 10
128.1719828902024
 20
69.846591192803203
 30
0.0
 11
133.3717832336593
 21
75.046391536260046
 31
0.0
  0
LINE
  5
A0C
  8
0
 62
     0
 10
126.4042159372361
 20
69.846591192803231
 30
0.0
 11
133.3717832336593
 21
76.814158489226458
 31
0.0
  0
LINE
  5
A0D
  8
0
 62
     0
 10
131.86320150749299
 20
77.073343716026557
 30
0.0
 11
133.3717832336593
 21
78.581925442192812
 31
0.0
  0
LINE
  5
A0E
  8
0
 62
     0
 10
124.63644898426971
 20
69.84659119280326
 30
0.0
 11
128.64503070120639
 21
73.855172909739963
 31
0.0
  0
LINE
  5
A0F
  8
0
 62
     0
 10
131.43216090048281
 20
78.410070061982708
 30
0.0
 11
133.3717832336593
 21
80.349692395159195
 31
0.0
  0
LINE
  5
A10
  8
0
 62
     0
 10
122.86868203130339
 20
69.84659119280326
 30
0.0
 11
127.3083043552503
 21
74.286213516750138
 31
0.0
  0
LINE
  5
A11
  8
0
 62
     0
 10
130.57235983405491
 20
79.3180359485211
 30
0.0
 11
133.37178323365939
 21
82.117459348125607
 31
0.0
  0
LINE
  5
A12
  8
0
 62
     0
 10
121.1009150783371
 20
69.846591192803288
 30
0.0
 11
126.40033846871189
 21
75.146014583178115
 31
0.0
  0
LINE
  5
A13
  8
0
 62
     0
 10
129.30212238583479
 20
79.815565453267425
 30
0.0
 11
133.33314812537279
 21
83.846591192805363
 31
0.0
  0
LINE
  5
A14
  8
0
 62
     0
 10
119.3331481253707
 20
69.846591192803317
 30
0.0
 11
125.9028089639656
 21
76.416252031398187
 31
0.0
  0
LINE
  5
A15
  8
0
 62
     0
 10
117.5653811724043
 20
69.846591192803288
 30
0.0
 11
131.5653811724064
 21
83.846591192805406
 31
0.0
  0
LINE
  5
A16
  8
0
 62
     0
 10
115.7976142194379
 20
69.846591192803317
 30
0.0
 11
129.79761421943999
 21
83.846591192805406
 31
0.0
  0
LINE
  5
A17
  8
0
 62
     0
 10
114.02984726647151
 20
69.846591192803317
 30
0.0
 11
128.02984726647369
 21
83.846591192805406
 31
0.0
  0
LINE
  5
A18
  8
0
 62
     0
 10
112.26208031350529
 20
69.846591192803402
 30
0.0
 11
126.2620803135073
 21
83.846591192805448
 31
0.0
  0
LINE
  5
A19
  8
0
 62
     0
 10
110.4943133605389
 20
69.846591192803373
 30
0.0
 11
124.494313360541
 21
83.846591192805406
 31
0.0
  0
LINE
  5
A1A
  8
0
 62
     0
 10
108.7265464075725
 20
69.846591192803373
 30
0.0
 11
122.7265464075746
 21
83.846591192805406
 31
0.0
  0
LINE
  5
A1B
  8
0
 62
     0
 10
106.9587794546062
 20
69.846591192803345
 30
0.0
 11
120.9587794546083
 21
83.846591192805505
 31
0.0
  0
LINE
  5
A1C
  8
0
 62
     0
 10
105.1910125016398
 20
69.846591192803373
 30
0.0
 11
119.19101250164189
 21
83.846591192805477
 31
0.0
  0
LINE
  5
A1D
  8
0
 62
     0
 10
103.42324554867351
 20
69.846591192803402
 30
0.0
 11
117.4232455486756
 21
83.846591192805505
 31
0.0
  0
LINE
  5
A1E
  8
0
 62
     0
 10
101.65547859570709
 20
69.84659119280343
 30
0.0
 11
115.6554785957092
 21
83.846591192805533
 31
0.0
  0
LINE
  5
A1F
  8
0
 62
     0
 10
99.887711642740783
 20
69.84659119280343
 30
0.0
 11
113.8877116427429
 21
83.846591192805533
 31
0.0
  0
LINE
  5
A20
  8
0
 62
     0
 10
99.871783233659244
 20
71.598429736688303
 30
0.0
 11
112.1199446897765
 21
83.846591192805505
 31
0.0
  0
LINE
  5
A21
  8
0
 62
     0
 10
99.871783233659272
 20
73.366196689654643
 30
0.0
 11
110.35217773681021
 21
83.84659119280559
 31
0.0
  0
LINE
  5
A22
  8
0
 62
     0
 10
99.871783233659315
 20
75.13396364262104
 30
0.0
 11
108.58441078384379
 21
83.84659119280559
 31
0.0
  0
LINE
  5
A23
  8
0
 62
     0
 10
99.871783233659315
 20
76.901730595587395
 30
0.0
 11
106.8166438308775
 21
83.846591192805562
 31
0.0
  0
LINE
  5
A24
  8
0
 62
     0
 10
99.871783233659329
 20
78.669497548553863
 30
0.0
 11
105.0488768779111
 21
83.84659119280559
 31
0.0
  0
LINE
  5
A25
  8
0
 62
     0
 10
99.871783233659357
 20
80.437264501520204
 30
0.0
 11
103.2811099249448
 21
83.846591192805676
 31
0.0
  0
LINE
  5
A26
  8
0
 62
     0
 10
99.871783233659329
 20
82.205031454486587
 30
0.0
 11
101.5133429719784
 21
83.846591192805704
 31
0.0
  0
ENDBLK
  5
A28
  8
0
  0
ENDSEC
  0
SECTION
  2
ENTITIES
  0
CIRCLE
  5
884
  8
0
 10
160.87178323366049
 20
76.846591192804254
 30
0.0
 40
4.75
  0
LINE
  5
885
  8
1
 10
160.87178323366061
 20
64.846591192803231
 30
0.0
 11
160.87178323366041
 21
88.846591192805406
 31
0.0
  0
LINE
  5
886
  8
1
 10
172.87178323366149
 20
76.846591192804198
 30
0.0
 11
148.87178323365939
 21
76.846591192804311
 31
0.0
  0
CIRCLE
  5
887
  8
0
 10
160.87178323366049
 20
76.846591192804311
 30
0.0
 40
7.00000000000108
  0
INSERT
  5
888
  8
3
  6
CONTINUOUS
  2
*X0
 10
0.0
 20
0.0
 30
0.0
1001
ACAD
1000
HATCH
1002
{
1070
    19
1000
ANSI31
1040
10.0
1040
1.5707963267948959
1000
R14_HATCH_DATA
1000
888
1011
1.0
1021
0.0
1031
0.0
1021
0.0
1031
0.0
1011
0.0
1021
0.0
1031
0.0
1021
1.0
1031
0.0
1011
0.0
1021
0.0
1031
0.0
1021
0.0
1031
1.0
1040
0.0
1010
0.0
1020
0.0
1030
1.0
1000
ANSI31
1070
     0
1070
     0
1071
        2
1071
       16
1071
        1
1070
     2
1040
128.87178323365939
1040
76.846591183573565
1040
2.9999999999999019
1040
0.0
1040
6.2831853071795862
1070
     1
1071
        0
1071
        1
1071
        4
1070
     1
1040
99.871783233659357
1040
83.846591192805676
1040
99.871783233659244
1040
69.846591192803459
1070
     1
1040
99.871783233659244
1040
69.846591192803459
1040
133.37178323365919
1040
69.846591192803203
1070
     1
1040
133.37178323365919
1040
69.846591192803203
1040
133.3717832336593
1040
83.846591192805406
1070
     1
1040
133.3717832336593
1040
83.846591192805406
1040
99.871783233659357
1040
83.846591192805676
1071
        0
1070
     0
1070
     1
1040
1.5707963267948959
1040
10.0
1070
     0
1070
     1
1040
2.3561944901923439
1040
-229.23630320339521
1040
-172.65684295798039
1040
-0.8838834764831844
1040
-0.8838834764831842
1070
     0
1071
        1
1040
-229.23630320339521
1040
-172.65684295798039
1040
0.0
1002
}
  0
INSERT
  5
889
  8
3
  6
CONTINUOUS
  2
*X1
 10
0.0
 20
0.0
 30
0.0
1001
ACAD
1000
HATCH
1002
{
1070
    19
1000
ANSI31
1040
10.0
1040
0.0
1000
R14_HATCH_DATA
1000
889
1011
1.0
1021
0.0
1031
0.0
1021
0.0
1031
0.0
1011
0.0
1021
0.0
1031
0.0
1021
1.0
1031
0.0
1011
0.0
1021
0.0
1031
0.0
1021
0.0
1031
1.0
1040
0.0
1010
0.0
1020
0.0
1030
1.0
1000
ANSI31
1070
     0
1070
     0
1071
        2
1071
       16
1071
        1
1070
     2
1040
128.87178323365939
1040
76.846591183573565
1040
2.9999999999999019
1040
0.0
1040
6.2831853071795862
1070
     1
1071
        0
1071
        1
1071
        4
1070
     1
1040
99.871783233659357
1040
83.846591192805676
1040
99.871783233659244
1040
69.846591192803459
1070
     1
1040
99.871783233659244
1040
69.846591192803459
1040
133.37178323365919
1040
69.846591192803203
1070
     1
1040
133.37178323365919
1040
69.846591192803203
1040
133.3717832336593
1040
83.846591192805406
1070
     1
1040
133.3717832336593
1040
83.846591192805406
1040
99.871783233659357
1040
83.846591192805676
1071
        0
1070
     0
1070
     1
1040
0.0
1040
10.0
1070
     0
1070
     1
1040
0.7853981633974483
1040
-229.23630320339521
1040
-172.65684295798039
1040
-0.8838834764831842
1040
0.8838834764831844
1070
     0
1071
        1
1040
-229.23630320339521
1040
-172.65684295798039
1040
0.0
1002
}
  0
LINE
  5
88A
  8
0
 10
98.871783233659372
 20
82.846591192804453
 30
0.0
 11
98.871783233659301
 21
70.846591192803444
 31
0.0
  0
LINE
  5
88B
  8
0
 10
133.8717832336593
 20
83.346591192805349
 30
0.0
 11
133.87178323365919
 21
70.346591192803231
 31
0.0
  0
LINE
  5
88C
  8
0
 10
40.721783234325919
 20
75.761464474463054
 30
0.0
 11
40.721783232990497
 21
77.931717915884121
 31
0.0
  0
ARC
  5
88D
  8
0
 10
36.871783233658221
 20
76.846591192804652
 30
0.0
 40
4.000000000000016
 50
15.740548560423941
 51
344.25945151008671
  0
CIRCLE
  5
88E
  8
0
 10
36.871783233658221
 20
76.846591192804652
 30
0.0
 40
3.4641016151377779
  0
CIRCLE
  5
88F
  8
0
 10
36.871783233658221
 20
76.846591192804425
 30
0.0
 40
5.9999999999998863
  0
ARC
  5
890
  8
0
 10
36.871783233658221
 20
76.846591192804425
 30
0.0
 40
4.0000000000000586
 50
344.25945151008472
 51
15.74054856042634
  0
CIRCLE
  5
891
  8
0
 10
36.871783233658221
 20
76.846591192804397
 30
0.0
 40
7.00000000000108
  0
CIRCLE
  5
892
  8
0
 10
128.87178323365939
 20
76.846591183573565
 30
0.0
 40
2.9999999999999019
  0
LINE
  5
893
  8
0
 10
65.871783233659357
 20
72.846591192804794
 30
0.0
 11
93.871783382670955
 21
72.84659100281479
 31
0.0
  0
LINE
  5
894
  8
0
 10
93.871783382670955
 20
80.846591382794387
 30
0.0
 11
65.871783233659357
 21
80.846591192804823
 31
0.0
  0
LINE
  5
895
  8
0
 10
65.871783233659357
 20
80.846591192804823
 30
0.0
 11
63.871783233659357
 21
80.310692807942587
 31
0.0
  0
LINE
  5
896
  8
0
 10
63.871783233659301
 20
73.382489577667059
 30
0.0
 11
65.871783233659357
 21
72.846591192804794
 31
0.0
  0
LINE
  5
897
  8
0
 10
133.37178323365919
 20
69.846591192803203
 30
0.0
 11
133.87178323365919
 21
70.346591192803231
 31
0.0
  0
LINE
  5
898
  8
0
 10
133.8717832336593
 20
83.346591192805349
 30
0.0
 11
133.3717832336593
 21
83.846591192805406
 31
0.0
  0
LINE
  5
899
  8
0
 10
133.3717832336593
 20
83.846591192805406
 30
0.0
 11
99.871783233659357
 21
83.846591192805647
 31
0.0
  0
LINE
  5
89A
  8
0
 10
99.871783233659244
 20
69.846591192803459
 30
0.0
 11
133.37178323365919
 21
69.846591192803203
 31
0.0
  0
LINE
  5
89B
  8
0
 10
99.871783233659357
 20
83.846591192805647
 30
0.0
 11
98.871783233659372
 21
82.846591192804453
 31
0.0
  0
LINE
  5
89C
  8
0
 10
98.871783233659301
 20
70.846591192803444
 30
0.0
 11
99.871783233659244
 21
69.846591192803459
 31
0.0
  0
LINE
  5
89D
  8
0
 10
98.871783233659372
 20
82.846591192804453
 30
0.0
 11
94.371783233659357
 21
82.846591192804482
 31
0.0
  0
LINE
  5
89E
  8
0
 10
94.371783233659244
 20
70.846591192804681
 30
0.0
 11
98.871783233659301
 21
70.846591192803444
 31
0.0
  0
LINE
  5
89F
  8
0
 10
94.371783233659357
 20
82.846591192804482
 30
0.0
 11
93.871783233659343
 21
82.346591192804496
 31
0.0
  0
LINE
  5
8A0
  8
0
 10
93.871783233659244
 20
71.346591192804695
 30
0.0
 11
94.371783233659244
 21
70.846591192804681
 31
0.0
  0
LINE
  5
8A1
  8
0
 10
65.871783233659357
 20
77.931717915884292
 30
0.0
 11
65.871783233659357
 21
80.846591192804823
 31
0.0
  0
LINE
  5
8A2
  8
0
 10
65.871783233659357
 20
72.846591192804794
 30
0.0
 11
65.871783233659357
 21
75.761464474463224
 31
0.0
  0
LINE
  5
8A3
  8
0
 10
93.871783382670955
 20
75.761464420281698
 30
0.0
 11
65.871783233659357
 21
75.761464474463224
 31
0.0
  0
LINE
  5
8A4
  8
0
 10
93.871783382670955
 20
77.93171796532755
 30
0.0
 11
65.871783233659357
 21
77.931717915884292
 31
0.0
  0
POLYLINE
  5
8A5
  8
0
 66
     1
 10
0.0
 20
0.0
 30
0.0
 70
   128
  0
VERTEX
  5
A29
  8
0
 10
65.871783449726124
 20
75.761464420281897
 30
0.0
  0
VERTEX
  5
A2A
  8
0
 10
65.626618835555334
 20
76.036478505045721
 30
0.0
  0
VERTEX
  5
A2B
  8
0
 10
65.39179190196279
 20
76.440222586313794
 30
0.0
  0
VERTEX
  5
A2C
  8
0
 10
65.31291213952187
 20
76.802636176069115
 30
0.0
  0
VERTEX
  5
A2D
  8
0
 10
65.36299354531053
 20
77.171318752732674
 30
0.0
  0
VERTEX
  5
A2E
  8
0
 10
65.582960295902581
 20
77.597836785059954
 30
0.0
  0
VERTEX
  5
A2F
  8
0
 10
65.871783449726195
 20
77.931717965327735
 30
0.0
  0
SEQEND
  5
A30
  8
0
  0
LINE
  5
8A6
  8
0
 10
63.871783233659301
 20
73.382489577667073
 30
0.0
 11
63.871783233659357
 21
80.310692807942587
 31
0.0
  0
LINE
  5
8A7
  8
0
 10
133.37178323365919
 20
69.846591192803203
 30
0.0
 11
133.3717832336593
 21
83.846591192805406
 31
0.0
  0
LINE
  5
8A8
  8
0
 10
99.871783233659357
 20
83.846591192805647
 30
0.0
 11
99.871783233659244
 21
69.846591192803459
 31
0.0
  0
LINE
  5
8A9
  8
0
 10
94.371783233659357
 20
82.846591192804482
 30
0.0
 11
94.371783233659244
 21
70.846591192804681
 31
0.0
  0
LINE
  5
8AA
  8
0
 10
93.871783233659244
 20
71.346591192804695
 30
0.0
 11
93.871783233659343
 21
82.346591192804496
 31
0.0
  0
LINE
  5
8AC
  8
1
 10
138.87178323365939
 20
76.846591192804311
 30
0.0
 11
58.871783233659301
 21
76.846591192804283
 31
0.0
  0
LINE
  5
8AD
  8
1
 10
128.87178323365939
 20
71.346591183573651
 30
0.0
 11
128.87178323365939
 21
82.346591183573466
 31
0.0
  0
LINE
  5
8AE
  8
1
 10
48.871783233659301
 20
76.846591192804283
 30
0.0
 11
24.87178323365714
 21
76.846591192804397
 31
0.0
  0
LINE
  5
8AF
  8
1
 10
36.871783233658391
 20
64.846591192803317
 30
0.0
 11
36.871783233658107
 21
88.846591192805477
 31
0.0
  0
CIRCLE
  5
8BD
  8
0
 10
160.87178323366049
 20
76.846591192804055
 30
0.0
 40
3.730384757729325
  0
LINE
  5
8BE
  8
0
 10
158.87178323366069
 20
75.691890654424981
 30
0.0
 11
160.87178323366069
 21
74.537190116045679
 31
0.0
  0
LINE
  5
8BF
  8
0
 10
160.87178323366069
 20
74.537190116045679
 30
0.0
 11
162.87178323366049
 21
75.691890654424981
 31
0.0
  0
LINE
  5
8C0
  8
0
 10
162.87178323366049
 20
75.691890654424981
 30
0.0
 11
162.87178323366049
 21
78.001291731183812
 31
0.0
  0
LINE
  5
8C1
  8
0
 10
162.87178323366049
 20
78.001291731183812
 30
0.0
 11
160.87178323366049
 21
79.15599226956266
 31
0.0
  0
LINE
  5
8C2
  8
0
 10
160.87178323366049
 20
79.15599226956266
 30
0.0
 11
158.87178323366021
 21
78.00129173118313
 31
0.0
  0
LINE
  5
8C3
  8
0
 10
158.87178323366021
 20
78.00129173118313
 30
0.0
 11
158.87178323366069
 21
75.691890654424981
 31
0.0
  0
CIRCLE
  5
8C4
  8
0
 10
160.87178323366049
 20
76.846591192804055
 30
0.0
 40
4.25
  0
TEXT
  5
98C
  8
0
 62
     3
 10
0.0
 20
0.0
 30
0.0
 40
10.0
  1
BJ820-08030
  7
STANDARD1
  0
ENDSEC
  0
EOF
