  0
SECTION
  2
HEADER
  9
$ACADVER
  1
AC1009
  9
$INSBASE
 10
0.0
 20
0.0
 30
0.0
  9
$EXTMIN
 10
0.0
 20
-2.960436562073669
 30
0.0
  9
$EXTMAX
 10
218.55041615975449
 20
113.0530301458695
 30
0.0
  9
$LIMMIN
 10
0.0
 20
0.0
  9
$LIMMAX
 10
375.0
 20
270.0
  9
$ORTHOMODE
 70
     0
  9
$REGENMODE
 70
     1
  9
$FILLMODE
 70
     1
  9
$QTEXTMODE
 70
     0
  9
$MIRRTEXT
 70
     0
  9
$DRAGMODE
 70
     2
  9
$LTSCALE
 40
5.0
  9
$OSMODE
 70
  3071
  9
$ATTMODE
 70
     1
  9
$TEXTSIZE
 40
0.2
  9
$TRACEWID
 40
0.05
  9
$TEXTSTYLE
  7
STANDARD
  9
$CLAYER
  8
3
  9
$CELTYPE
  6
BYLAYER
  9
$CECOLOR
 62
   256
  9
$DIMSCALE
 40
1.0
  9
$DIMASZ
 40
3.0
  9
$DIMEXO
 40
2.0
  9
$DIMDLI
 40
0.38
  9
$DIMRND
 40
0.0
  9
$DIMDLE
 40
0.0
  9
$DIMEXE
 40
2.0
  9
$DIMTP
 40
0.0
  9
$DIMTM
 40
0.0
  9
$DIMTXT
 40
3.2000000000000002
  9
$DIMCEN
 40
0.0
  9
$DIMTSZ
 40
0.0
  9
$DIMTOL
 70
     0
  9
$DIMLIM
 70
     0
  9
$DIMTIH
 70
     0
  9
$DIMTOH
 70
     0
  9
$DIMSE1
 70
     0
  9
$DIMSE2
 70
     0
  9
$DIMTAD
 70
     1
  9
$DIMZIN
 70
     0
  9
$DIMBLK
  1

  9
$DIMASO
 70
     0
  9
$DIMSHO
 70
     0
  9
$DIMPOST
  1

  9
$DIMAPOST
  1

  9
$DIMALT
 70
     0
  9
$DIMALTD
 70
     2
  9
$DIMALTF
 40
25.399999999999999
  9
$DIMLFAC
 40
1.0
  9
$DIMTOFL
 70
     1
  9
$DIMTVP
 40
1.6000000000000001
  9
$DIMTIX
 70
     1
  9
$DIMSOXD
 70
     0
  9
$DIMSAH
 70
     0
  9
$DIMBLK1
  1

  9
$DIMBLK2
  1

  9
$DIMSTYLE
  2
STANDARD
  9
$DIMCLRD
 70
     0
  9
$DIMCLRE
 70
     0
  9
$DIMCLRT
 70
     0
  9
$DIMTFAC
 40
1.0
  9
$DIMGAP
 40
0.09
  9
$LUNITS
 70
     2
  9
$LUPREC
 70
     4
  9
$SKETCHINC
 40
0.1
  9
$FILLETRAD
 40
0.0
  9
$AUNITS
 70
     0
  9
$AUPREC
 70
     4
  9
$MENU
  1
E:\r13\win\SUPPORT\ACAD
  9
$ELEVATION
 40
0.0
  9
$PELEVATION
 40
0.0
  9
$THICKNESS
 40
0.0
  9
$LIMCHECK
 70
     0
  9
$BLIPMODE
 70
     0
  9
$CHAMFERA
 40
0.0
  9
$CHAMFERB
 40
0.0
  9
$SKPOLY
 70
     0
  9
$TDCREATE
 40
2449840.6513888892
  9
$TDUPDATE
 40
2456598.4316920261
  9
$TDINDWG
 40
0.0324347801
  9
$TDUSRTIMER
 40
0.0324347801
  9
$USRTIMER
 70
     1
  9
$ANGBASE
 50
0.0
  9
$ANGDIR
 70
     0
  9
$PDMODE
 70
     0
  9
$PDSIZE
 40
0.0
  9
$PLINEWID
 40
0.0
  9
$COORDS
 70
     1
  9
$SPLFRAME
 70
     0
  9
$SPLINETYPE
 70
     6
  9
$SPLINESEGS
 70
     8
  9
$ATTDIA
 70
     0
  9
$ATTREQ
 70
     1
  9
$HANDLING
 70
     1
  9
$HANDSEED
  5
ABA
  9
$SURFTAB1
 70
     6
  9
$SURFTAB2
 70
     6
  9
$SURFTYPE
 70
     6
  9
$SURFU
 70
     6
  9
$SURFV
 70
     6
  9
$UCSNAME
  2

  9
$UCSORG
 10
0.0
 20
0.0
 30
0.0
  9
$UCSXDIR
 10
1.0
 20
0.0
 30
0.0
  9
$UCSYDIR
 10
0.0
 20
1.0
 30
0.0
  9
$PUCSNAME
  2

  9
$PUCSORG
 10
0.0
 20
0.0
 30
0.0
  9
$PUCSXDIR
 10
1.0
 20
0.0
 30
0.0
  9
$PUCSYDIR
 10
0.0
 20
1.0
 30
0.0
  9
$USERI1
 70
     0
  9
$USERI2
 70
     1
  9
$USERI3
 70
     0
  9
$USERI4
 70
     0
  9
$USERI5
 70
     0
  9
$USERR1
 40
0.0
  9
$USERR2
 40
0.0
  9
$USERR3
 40
0.0
  9
$USERR4
 40
0.0
  9
$USERR5
 40
0.0
  9
$WORLDVIEW
 70
     1
  9
$SHADEDGE
 70
     3
  9
$SHADEDIF
 70
    70
  9
$TILEMODE
 70
     1
  9
$MAXACTVP
 70
    16
  9
$PLIMCHECK
 70
     0
  9
$PEXTMIN
 10
1.0000000000000000E+020
 20
1.0000000000000000E+020
 30
1.0000000000000000E+020
  9
$PEXTMAX
 10
-1.0000000000000000E+020
 20
-1.0000000000000000E+020
 30
-1.0000000000000000E+020
  9
$PLIMMIN
 10
0.0
 20
0.0
  9
$PLIMMAX
 10
12.0
 20
9.0
  9
$UNITMODE
 70
     0
  9
$VISRETAIN
 70
     0
  9
$PLINEGEN
 70
     0
  9
$PSLTSCALE
 70
     0
  0
ENDSEC
  0
SECTION
  2
TABLES
  0
TABLE
  2
VPORT
 70
     1
  0
VPORT
  2
*ACTIVE
 70
     0
 10
0.0
 20
0.0
 11
1.0
 21
1.0
 12
195.0581083320873
 22
133.5127261426681
 13
0.0
 23
0.0
 14
5.0
 24
5.0
 15
10.0
 25
10.0
 16
0.0
 26
0.0
 36
1.0
 17
0.0
 27
0.0
 37
0.0
 40
275.42274993631997
 41
1.831871345029239
 42
50.0
 43
0.0
 44
0.0
 50
0.0
 51
0.0
 71
     0
 72
   500
 73
     1
 74
     0
 75
     0
 76
     0
 77
     0
 78
     2
  0
ENDTAB
  0
TABLE
  2
LTYPE
 70
     3
  0
LTYPE
  2
CONTINUOUS
 70
     0
  3
Solid Line
 72
    65
 73
     0
 40
0.0
  0
LTYPE
  2
CENTER
 70
     0
  3
____ _ ____ _ ____ _ ____ _ ____ _ ____ _ ____
 72
    65
 73
     4
 40
2.0
 49
1.25
 49
-0.25
 49
0.25
 49
-0.25
  0
LTYPE
  2
PHANTOM2
 70
     0
  3
___ _ _ ___ _ _ ___ _ _ ___ _ _
 72
    65
 73
     6
 40
1.25
 49
0.625
 49
-0.125
 49
0.125
 49
-0.125
 49
0.125
 49
-0.125
  0
ENDTAB
  0
TABLE
  2
LAYER
 70
     3
  0
LAYER
  2
0
 70
     0
 62
     7
  6
CONTINUOUS
  0
LAYER
  2
1
 70
     0
 62
     1
  6
CENTER
  0
LAYER
  2
3
 70
     0
 62
     3
  6
CONTINUOUS
  0
ENDTAB
  0
TABLE
  2
STYLE
 70
     2
  0
STYLE
  2
STANDARD
 70
     0
 40
0.0
 41
1.0
 50
0.0
 71
     0
 42
0.2
  3
TXT
  4
BIGFONT
  0
STYLE
  2
STANDARD1
 70
     0
 40
0.0
 41
1.0
 50
0.0
 71
     0
 42
3.0
  3
txt
  4

  0
ENDTAB
  0
TABLE
  2
VIEW
 70
     1
  0
VIEW
  2
ALL
 70
     0
 40
270.0
 10
220.99159663865549
 20
135.0
 41
0.0
 11
0.0
 21
0.0
 31
1.0
 12
0.0
 22
0.0
 32
0.0
 42
0.0
 43
0.0
 44
0.0
 50
0.0
 71
     0
  0
ENDTAB
  0
TABLE
  2
UCS
 70
     0
  0
ENDTAB
  0
TABLE
  2
APPID
 70
     4
  0
APPID
  2
ACAD
 70
     0
  0
APPID
  2
_CALL_MAC$
 70
     0
  0
APPID
  2
ACAD_MLEADERVER
 70
     0
  0
APPID
  2
ACAD_NAV_VCDISPLAY
 70
     0
  0
ENDTAB
  0
TABLE
  2
DIMSTYLE
 70
     1
  0
DIMSTYLE
  2
STANDARD
 70
     0
  3

  4

  5

  6

  7

 40
1.0
 41
0.18
 42
0.0625
 43
0.38
 44
0.18
 45
0.0
 46
0.0
 47
0.0
 48
0.0
140
0.18
141
0.09
142
0.0
143
25.399999999999999
144
1.0
145
0.0
146
1.0
147
0.09
 71
     0
 72
     0
 73
     1
 74
     1
 75
     0
 76
     0
 77
     0
 78
     0
170
     0
171
     2
172
     0
173
     0
174
     0
175
     0
176
     0
177
     0
178
     0
  0
ENDTAB
  0
ENDSEC
  0
SECTION
  2
BLOCKS
  0
BLOCK
  8
0
  2
$MODEL_SPACE
 70
     0
 10
0.0
 20
0.0
 30
0.0
  3
$MODEL_SPACE
  1

  0
ENDBLK
  5
6E2
  8
0
  0
BLOCK
 67
     1
  8
0
  2
$PAPER_SPACE
 70
     0
 10
0.0
 20
0.0
 30
0.0
  3
$PAPER_SPACE
  1

  0
ENDBLK
  5
6E0
 67
     1
  8
0
  0
BLOCK
  8
0
  2
STDGX5
 70
     0
 10
0.0
 20
0.0
 30
0.0
  3
STDGX5
  1

  0
ENDBLK
  5
2C7
  8
0
  0
BLOCK
  8
0
  2
*X1
 70
     1
 10
0.0
 20
0.0
 30
0.0
  3
*X1
  1

  0
LINE
  5
A31
  8
0
 62
     0
 10
173.3806036912006
 20
90.053030145869315
 30
0.0
 11
174.55041615975449
 21
91.222842614423257
 31
0.0
  0
LINE
  5
A32
  8
0
 62
     0
 10
171.61283673823419
 20
90.0530301458693
 30
0.0
 11
174.55041615975449
 21
92.990609567389626
 31
0.0
  0
LINE
  5
A33
  8
0
 62
     0
 10
169.84506978526781
 20
90.053030145869286
 30
0.0
 11
174.55041615975449
 21
94.758376520355995
 31
0.0
  0
LINE
  5
A34
  8
0
 62
     0
 10
168.07730283230151
 20
90.053030145869286
 30
0.0
 11
174.55041615975449
 21
96.526143473322392
 31
0.0
  0
LINE
  5
A35
  8
0
 62
     0
 10
166.3095358793351
 20
90.053030145869315
 30
0.0
 11
174.55041615975449
 21
98.293910426288733
 31
0.0
  0
LINE
  5
A36
  8
0
 62
     0
 10
164.54176892636869
 20
90.0530301458693
 30
0.0
 11
174.55041615975449
 21
100.0616773792551
 31
0.0
  0
LINE
  5
A37
  8
0
 62
     0
 10
171.54378572481281
 20
98.822813897279758
 30
0.0
 11
174.55041615975449
 21
101.8294443322214
 31
0.0
  0
LINE
  5
A38
  8
0
 62
     0
 10
162.77400197340239
 20
90.053030145869286
 30
0.0
 11
167.78063239911461
 21
95.059660571581475
 31
0.0
  0
LINE
  5
A39
  8
0
 62
     0
 10
171.32631272089009
 20
100.37310784632329
 30
0.0
 11
174.55041615975449
 21
103.5972112851878
 31
0.0
  0
LINE
  5
A3A
  8
0
 62
     0
 10
161.00623502043601
 20
90.053030145869286
 30
0.0
 11
166.23033845007089
 21
95.277133575504251
 31
0.0
  0
LINE
  5
A3B
  8
0
 62
     0
 10
170.70186907086949
 20
101.5164311492691
 30
0.0
 11
174.55041615975449
 21
105.36497823815419
 31
0.0
  0
LINE
  5
A3C
  8
0
 62
     0
 10
159.2384680674696
 20
90.053030145869315
 30
0.0
 11
165.0870151471251
 21
95.901577225524846
 31
0.0
  0
LINE
  5
A3D
  8
0
 62
     0
 10
169.78698688663499
 20
102.36931591800101
 30
0.0
 11
174.55041615975449
 21
107.13274519112051
 31
0.0
  0
LINE
  5
A3E
  8
0
 62
     0
 10
157.4707011145033
 20
90.0530301458693
 30
0.0
 11
164.23413037839319
 21
96.816459409759261
 31
0.0
  0
LINE
  5
A3F
  8
0
 62
     0
 10
168.57063946720959
 20
102.920735451542
 30
0.0
 11
173.70293416153669
 21
108.0530301458691
 31
0.0
  0
LINE
  5
A40
  8
0
 62
     0
 10
155.70293416153689
 20
90.053030145869286
 30
0.0
 11
163.68271084485229
 21
98.032806829184665
 31
0.0
  0
LINE
  5
A41
  8
0
 62
     0
 10
166.87829443355011
 20
102.99615737084891
 30
0.0
 11
171.93516720857039
 21
108.0530301458692
 31
0.0
  0
LINE
  5
A42
  8
0
 62
     0
 10
153.9351672085705
 20
90.053030145869315
 30
0.0
 11
163.60728892554539
 21
99.7251518628442
 31
0.0
  0
LINE
  5
A43
  8
0
 62
     0
 10
152.16740025560421
 20
90.053030145869315
 30
0.0
 11
170.16740025560401
 21
108.0530301458692
 31
0.0
  0
LINE
  5
A44
  8
0
 62
     0
 10
150.3996333026378
 20
90.0530301458693
 30
0.0
 11
168.3996333026376
 21
108.0530301458691
 31
0.0
  0
LINE
  5
A45
  8
0
 62
     0
 10
148.63186634967141
 20
90.053030145869286
 30
0.0
 11
166.6318663496713
 21
108.0530301458691
 31
0.0
  0
LINE
  5
A46
  8
0
 62
     0
 10
146.864099396705
 20
90.053030145869315
 30
0.0
 11
164.86409939670489
 21
108.0530301458692
 31
0.0
  0
LINE
  5
A47
  8
0
 62
     0
 10
145.0963324437387
 20
90.053030145869315
 30
0.0
 11
163.0963324437385
 21
108.0530301458692
 31
0.0
  0
LINE
  5
A48
  8
0
 62
     0
 10
143.32856549077229
 20
90.0530301458693
 30
0.0
 11
161.32856549077221
 21
108.0530301458691
 31
0.0
  0
LINE
  5
A49
  8
0
 62
     0
 10
141.56079853780591
 20
90.053030145869286
 30
0.0
 11
159.56079853780579
 21
108.0530301458691
 31
0.0
  0
LINE
  5
A4A
  8
0
 62
     0
 10
139.7930315848395
 20
90.053030145869315
 30
0.0
 11
157.7930315848395
 21
108.0530301458692
 31
0.0
  0
LINE
  5
A4B
  8
0
 62
     0
 10
138.0252646318732
 20
90.053030145869315
 30
0.0
 11
156.02526463187311
 21
108.0530301458692
 31
0.0
  0
LINE
  5
A4C
  8
0
 62
     0
 10
136.5570321118521
 20
90.352564578814551
 30
0.0
 11
154.2574976789067
 21
108.0530301458692
 31
0.0
  0
LINE
  5
A4D
  8
0
 62
     0
 10
136.5570321118521
 20
92.12033153178092
 30
0.0
 11
152.48973072594029
 21
108.0530301458691
 31
0.0
  0
LINE
  5
A4E
  8
0
 62
     0
 10
136.5570321118521
 20
93.888098484747346
 30
0.0
 11
150.72196377297399
 21
108.0530301458692
 31
0.0
  0
LINE
  5
A4F
  8
0
 62
     0
 10
136.5570321118521
 20
95.655865437713686
 30
0.0
 11
148.95419682000761
 21
108.0530301458692
 31
0.0
  0
LINE
  5
A50
  8
0
 62
     0
 10
136.5570321118521
 20
97.423632390680055
 30
0.0
 11
147.18642986704131
 21
108.0530301458692
 31
0.0
  0
LINE
  5
A51
  8
0
 62
     0
 10
136.5570321118521
 20
99.191399343646395
 30
0.0
 11
145.4186629140749
 21
108.0530301458691
 31
0.0
  0
LINE
  5
A52
  8
0
 62
     0
 10
136.5570321118521
 20
100.95916629661281
 30
0.0
 11
143.65089596110849
 21
108.0530301458692
 31
0.0
  0
LINE
  5
A53
  8
0
 62
     0
 10
136.5570321118521
 20
102.7269332495791
 30
0.0
 11
141.88312900814211
 21
108.0530301458692
 31
0.0
  0
LINE
  5
A54
  8
0
 62
     0
 10
136.5570321118521
 20
104.4947002025455
 30
0.0
 11
140.11536205517581
 21
108.0530301458692
 31
0.0
  0
LINE
  5
A55
  8
0
 62
     0
 10
136.5570321118521
 20
106.2624671555118
 30
0.0
 11
138.3475951022094
 21
108.0530301458692
 31
0.0
  0
LINE
  5
A56
  8
0
 62
     0
 10
136.5570321118521
 20
108.0302341084783
 30
0.0
 11
136.57982814924301
 21
108.0530301458692
 31
0.0
  0
ENDBLK
  5
A58
  8
0
  0
BLOCK
  8
0
  2
*X2
 70
     1
 10
0.0
 20
0.0
 30
0.0
  3
*X2
  1

  0
LINE
  5
A5A
  8
0
 62
     0
 10
174.55041615975449
 20
106.4612727532753
 30
0.0
 11
172.95865876716061
 21
108.0530301458692
 31
0.0
  0
LINE
  5
A5B
  8
0
 62
     0
 10
174.55041615975449
 20
104.6935058003089
 30
0.0
 11
171.19089181419429
 21
108.0530301458692
 31
0.0
  0
LINE
  5
A5C
  8
0
 62
     0
 10
174.55041615975449
 20
102.9257388473425
 30
0.0
 11
169.4231248612279
 21
108.0530301458692
 31
0.0
  0
LINE
  5
A5D
  8
0
 62
     0
 10
174.55041615975449
 20
101.1579718943762
 30
0.0
 11
167.65535790826149
 21
108.0530301458692
 31
0.0
  0
LINE
  5
A5E
  8
0
 62
     0
 10
174.55041615975449
 20
99.390204941409834
 30
0.0
 11
165.88759095529511
 21
108.0530301458692
 31
0.0
  0
LINE
  5
A5F
  8
0
 62
     0
 10
169.83971717380999
 20
102.333136974388
 30
0.0
 11
164.11982400232881
 21
108.0530301458692
 31
0.0
  0
LINE
  5
A60
  8
0
 62
     0
 10
174.55041615975449
 20
97.622437988443465
 30
0.0
 11
170.8305229975029
 21
101.342331150695
 31
0.0
  0
LINE
  5
A61
  8
0
 62
     0
 10
167.35674821840311
 20
103.0483389768285
 30
0.0
 11
162.3520570493624
 21
108.0530301458691
 31
0.0
  0
LINE
  5
A62
  8
0
 62
     0
 10
174.55041615975449
 20
95.854671035477082
 30
0.0
 11
171.54572499994339
 21
98.85936219528817
 31
0.0
  0
LINE
  5
A63
  8
0
 62
     0
 10
165.9280655028407
 20
102.70925473942449
 30
0.0
 11
160.5842900963961
 21
108.0530301458692
 31
0.0
  0
LINE
  5
A64
  8
0
 62
     0
 10
174.55041615975449
 20
94.086904082510728
 30
0.0
 11
171.20664076253951
 21
97.430679479725782
 31
0.0
  0
LINE
  5
A65
  8
0
 62
     0
 10
164.8581737837219
 20
102.011379505577
 30
0.0
 11
158.81652314342969
 21
108.0530301458692
 31
0.0
  0
LINE
  5
A66
  8
0
 62
     0
 10
174.55041615975449
 20
92.319137129544345
 30
0.0
 11
170.5087655286919
 21
96.360787760606939
 31
0.0
  0
LINE
  5
A67
  8
0
 62
     0
 10
164.07263653935891
 20
101.0291497969736
 30
0.0
 11
157.04875619046331
 21
108.0530301458692
 31
0.0
  0
LINE
  5
A68
  8
0
 62
     0
 10
174.55041615975449
 20
90.551370176577976
 30
0.0
 11
169.52653582008861
 21
95.575250516243926
 31
0.0
  0
LINE
  5
A69
  8
0
 62
     0
 10
163.60751902010551
 20
99.726500363260683
 30
0.0
 11
155.2809892374969
 21
108.0530301458692
 31
0.0
  0
LINE
  5
A6A
  8
0
 62
     0
 10
173.28098923749681
 20
90.053030145869315
 30
0.0
 11
168.2238863863756
 21
95.110132996990558
 31
0.0
  0
LINE
  5
A6B
  8
0
 62
     0
 10
163.74470249192089
 20
97.821549938478839
 30
0.0
 11
153.51322228453051
 21
108.0530301458692
 31
0.0
  0
LINE
  5
A6C
  8
0
 62
     0
 10
171.5132222845304
 20
90.053030145869315
 30
0.0
 11
166.3189359615937
 21
95.247316468806005
 31
0.0
  0
LINE
  5
A6D
  8
0
 62
     0
 10
169.7454553315641
 20
90.0530301458693
 30
0.0
 11
151.74545533156419
 21
108.0530301458692
 31
0.0
  0
LINE
  5
A6E
  8
0
 62
     0
 10
167.97768837859769
 20
90.0530301458693
 30
0.0
 11
149.9776883785978
 21
108.0530301458692
 31
0.0
  0
LINE
  5
A6F
  8
0
 62
     0
 10
166.20992142563131
 20
90.053030145869315
 30
0.0
 11
148.20992142563139
 21
108.0530301458692
 31
0.0
  0
LINE
  5
A70
  8
0
 62
     0
 10
164.44215447266501
 20
90.053030145869315
 30
0.0
 11
146.44215447266509
 21
108.0530301458692
 31
0.0
  0
LINE
  5
A71
  8
0
 62
     0
 10
162.6743875196986
 20
90.0530301458693
 30
0.0
 11
144.67438751969871
 21
108.0530301458692
 31
0.0
  0
LINE
  5
A72
  8
0
 62
     0
 10
160.90662056673219
 20
90.0530301458693
 30
0.0
 11
142.90662056673241
 21
108.0530301458691
 31
0.0
  0
LINE
  5
A73
  8
0
 62
     0
 10
159.13885361376589
 20
90.053030145869315
 30
0.0
 11
141.138853613766
 21
108.0530301458692
 31
0.0
  0
LINE
  5
A74
  8
0
 62
     0
 10
157.37108666079951
 20
90.0530301458693
 30
0.0
 11
139.37108666079959
 21
108.0530301458692
 31
0.0
  0
LINE
  5
A75
  8
0
 62
     0
 10
155.60331970783321
 20
90.0530301458693
 30
0.0
 11
137.60331970783329
 21
108.0530301458692
 31
0.0
  0
LINE
  5
A76
  8
0
 62
     0
 10
153.8355527548668
 20
90.053030145869286
 30
0.0
 11
136.5570321118521
 21
107.331550788884
 31
0.0
  0
LINE
  5
A77
  8
0
 62
     0
 10
152.06778580190041
 20
90.053030145869315
 30
0.0
 11
136.55703211185201
 21
105.5637838359176
 31
0.0
  0
LINE
  5
A78
  8
0
 62
     0
 10
150.300018848934
 20
90.0530301458693
 30
0.0
 11
136.5570321118521
 21
103.79601688295121
 31
0.0
  0
LINE
  5
A79
  8
0
 62
     0
 10
148.5322518959677
 20
90.0530301458693
 30
0.0
 11
136.5570321118521
 21
102.0282499299849
 31
0.0
  0
LINE
  5
A7A
  8
0
 62
     0
 10
146.76448494300129
 20
90.053030145869286
 30
0.0
 11
136.5570321118521
 21
100.2604829770185
 31
0.0
  0
LINE
  5
A7B
  8
0
 62
     0
 10
144.99671799003491
 20
90.0530301458693
 30
0.0
 11
136.55703211185201
 21
98.492716024052172
 31
0.0
  0
LINE
  5
A7C
  8
0
 62
     0
 10
143.2289510370685
 20
90.0530301458693
 30
0.0
 11
136.5570321118521
 21
96.724949071085774
 31
0.0
  0
LINE
  5
A7D
  8
0
 62
     0
 10
141.4611840841022
 20
90.053030145869286
 30
0.0
 11
136.5570321118521
 21
94.957182118119405
 31
0.0
  0
LINE
  5
A7E
  8
0
 62
     0
 10
139.69341713113579
 20
90.053030145869286
 30
0.0
 11
136.5570321118521
 21
93.189415165153036
 31
0.0
  0
LINE
  5
A7F
  8
0
 62
     0
 10
137.92565017816941
 20
90.0530301458693
 30
0.0
 11
136.5570321118521
 21
91.421648212186696
 31
0.0
  0
ENDBLK
  5
A81
  8
0
  0
ENDSEC
  0
SECTION
  2
ENTITIES
  0
INSERT
  5
364
  8
0
  2
STDGX5
 10
0.0
 20
0.0
 30
0.0
  0
INSERT
  5
365
  8
0
  2
STDGX5
 10
0.0
 20
0.0
 30
0.0
  0
INSERT
  5
366
  8
0
  2
STDGX5
 10
275.0
 20
0.0
 30
0.0
  0
INSERT
  5
367
  8
0
  2
STDGX5
 10
275.0
 20
0.0
 30
0.0
  0
INSERT
  5
4ED
  8
0
  2
STDGX5
 10
0.0
 20
0.0
 30
0.0
  0
INSERT
  5
4EE
  8
0
  2
STDGX5
 10
0.0
 20
0.0
 30
0.0
  0
INSERT
  5
4EF
  8
0
  2
STDGX5
 10
275.0
 20
0.0
 30
0.0
  0
INSERT
  5
4F0
  8
0
  2
STDGX5
 10
275.0
 20
0.0
 30
0.0
  0
INSERT
  5
500
  8
0
  2
STDGX5
 10
471.79233269980392
 20
233.9519585625761
 30
0.0
  0
INSERT
  5
501
  8
0
  2
STDGX5
 10
471.79233269980392
 20
233.9519585625761
 30
0.0
  0
INSERT
  5
502
  8
0
  2
STDGX5
 10
471.79233269980392
 20
233.9519585625761
 30
0.0
  0
INSERT
  5
503
  8
0
  2
STDGX5
 10
471.79233269980392
 20
233.9519585625761
 30
0.0
  0
INSERT
  5
67F
  8
0
  2
STDGX5
 10
0.0
 20
0.0
 30
0.0
  0
INSERT
  5
680
  8
0
  2
STDGX5
 10
0.0
 20
0.0
 30
0.0
  0
INSERT
  5
681
  8
0
  2
STDGX5
 10
275.0
 20
0.0
 30
0.0
  0
INSERT
  5
682
  8
0
  2
STDGX5
 10
275.0
 20
0.0
 30
0.0
  0
INSERT
  5
692
  8
0
  2
STDGX5
 10
471.79233269980392
 20
233.9519585625761
 30
0.0
  0
INSERT
  5
693
  8
0
  2
STDGX5
 10
471.79233269980392
 20
233.9519585625761
 30
0.0
  0
INSERT
  5
694
  8
0
  2
STDGX5
 10
471.79233269980392
 20
233.9519585625761
 30
0.0
  0
INSERT
  5
695
  8
0
  2
STDGX5
 10
471.79233269980392
 20
233.9519585625761
 30
0.0
  0
INSERT
  5
698
  8
0
  2
STDGX5
 10
625.17172490477549
 20
209.60057380630951
 30
0.0
  0
INSERT
  5
699
  8
0
  2
STDGX5
 10
625.17172490477549
 20
209.60057380630951
 30
0.0
  0
INSERT
  5
69A
  8
0
  2
STDGX5
 10
625.17172490477549
 20
209.60057380630951
 30
0.0
  0
INSERT
  5
69B
  8
0
  2
STDGX5
 10
625.17172490477549
 20
209.60057380630951
 30
0.0
  0
INSERT
  5
69C
  8
0
  2
STDGX5
 10
611.48701390477561
 20
209.6279228063095
 30
0.0
 41
0.1
 42
0.1
 43
0.1
  0
INSERT
  5
69D
  8
0
  2
STDGX5
 10
611.48701390477561
 20
209.6279228063095
 30
0.0
 41
0.1
 42
0.1
 43
0.1
  0
INSERT
  5
69E
  8
0
  2
STDGX5
 10
611.48701390477561
 20
209.6279228063095
 30
0.0
 41
0.1
 42
0.1
 43
0.1
  0
CIRCLE
  5
8CB
  8
0
 10
204.55041615975449
 20
99.053030145869684
 30
0.0
 40
4.25
  0
LINE
  5
8CC
  8
0
 10
202.55041615975429
 20
100.2077306842487
 30
0.0
 11
202.55041615975469
 21
97.898329607490609
 31
0.0
  0
LINE
  5
8CD
  8
0
 10
204.55041615975449
 20
101.3624312226283
 30
0.0
 11
202.55041615975429
 21
100.2077306842487
 31
0.0
  0
LINE
  5
8CE
  8
0
 10
206.55041615975449
 20
100.2077306842494
 30
0.0
 11
204.55041615975449
 21
101.3624312226283
 31
0.0
  0
LINE
  5
8CF
  8
0
 10
206.55041615975449
 20
97.898329607490609
 30
0.0
 11
206.55041615975449
 21
100.2077306842494
 31
0.0
  0
LINE
  5
8D0
  8
0
 10
204.55041615975469
 20
96.743629069111307
 30
0.0
 11
206.55041615975449
 21
97.898329607490609
 31
0.0
  0
LINE
  5
8D1
  8
0
 10
202.55041615975469
 20
97.898329607490609
 30
0.0
 11
204.55041615975469
 21
96.743629069111307
 31
0.0
  0
CIRCLE
  5
8D2
  8
0
 10
204.55041615975449
 20
99.053030145869684
 30
0.0
 40
3.730384757729325
  0
CIRCLE
  5
8D3
  8
0
 10
204.55041615975409
 20
99.053030145869684
 30
0.0
 40
4.75
  0
LINE
  5
8D4
  8
1
 10
190.5504161597546
 20
99.053030145869684
 30
0.0
 11
218.55041615975449
 21
99.053030145869656
 31
0.0
  0
CIRCLE
  5
8D5
  8
0
 10
204.55041615975449
 20
99.053030145869513
 30
0.0
 40
8.9999999999999432
  0
LINE
  5
8D6
  8
1
 10
204.55041615975409
 20
113.0530301458694
 30
0.0
 11
204.55041615975409
 21
85.05303014586957
 31
0.0
  0
LINE
  5
8D7
  8
1
 10
167.5504161597546
 20
92.553030136639904
 30
0.0
 11
167.5504161597546
 21
105.55303013663941
 31
0.0
  0
LINE
  5
8D8
  8
1
 10
60.550416159754441
 20
99.053030145869712
 30
0.0
 11
180.5504161597546
 21
99.053030145869684
 31
0.0
  0
LINE
  5
8D9
  8
0
 10
65.550416159754477
 20
94.722903126947358
 30
0.0
 11
65.550416159754377
 21
103.3831571647917
 31
0.0
  0
POLYLINE
  5
8DA
  8
0
 66
     1
 10
0.0
 20
0.0
 30
0.0
 70
   128
  0
VERTEX
  5
A28
  8
0
 10
68.050416606789241
 20
97.837505523630398
 30
0.0
  0
VERTEX
  5
A29
  8
0
 10
67.785410630827556
 20
98.174131486148553
 30
0.0
  0
VERTEX
  5
A2A
  8
0
 10
67.553276616459513
 20
98.649094532293248
 30
0.0
  0
VERTEX
  5
A2B
  8
0
 10
67.49682729256692
 20
99.180188753807897
 30
0.0
  0
VERTEX
  5
A2C
  8
0
 10
67.613257515555048
 20
99.618590331220048
 30
0.0
  0
VERTEX
  5
A2D
  8
0
 10
68.000933575754786
 20
100.2128088255906
 30
0.0
  0
VERTEX
  5
A2E
  8
0
 10
68.050416606789256
 20
100.2685547681087
 30
0.0
  0
SEQEND
  5
A2F
  8
0
  0
LINE
  5
8DB
  8
0
 10
125.5504161597545
 20
100.26855478898911
 30
0.0
 11
68.05041615975442
 21
100.2685547289576
 31
0.0
  0
LINE
  5
8DC
  8
0
 10
125.55041615975441
 20
97.837505497444269
 30
0.0
 11
68.050416159754405
 21
97.837505572728944
 31
0.0
  0
LINE
  5
8DD
  8
0
 10
68.050416159754462
 20
94.05303014586957
 30
0.0
 11
68.050416159754405
 21
97.837505572728944
 31
0.0
  0
LINE
  5
8DE
  8
0
 10
68.05041615975442
 20
100.2685547289576
 30
0.0
 11
68.050416159754519
 21
104.0530301458695
 31
0.0
  0
LINE
  5
8DF
  8
0
 10
125.55041615975441
 20
91.553030145869428
 30
0.0
 11
125.5504161597545
 21
106.5530301458694
 31
0.0
  0
LINE
  5
8E0
  8
0
 10
126.0504161597545
 20
107.0530301458694
 30
0.0
 11
126.05041615975441
 21
91.053030145869414
 31
0.0
  0
LINE
  5
8E1
  8
0
 10
135.55041615975441
 20
91.0530301458694
 30
0.0
 11
135.55041615975449
 21
107.0530301458694
 31
0.0
  0
LINE
  5
8E2
  8
0
 10
175.55041615975449
 20
107.0530301458691
 30
0.0
 11
175.55041615975449
 21
91.053030145869343
 31
0.0
  0
LINE
  5
8E3
  8
0
 10
65.550416159754477
 20
94.722903126947358
 30
0.0
 11
68.050416159754462
 21
94.05303014586957
 31
0.0
  0
LINE
  5
8E4
  8
0
 10
68.050416159754519
 20
104.0530301458695
 30
0.0
 11
65.550416159754505
 21
103.3831571647918
 31
0.0
  0
LINE
  5
8E5
  8
0
 10
125.55041615975441
 20
104.053029974506
 30
0.0
 11
68.050416159754519
 21
104.0530301458695
 31
0.0
  0
LINE
  5
8E6
  8
0
 10
68.050416159754462
 20
94.05303014586957
 30
0.0
 11
125.55041615975441
 21
94.053030317232754
 31
0.0
  0
LINE
  5
8E7
  8
0
 10
125.55041615975441
 20
91.553030145869428
 30
0.0
 11
126.05041615975441
 21
91.053030145869414
 31
0.0
  0
LINE
  5
8E8
  8
0
 10
126.0504161597545
 20
107.0530301458694
 30
0.0
 11
125.5504161597545
 21
106.5530301458694
 31
0.0
  0
LINE
  5
8E9
  8
0
 10
135.55041615975449
 20
107.0530301458694
 30
0.0
 11
126.0504161597545
 21
107.0530301458694
 31
0.0
  0
LINE
  5
8EA
  8
0
 10
126.05041615975441
 20
91.053030145869414
 30
0.0
 11
135.55041615975441
 21
91.0530301458694
 31
0.0
  0
LINE
  5
8EB
  8
0
 10
135.55041615975441
 20
91.0530301458694
 30
0.0
 11
136.55041615975441
 21
90.053030145869457
 31
0.0
  0
LINE
  5
8EC
  8
0
 10
136.55041615975449
 20
108.0530301458693
 30
0.0
 11
135.55041615975449
 21
107.0530301458694
 31
0.0
  0
LINE
  5
8ED
  8
0
 10
175.55041615975449
 20
107.0530301458691
 30
0.0
 11
174.55041615975449
 21
108.0530301458692
 31
0.0
  0
LINE
  5
8EE
  8
0
 10
174.55041615975449
 20
90.053030145869315
 30
0.0
 11
175.55041615975449
 21
91.053030145869343
 31
0.0
  0
CIRCLE
  5
8EF
  8
0
 10
167.5504161597546
 20
99.053030136639677
 30
0.0
 40
3.9999999999997828
  0
LINE
  5
8F0
  8
0
 10
174.55041615975449
 20
108.0530301458692
 30
0.0
 11
174.55041615975449
 21
90.053030145869315
 31
0.0
  0
LINE
  5
8F1
  8
0
 10
136.5570321118521
 20
90.053030145869315
 30
0.0
 11
174.55041615975449
 21
90.053030145869315
 31
0.0
  0
LINE
  5
8F2
  8
0
 10
136.5570321118521
 20
108.0530301458692
 30
0.0
 11
136.5570321118521
 21
90.053030145869315
 31
0.0
  0
LINE
  5
8F3
  8
0
 10
136.5570321118521
 20
108.0530301458692
 30
0.0
 11
174.55041615975449
 21
108.0530301458692
 31
0.0
  0
LINE
  5
8F4
  8
1
 10
36.550416159754079
 20
113.0530301458695
 30
0.0
 11
36.550416159754079
 21
85.053030145869613
 31
0.0
  0
CIRCLE
  5
8F5
  8
0
 10
36.550416159753922
 20
99.053030145869755
 30
0.0
 40
4.3301270189222123
  0
ARC
  5
8F6
  8
0
 10
36.550416159753951
 20
99.053030145869755
 30
0.0
 40
5.0000000000000053
 50
14.06986780633005
 51
345.9301323111855
  0
LINE
  5
8F7
  8
0
 10
41.400416161000479
 20
97.837505572729128
 30
0.0
 11
41.400416158507412
 21
100.2685547289578
 31
0.0
  0
CIRCLE
  5
8F8
  8
0
 10
36.550416159754491
 20
99.05303014586957
 30
0.0
 40
8.9999999999999432
  0
ARC
  5
8F9
  8
0
 10
36.55041615975437
 20
99.053030145869613
 30
0.0
 40
4.9999999999996261
 50
345.93013231118363
 51
14.06986780633215
  0
CIRCLE
  5
8FA
  8
0
 10
36.55041615975437
 20
99.053030145869613
 30
0.0
 40
8.0
  0
POINT
  5
8FB
  8
0
 10
36.550416159754683
 20
99.053030145869513
 30
0.0
  0
LINE
  5
8FC
  8
1
 10
22.550416159754551
 20
99.053030145869755
 30
0.0
 11
50.550416159754441
 21
99.053030145869712
 31
0.0
  0
INSERT
  5
90B
  8
3
  6
CONTINUOUS
  2
*X1
 10
0.0
 20
0.0
 30
0.0
1001
ACAD
1000
HATCH
1002
{
1070
    19
1000
ANSI31
1040
10.0
1040
0.0
1000
R14_HATCH_DATA
1000
90B
1011
1.0
1021
0.0
1031
0.0
1021
0.0
1031
0.0
1011
0.0
1021
0.0
1031
0.0
1021
1.0
1031
0.0
1011
0.0
1021
0.0
1031
0.0
1021
0.0
1031
1.0
1040
0.0
1010
0.0
1020
0.0
1030
1.0
1000
ANSI31
1070
     0
1070
     0
1071
        2
1071
       16
1071
        1
1070
     2
1040
167.5504161597546
1040
99.053030136639677
1040
3.9999999999997828
1040
0.0
1040
6.2831853071795862
1070
     1
1071
        0
1071
        1
1071
        4
1070
     1
1040
174.55041615975449
1040
108.0530301458692
1040
174.55041615975449
1040
90.053030145869315
1070
     1
1040
174.55041615975449
1040
90.053030145869315
1040
136.5570321118521
1040
90.053030145869315
1070
     1
1040
136.5570321118521
1040
90.053030145869315
1040
136.5570321118521
1040
108.0530301458692
1070
     1
1040
136.5570321118521
1040
108.0530301458692
1040
174.55041615975449
1040
108.0530301458692
1071
        0
1070
     0
1070
     1
1040
0.0
1040
10.0
1070
     0
1070
     1
1040
0.7853981633974483
1040
-1.6781318793217961
1040
-72.63133675388849
1040
-0.8838834764831842
1040
0.8838834764831844
1070
     0
1071
        1
1040
-1.6781318793217961
1040
-72.63133675388849
1040
0.0
1002
}
  0
INSERT
  5
90C
  8
3
  6
CONTINUOUS
  2
*X2
 10
0.0
 20
0.0
 30
0.0
1001
ACAD
1000
HATCH
1002
{
1070
    19
1000
ANSI31
1040
10.0
1040
1.5707963267948959
1000
R14_HATCH_DATA
1000
90C
1011
1.0
1021
0.0
1031
0.0
1021
0.0
1031
0.0
1011
0.0
1021
0.0
1031
0.0
1021
1.0
1031
0.0
1011
0.0
1021
0.0
1031
0.0
1021
0.0
1031
1.0
1040
0.0
1010
0.0
1020
0.0
1030
1.0
1000
ANSI31
1070
     0
1070
     0
1071
        2
1071
       16
1071
        1
1070
     2
1040
167.5504161597546
1040
99.053030136639677
1040
3.9999999999997828
1040
0.0
1040
6.2831853071795862
1070
     1
1071
        0
1071
        1
1071
        4
1070
     1
1040
174.55041615975449
1040
108.0530301458692
1040
174.55041615975449
1040
90.053030145869315
1070
     1
1040
174.55041615975449
1040
90.053030145869315
1040
136.5570321118521
1040
90.053030145869315
1070
     1
1040
136.5570321118521
1040
90.053030145869315
1040
136.5570321118521
1040
108.0530301458692
1070
     1
1040
136.5570321118521
1040
108.0530301458692
1040
174.55041615975449
1040
108.0530301458692
1071
        0
1070
     0
1070
     1
1040
1.5707963267948959
1040
10.0
1070
     0
1070
     1
1040
2.3561944901923439
1040
-1.6781318793217961
1040
-72.63133675388849
1040
-0.8838834764831844
1040
-0.8838834764831842
1070
     0
1071
        1
1040
-1.6781318793217961
1040
-72.63133675388849
1040
0.0
1002
}
  0
TEXT
  5
9CF
  8
0
 62
     3
 10
0.0
 20
0.0
 30
0.0
 40
10.0
  1
BJ820-10060
  7
STANDARD1
  0
ENDSEC
  0
EOF
