  0
SECTION
  2
HEADER
  9
$ACADVER
  1
AC1009
  9
$INSBASE
 10
0.0
 20
0.0
 30
0.0
  9
$EXTMIN
 10
0.0
 20
-2.960436562073669
 30
0.0
  9
$EXTMAX
 10
188.28528291795311
 20
163.93668420748239
 30
0.0
  9
$LIMMIN
 10
0.0
 20
0.0
  9
$LIMMAX
 10
187.5
 20
135.0
  9
$ORTHOMODE
 70
     1
  9
$REGENMODE
 70
     1
  9
$FILLMODE
 70
     1
  9
$QTEXTMODE
 70
     0
  9
$MIRRTEXT
 70
     0
  9
$DRAGMODE
 70
     2
  9
$LTSCALE
 40
5.0
  9
$OSMODE
 70
  3071
  9
$ATTMODE
 70
     1
  9
$TEXTSIZE
 40
4.0
  9
$TRACEWID
 40
0.05
  9
$TEXTSTYLE
  7
STANDARD
  9
$CLAYER
  8
0
  9
$CELTYPE
  6
BYLAYER
  9
$CECOLOR
 62
   256
  9
$DIMSCALE
 40
0.5
  9
$DIMASZ
 40
3.0
  9
$DIMEXO
 40
2.0
  9
$DIMDLI
 40
0.38
  9
$DIMRND
 40
0.0
  9
$DIMDLE
 40
0.0
  9
$DIMEXE
 40
2.0
  9
$DIMTP
 40
0.0
  9
$DIMTM
 40
0.0
  9
$DIMTXT
 40
3.0
  9
$DIMCEN
 40
0.0
  9
$DIMTSZ
 40
0.0
  9
$DIMTOL
 70
     0
  9
$DIMLIM
 70
     0
  9
$DIMTIH
 70
     0
  9
$DIMTOH
 70
     0
  9
$DIMSE1
 70
     0
  9
$DIMSE2
 70
     0
  9
$DIMTAD
 70
     1
  9
$DIMZIN
 70
     0
  9
$DIMBLK
  1

  9
$DIMASO
 70
     0
  9
$DIMSHO
 70
     0
  9
$DIMPOST
  1

  9
$DIMAPOST
  1

  9
$DIMALT
 70
     0
  9
$DIMALTD
 70
     2
  9
$DIMALTF
 40
25.399999999999999
  9
$DIMLFAC
 40
1.0
  9
$DIMTOFL
 70
     0
  9
$DIMTVP
 40
1.6000000000000001
  9
$DIMTIX
 70
     1
  9
$DIMSOXD
 70
     0
  9
$DIMSAH
 70
     0
  9
$DIMBLK1
  1

  9
$DIMBLK2
  1

  9
$DIMSTYLE
  2
STANDARD
  9
$DIMCLRD
 70
     0
  9
$DIMCLRE
 70
     0
  9
$DIMCLRT
 70
     0
  9
$DIMTFAC
 40
1.0
  9
$DIMGAP
 40
0.09
  9
$LUNITS
 70
     2
  9
$LUPREC
 70
     4
  9
$SKETCHINC
 40
0.1
  9
$FILLETRAD
 40
1.0
  9
$AUNITS
 70
     0
  9
$AUPREC
 70
     0
  9
$MENU
  1
E:\r13\win\SUPPORT\ACAD
  9
$ELEVATION
 40
0.0
  9
$PELEVATION
 40
0.0
  9
$THICKNESS
 40
0.0
  9
$LIMCHECK
 70
     0
  9
$BLIPMODE
 70
     0
  9
$CHAMFERA
 40
0.0
  9
$CHAMFERB
 40
0.0
  9
$SKPOLY
 70
     0
  9
$TDCREATE
 40
2449840.6143865739
  9
$TDUPDATE
 40
2456598.462519479
  9
$TDINDWG
 40
0.2428182176
  9
$TDUSRTIMER
 40
0.2428182176
  9
$USRTIMER
 70
     1
  9
$ANGBASE
 50
0.0
  9
$ANGDIR
 70
     0
  9
$PDMODE
 70
     0
  9
$PDSIZE
 40
0.0
  9
$PLINEWID
 40
0.0
  9
$COORDS
 70
     1
  9
$SPLFRAME
 70
     0
  9
$SPLINETYPE
 70
     6
  9
$SPLINESEGS
 70
     8
  9
$ATTDIA
 70
     0
  9
$ATTREQ
 70
     1
  9
$HANDLING
 70
     1
  9
$HANDSEED
  5
14CD
  9
$SURFTAB1
 70
     6
  9
$SURFTAB2
 70
     6
  9
$SURFTYPE
 70
     6
  9
$SURFU
 70
     6
  9
$SURFV
 70
     6
  9
$UCSNAME
  2

  9
$UCSORG
 10
0.0
 20
0.0
 30
0.0
  9
$UCSXDIR
 10
1.0
 20
0.0
 30
0.0
  9
$UCSYDIR
 10
0.0
 20
1.0
 30
0.0
  9
$PUCSNAME
  2

  9
$PUCSORG
 10
0.0
 20
0.0
 30
0.0
  9
$PUCSXDIR
 10
1.0
 20
0.0
 30
0.0
  9
$PUCSYDIR
 10
0.0
 20
1.0
 30
0.0
  9
$USERI1
 70
     0
  9
$USERI2
 70
     1
  9
$USERI3
 70
     1
  9
$USERI4
 70
     0
  9
$USERI5
 70
     0
  9
$USERR1
 40
0.0
  9
$USERR2
 40
0.0
  9
$USERR3
 40
0.0
  9
$USERR4
 40
0.0
  9
$USERR5
 40
0.0
  9
$WORLDVIEW
 70
     1
  9
$SHADEDGE
 70
     3
  9
$SHADEDIF
 70
    70
  9
$TILEMODE
 70
     1
  9
$MAXACTVP
 70
    16
  9
$PLIMCHECK
 70
     0
  9
$PEXTMIN
 10
1.0000000000000000E+020
 20
1.0000000000000000E+020
 30
1.0000000000000000E+020
  9
$PEXTMAX
 10
-1.0000000000000000E+020
 20
-1.0000000000000000E+020
 30
-1.0000000000000000E+020
  9
$PLIMMIN
 10
0.0
 20
0.0
  9
$PLIMMAX
 10
12.0
 20
9.0
  9
$UNITMODE
 70
     0
  9
$VISRETAIN
 70
     0
  9
$PLINEGEN
 70
     0
  9
$PSLTSCALE
 70
     0
  0
ENDSEC
  0
SECTION
  2
TABLES
  0
TABLE
  2
VPORT
 70
     1
  0
VPORT
  2
*ACTIVE
 70
     0
 10
0.0
 20
0.0
 11
1.0
 21
1.0
 12
98.776260245619113
 22
80.486218377983477
 13
0.0
 23
0.0
 14
5.0
 24
5.0
 15
5.0
 25
5.0
 16
0.0
 26
0.0
 36
1.0
 17
0.0
 27
0.0
 37
0.0
 40
168.4078974116382
 41
1.831871345029239
 42
50.0
 43
0.0
 44
0.0
 50
0.0
 51
0.0
 71
     0
 72
   100
 73
     1
 74
     0
 75
     0
 76
     0
 77
     0
 78
     0
  0
ENDTAB
  0
TABLE
  2
LTYPE
 70
     3
  0
LTYPE
  2
CONTINUOUS
 70
     0
  3
Solid Line
 72
    65
 73
     0
 40
0.0
  0
LTYPE
  2
CENTER
 70
     0
  3
____ _ ____ _ ____ _ ____ _ ____ _ ____ _ ____
 72
    65
 73
     4
 40
2.0
 49
1.25
 49
-0.25
 49
0.25
 49
-0.25
  0
LTYPE
  2
PHANTOM2
 70
     0
  3
___ _ _ ___ _ _ ___ _ _ ___ _ _
 72
    65
 73
     6
 40
1.25
 49
0.625
 49
-0.125
 49
0.125
 49
-0.125
 49
0.125
 49
-0.125
  0
ENDTAB
  0
TABLE
  2
LAYER
 70
     3
  0
LAYER
  2
0
 70
     0
 62
     7
  6
CONTINUOUS
  0
LAYER
  2
1
 70
     0
 62
     1
  6
CENTER
  0
LAYER
  2
3
 70
     0
 62
     3
  6
CONTINUOUS
  0
ENDTAB
  0
TABLE
  2
STYLE
 70
     2
  0
STYLE
  2
STANDARD
 70
     0
 40
0.0
 41
1.0
 50
0.0
 71
     0
 42
4.0
  3
TXT
  4
BIGFONT
  0
STYLE
  2
STANDARD1
 70
     0
 40
0.0
 41
1.0
 50
0.0
 71
     0
 42
3.0
  3
txt
  4

  0
ENDTAB
  0
TABLE
  2
VIEW
 70
     1
  0
VIEW
  2
ALL
 70
     0
 40
179.66152299999999
 10
141.903918
 20
89.830760999999995
 41
0.0
 11
0.0
 21
0.0
 31
1.0
 12
0.0
 22
0.0
 32
0.0
 42
0.0
 43
0.0
 44
0.0
 50
0.0
 71
     0
  0
ENDTAB
  0
TABLE
  2
UCS
 70
     0
  0
ENDTAB
  0
TABLE
  2
APPID
 70
     4
  0
APPID
  2
ACAD
 70
     0
  0
APPID
  2
DCO15
 70
     0
  0
APPID
  2
ACAD_MLEADERVER
 70
     0
  0
APPID
  2
ACAD_NAV_VCDISPLAY
 70
     0
  0
ENDTAB
  0
TABLE
  2
DIMSTYLE
 70
     1
  0
DIMSTYLE
  2
STANDARD
 70
     0
  3

  4

  5

  6

  7

 40
1.0
 41
0.18
 42
0.0625
 43
0.38
 44
0.18
 45
0.0
 46
0.0
 47
0.0
 48
0.0
140
0.18
141
0.09
142
0.0
143
25.399999999999999
144
1.0
145
0.0
146
1.0
147
0.09
 71
     0
 72
     0
 73
     1
 74
     1
 75
     0
 76
     0
 77
     0
 78
     0
170
     0
171
     2
172
     0
173
     0
174
     0
175
     0
176
     0
177
     0
178
     0
  0
ENDTAB
  0
ENDSEC
  0
SECTION
  2
BLOCKS
  0
BLOCK
  8
0
  2
$MODEL_SPACE
 70
     0
 10
0.0
 20
0.0
 30
0.0
  3
$MODEL_SPACE
  1

  0
ENDBLK
  5
1BD
  8
0
  0
BLOCK
 67
     1
  8
0
  2
$PAPER_SPACE
 70
     0
 10
0.0
 20
0.0
 30
0.0
  3
$PAPER_SPACE
  1

  0
ENDBLK
  5
1BB
 67
     1
  8
0
  0
ENDSEC
  0
SECTION
  2
ENTITIES
  0
ARC
  5
12D1
  8
0
 10
98.828470308395282
 20
96.821681611223653
 30
0.0
 40
1.5
 50
245.92109622025831
 51
325.53513182649959
  0
ARC
  5
12D2
  8
0
 10
95.802675895151822
 20
95.435575830962193
 30
0.0
 40
1.0
 50
65.92109622025832
 51
180.0
  0
LINE
  5
12D3
  8
0
 10
96.210670223684346
 20
96.348560292979641
 30
0.0
 11
98.216478815596503
 21
95.452204918197481
 31
0.0
  0
ARC
  5
12D4
  8
0
 10
89.647180385759128
 20
103.1235219893339
 30
0.0
 40
12.63594525824732
 50
325.53513182650232
 51
333.61484699680233
  0
ARC
  5
12D5
  8
0
 10
98.814088682146263
 20
101.6339626006465
 30
0.0
 40
11.04434421173967
 50
251.41431262598761
 51
292.58613231403342
  0
ARC
  5
12D6
  8
0
 10
95.802675895151907
 20
92.026564736148075
 30
0.0
 40
1.0
 50
180.0
 51
239.4248067075803
  0
ARC
  5
12D7
  8
0
 10
102.655626903024
 20
96.436684207482358
 30
0.0
 40
2.0
 50
90.0
 51
147.6091110223785
  0
ARC
  5
12D8
  8
0
 10
90.450071825836744
 20
82.966855528077247
 30
0.0
 40
9.5227706074803589
 50
0.2761918417116675
 51
59.424806707580331
  0
ARC
  5
12D9
  8
3
 10
103.0559105124089
 20
92.936684207482358
 30
0.0
 40
1.5
 50
180.0
 51
270.0
  0
ARC
  5
12DA
  8
3
 10
117.42249773567831
 20
92.936684207482358
 30
0.0
 40
1.5
 50
270.0
 51
0.0
  0
ARC
  5
12DB
  8
3
 10
117.42249773567821
 20
96.936684207482358
 30
0.0
 40
1.5
 50
0.0
 51
90.0
  0
ARC
  5
12DC
  8
0
 10
118.47262571771439
 20
89.436684207482358
 30
0.0
 40
2.0
 50
64.646212605658718
 51
90.0
  0
LINE
  5
12DD
  8
0
 10
119.329038513572
 20
91.244046131141076
 30
0.0
 11
122.0880773470542
 21
89.936684207482344
 31
0.0
  0
ARC
  5
12DE
  8
0
 10
120.30267589515201
 20
90.837984188368637
 30
0.0
 40
2.0
 50
313.72702849309002
 51
0.0
  0
ARC
  5
12DF
  8
0
 10
128.61807777535921
 20
82.144627269118644
 30
0.0
 40
10.029977678899661
 50
133.72702849309221
 51
175.03462244334571
  0
ARC
  5
12E0
  8
0
 10
118.084246052797
 20
97.436684207482344
 30
0.0
 40
1.0
 50
52.135850646303183
 51
90.0
  0
ARC
  5
12E1
  8
0
 10
121.30267589515201
 20
94.936684207482344
 30
0.0
 40
1.0
 50
0.0
 51
48.722875550173043
  0
POLYLINE
  5
12E2
  8
0
 66
     1
 10
0.0
 20
0.0
 30
0.0
  0
VERTEX
  5
12E3
  8
0
 10
50.80267589515185
 20
89.436684207482358
 30
0.0
 42
0.1398891526406534
  0
VERTEX
  5
12E4
  8
0
 10
50.700135037414697
 20
89.796019568213069
 30
0.0
 42
0.1071181112083306
  0
VERTEX
  5
12E5
  8
0
 10
50.36333606693168
 20
90.143790988668911
 30
0.0
 42
0.0798124861749671
 70
     2
 50
146.30993247401921
  0
VERTEX
  5
12E6
  8
0
 10
49.899504394056322
 20
90.355793139631814
 30
0.0
 42
0.067459039934149
 50
146.30993247401921
  0
VERTEX
  5
12E7
  8
0
 10
49.302675895151907
 20
90.436684207482358
 30
0.0
 42
0.0674590399341561
  0
SEQEND
  5
12E8
  8
0
  0
POLYLINE
  5
12E9
  8
0
 66
     1
 10
0.0
 20
0.0
 30
0.0
  0
VERTEX
  5
12EA
  8
0
 10
49.302675895151907
 20
90.436684207482358
 30
0.0
 42
0.0674590399341561
  0
VERTEX
  5
12EB
  8
0
 10
48.705847396247599
 20
90.355793139631814
 30
0.0
 42
0.0798124861750083
  0
VERTEX
  5
12EC
  8
0
 10
48.242015723372127
 20
90.143790988668911
 30
0.0
 42
0.107118111208329
 70
     2
 50
213.69006752598079
  0
VERTEX
  5
12ED
  8
0
 10
47.905216752889061
 20
89.796019568213069
 30
0.0
 42
0.1398891526406003
 50
213.69006752598079
  0
VERTEX
  5
12EE
  8
0
 10
47.802675895151957
 20
89.436684207482358
 30
0.0
 42
0.1398891526407173
  0
SEQEND
  5
12EF
  8
0
  0
POLYLINE
  5
12F0
  8
0
 66
     1
 10
0.0
 20
0.0
 30
0.0
  0
VERTEX
  5
12F1
  8
0
 10
47.802675895151957
 20
89.436684207482358
 30
0.0
 42
0.0754446162297572
  0
VERTEX
  5
12F2
  8
0
 10
47.92233910790312
 20
88.648144820320113
 30
0.0
 42
0.0857828071075947
  0
VERTEX
  5
12F3
  8
0
 10
48.242015723372127
 20
88.022470645109252
 30
0.0
 42
0.1060700219635297
 70
     2
 50
306.86989764584291
  0
VERTEX
  5
12F4
  8
0
 10
48.752296924687393
 20
87.578566953672748
 30
0.0
 42
0.126822357247827
 50
306.86989764584291
  0
VERTEX
  5
12F5
  8
0
 10
49.302675895151907
 20
87.436684207482344
 30
0.0
 42
0.1268223572478301
  0
VERTEX
  5
12F6
  8
0
 10
49.853054865616322
 20
87.578566953672748
 30
0.0
 42
0.1060700219635711
  0
VERTEX
  5
12F7
  8
0
 10
50.36333606693168
 20
88.022470645109252
 30
0.0
 42
0.0857828071076326
 70
     2
 50
53.130102354157017
  0
VERTEX
  5
12F8
  8
0
 10
50.683012682400573
 20
88.648144820319999
 30
0.0
 42
0.0754446162298185
 50
53.130102354157017
  0
VERTEX
  5
12F9
  8
0
 10
50.80267589515185
 20
89.436684207482358
 30
0.0
 42
0.0754446162298803
  0
SEQEND
  5
12FA
  8
0
  0
ARC
  5
12FB
  8
3
 10
34.488313509149123
 20
92.668692896086895
 30
0.0
 40
1.5
 50
187.88738271828711
 51
258.89542861995159
  0
ARC
  5
12FC
  8
3
 10
64.11703828115472
 20
92.668692896086895
 30
0.0
 40
1.5
 50
281.10457138004671
 51
352.11261728171291
  0
ARC
  5
12FD
  8
0
 10
40.192512822146512
 20
121.7309658787114
 30
0.0
 40
31.116779040249941
 50
256.37063385234762
 51
282.47790311344659
  0
ARC
  5
12FE
  8
0
 10
58.412838968157359
 20
121.7309658787114
 30
0.0
 40
31.116779040249941
 50
257.52209688655341
 51
282.68462930288513
  0
ARC
  5
12FF
  8
0
 10
49.302675895151928
 20
58.835132463697342
 30
0.0
 40
32.601551743785002
 50
85.801238466179214
 51
94.198761533820786
  0
ARC
  5
1300
  8
0
 10
41.929463737682312
 20
109.37123282390441
 30
0.0
 40
14.095916843915029
 50
233.4744868803636
 51
282.84041952747339
  0
ARC
  5
1301
  8
0
 10
32.860147318116447
 20
93.490424316843701
 30
0.0
 40
2.0
 50
187.88738271828711
 51
270.0
  0
LINE
  5
1302
  8
0
 10
32.349485077182123
 20
98.436684207482372
 30
0.0
 11
31.302675895151939
 21
98.436684207482372
 31
0.0
  0
LINE
  5
1303
  8
0
 10
30.32006887235065
 20
97.250987038032804
 30
0.0
 11
30.879067905492441
 21
93.215971477766985
 31
0.0
  0
ARC
  5
1304
  8
0
 10
31.302675895151939
 20
97.436684207482344
 30
0.0
 40
1.0
 50
90.0
 51
190.70178160111709
  0
LINE
  5
1305
  8
3
 10
32.404091468722562
 20
96.782366412543126
 30
0.0
 11
33.002503949681142
 21
92.462853266779291
 31
0.0
  0
ARC
  5
1306
  8
0
 10
32.349485077182123
 20
96.436684207482358
 30
0.0
 40
2.0
 50
53.4744868803636
 51
90.0
  0
ARC
  5
1307
  8
3
 10
33.394631175034533
 20
96.919592832081563
 30
0.0
 40
1.0
 50
55.571762546439011
 51
187.88738271828711
  0
ARC
  5
1308
  8
3
 10
65.210720615269324
 20
96.919592832081563
 30
0.0
 40
1.0
 50
352.11261728171291
 51
124.4282374535609
  0
ARC
  5
1309
  8
0
 10
54.955310653351461
 20
100.4395299266659
 30
0.0
 40
5.0
 50
249.99130484533779
 51
259.09627314459681
  0
ARC
  5
130A
  8
0
 10
66.255866713121733
 20
96.436684207482358
 30
0.0
 40
2.0
 50
90.0
 51
126.5255131196364
  0
ARC
  5
130B
  8
0
 10
56.675888052621552
 20
109.37123282390441
 30
0.0
 40
14.095916843915029
 50
259.09627314459681
 51
306.5255131196364
  0
ARC
  5
130C
  8
0
 10
49.302675895151928
 20
84.916373858725365
 30
0.0
 40
11.520310348757
 50
69.991304845337808
 51
111.5982762059501
  0
LINE
  5
130D
  8
3
 10
66.201260321581316
 20
96.782366412543126
 30
0.0
 11
65.602847840622701
 21
92.462853266779291
 31
0.0
  0
LINE
  5
130E
  8
0
 10
40.412196229158717
 20
83.012759456580852
 30
0.0
 11
41.302675895151992
 21
67.436684207482344
 31
0.0
  0
ARC
  5
130F
  8
0
 10
42.302675895152049
 20
96.936684207482358
 30
0.0
 40
1.0
 50
90.0
 51
180.0
  0
LINE
  5
1310
  8
0
 10
41.302675895151928
 20
96.936684207482358
 30
0.0
 11
41.302675895152163
 21
95.289258222626927
 31
0.0
  0
LINE
  5
1311
  8
0
 10
57.302675895151928
 20
96.936684207482358
 30
0.0
 11
57.302675895152191
 21
95.289258222626984
 31
0.0
  0
LINE
  5
1312
  8
0
 10
58.19315556114514
 20
83.012759456580852
 30
0.0
 11
57.302675895151992
 21
67.436684207482344
 31
0.0
  0
ARC
  5
1313
  8
0
 10
67.302675895151935
 20
97.436684207482344
 30
0.0
 40
1.0
 50
349.29821839888291
 51
90.0
  0
ARC
  5
1314
  8
0
 10
56.302675895151822
 20
96.936684207482358
 30
0.0
 40
1.0
 50
0.0
 51
90.0
  0
LINE
  5
1315
  8
0
 10
68.285282917953225
 20
97.250987038032804
 30
0.0
 11
67.726283884811437
 21
93.215971477766985
 31
0.0
  0
LINE
  5
1316
  8
0
 10
66.255866713121733
 20
98.436684207482372
 30
0.0
 11
67.302675895151935
 21
98.436684207482372
 31
0.0
  0
LINE
  5
1317
  8
0
 10
56.302675895151822
 20
97.936684207482358
 30
0.0
 11
42.302675895151928
 21
97.936684207482358
 31
0.0
  0
ARC
  5
1318
  8
0
 10
67.657005193016715
 20
82.184779900478134
 30
0.0
 40
9.4999999999999982
 50
101.60960780340621
 51
175.0000000000002
  0
LINE
  5
1319
  8
0
 10
42.052675895151943
 20
65.936684207482358
 30
0.0
 11
41.302675895151992
 21
67.436684207482344
 31
0.0
  0
LINE
  5
131A
  8
0
 10
57.302675895151992
 20
67.436684207482344
 30
0.0
 11
56.552675895151992
 21
65.936684207482358
 31
0.0
  0
LINE
  5
131B
  8
0
 10
41.302675895151992
 20
67.436684207482344
 30
0.0
 11
57.302675895151992
 21
67.436684207482344
 31
0.0
  0
LINE
  5
131C
  8
0
 10
42.052675895151943
 20
65.936684207482358
 30
0.0
 11
56.552675895151992
 21
65.936684207482358
 31
0.0
  0
ARC
  5
131D
  8
0
 10
65.745204472187424
 20
93.490424316843701
 30
0.0
 40
2.0
 50
269.99999999999841
 51
352.11261728171291
  0
ARC
  5
131E
  8
0
 10
30.948346597287131
 20
82.184779900478134
 30
0.0
 40
9.4999999999999982
 50
4.9999999999997433
 51
78.39039219659378
  0
ARC
  5
131F
  8
0
 10
150.94834659728701
 20
82.184779900478134
 30
0.0
 40
9.4999999999999982
 50
4.9999999999997433
 51
78.39039219659378
  0
ARC
  5
1320
  8
3
 10
153.34574969833861
 20
97.272433369152736
 30
0.0
 40
1.0
 50
65.849694937206763
 51
187.8873827182903
  0
LINE
  5
1321
  8
3
 10
152.35520999202669
 20
97.135206949614386
 30
0.0
 11
152.94662733274251
 21
92.866186735058704
 31
0.0
  0
ARC
  5
1322
  8
0
 10
151.30267589515179
 20
97.436684207482344
 30
0.0
 40
1.0
 50
90.0
 51
190.70178160111709
  0
LINE
  5
1323
  8
0
 10
150.32006887235059
 20
97.250987038032804
 30
0.0
 11
150.87906790549229
 21
93.215971477766985
 31
0.0
  0
LINE
  5
1324
  8
0
 10
152.8201976566902
 20
98.436684207482372
 30
0.0
 11
151.30267589515179
 21
98.436684207482372
 31
0.0
  0
ARC
  5
1325
  8
0
 10
152.8201976566902
 20
97.436684207482344
 30
0.0
 40
1.0
 50
66.023008892381682
 51
90.0
  0
ARC
  5
1326
  8
0
 10
154.8155746228841
 20
71.022151772951915
 30
0.0
 40
20.553203033069028
 50
75.957385004063596
 51
94.973953382937125
  0
ARC
  5
1327
  8
0
 10
152.86014731811639
 20
93.490424316843701
 30
0.0
 40
2.0
 50
187.88738271828711
 51
274.97395338293711
  0
ARC
  5
1328
  8
3
 10
154.43243689221049
 20
93.072026364366266
 30
0.0
 40
1.5
 50
187.88738271828711
 51
270.99546897434777
  0
ARC
  5
1329
  8
3
 10
184.1729148980931
 20
93.072026364366266
 30
0.0
 40
1.5
 50
269.00453102565223
 51
352.11261728171291
  0
ARC
  5
132A
  8
0
 10
185.74520447218731
 20
93.490424316843701
 30
0.0
 40
2.0
 50
265.02604661706289
 51
352.11261728171291
  0
ARC
  5
132B
  8
0
 10
183.78977716741949
 20
71.022151772951915
 30
0.0
 40
20.553203033069028
 50
85.026046617062889
 51
104.0426149959364
  0
ARC
  5
132C
  8
0
 10
169.30267589515191
 20
134.4969826191051
 30
0.0
 40
44.560298411622817
 50
257.69038975889589
 51
282.30961024110411
  0
ARC
  5
132D
  8
0
 10
185.7851541336135
 20
97.436684207482344
 30
0.0
 40
1.0
 50
90.0
 51
113.9769911076183
  0
ARC
  5
132E
  8
0
 10
169.30267589515191
 20
134.4969826191051
 30
0.0
 40
39.560298411622817
 50
246.02300889238299
 51
293.97699110761829
  0
LINE
  5
132F
  8
0
 10
102.05267589515191
 20
65.936684207482358
 30
0.0
 11
101.30267589515201
 21
67.436684207482344
 31
0.0
  0
LINE
  5
1330
  8
0
 10
117.30267589515201
 20
67.436684207482344
 30
0.0
 11
116.55267589515201
 21
65.936684207482358
 31
0.0
  0
LINE
  5
1331
  8
0
 10
101.30267589515201
 20
67.436684207482344
 30
0.0
 11
117.30267589515201
 21
67.436684207482344
 31
0.0
  0
LINE
  5
1332
  8
0
 10
102.05267589515191
 20
65.936684207482358
 30
0.0
 11
116.55267589515201
 21
65.936684207482358
 31
0.0
  0
LINE
  5
1333
  8
0
 10
162.05267589515191
 20
65.936684207482358
 30
0.0
 11
176.55267589515191
 21
65.936684207482358
 31
0.0
  0
LINE
  5
1334
  8
0
 10
161.30267589515191
 20
67.436684207482344
 30
0.0
 11
177.30267589515191
 21
67.436684207482344
 31
0.0
  0
LINE
  5
1335
  8
0
 10
177.30267589515191
 20
67.436684207482344
 30
0.0
 11
176.55267589515191
 21
65.936684207482358
 31
0.0
  0
LINE
  5
1336
  8
0
 10
162.05267589515191
 20
65.936684207482358
 30
0.0
 11
161.30267589515191
 21
67.436684207482344
 31
0.0
  0
ARC
  5
1337
  8
3
 10
102.5559105124089
 20
97.436684207482344
 30
0.0
 40
1.0
 50
103.75607136256841
 51
180.0
  0
LINE
  5
1338
  8
3
 10
101.5559105124089
 20
96.936684207482358
 30
0.0
 11
118.92249773567831
 21
96.936684207482358
 31
0.0
  0
LINE
  5
1339
  8
0
 10
118.6980373934407
 20
98.226152503331377
 30
0.0
 11
121.9623775655562
 21
95.68821178918904
 31
0.0
  0
LINE
  5
133A
  8
3
 10
101.5559105124089
 20
97.436684207482344
 30
0.0
 11
101.5559105124089
 21
92.936684207482358
 31
0.0
  0
LINE
  5
133B
  8
3
 10
118.92249773567831
 20
96.936684207482358
 30
0.0
 11
118.92249773567831
 21
92.936684207482358
 31
0.0
  0
LINE
  5
133C
  8
0
 10
103.0559105124089
 20
91.436684207482358
 30
0.0
 11
118.47262571771439
 21
91.436684207482358
 31
0.0
  0
LINE
  5
133D
  8
0
 10
102.655626903024
 20
98.436684207482372
 30
0.0
 11
118.084246052797
 21
98.436684207482372
 31
0.0
  0
ARC
  5
133E
  8
0
 10
187.6570051930166
 20
82.184779900478134
 30
0.0
 40
9.4999999999999982
 50
101.60960780340621
 51
175.0000000000002
  0
LINE
  5
133F
  8
0
 10
176.30267589515171
 20
97.936684207482358
 30
0.0
 11
162.30267589515179
 21
97.936684207482358
 31
0.0
  0
LINE
  5
1340
  8
0
 10
185.7851541336135
 20
98.436684207482372
 30
0.0
 11
187.30267589515179
 21
98.436684207482372
 31
0.0
  0
LINE
  5
1341
  8
0
 10
188.28528291795311
 20
97.250987038032804
 30
0.0
 11
187.72628388481141
 21
93.215971477766985
 31
0.0
  0
ARC
  5
1342
  8
0
 10
176.30267589515171
 20
96.936684207482358
 30
0.0
 40
1.0
 50
0.0
 51
90.0
  0
ARC
  5
1343
  8
0
 10
187.30267589515179
 20
97.436684207482344
 30
0.0
 40
1.0
 50
349.29821839888291
 51
90.0
  0
LINE
  5
1344
  8
0
 10
178.19315556114509
 20
83.012759456580852
 30
0.0
 11
177.30267589515191
 21
67.436684207482344
 31
0.0
  0
LINE
  5
1345
  8
0
 10
177.30267589515179
 20
96.936684207482358
 30
0.0
 11
177.30267589515199
 21
95.754019252622115
 31
0.0
  0
LINE
  5
1346
  8
0
 10
161.30267589515191
 20
96.936684207482358
 30
0.0
 11
161.30267589515199
 21
95.754019252622072
 31
0.0
  0
ARC
  5
1347
  8
0
 10
162.30267589515199
 20
96.936684207482358
 30
0.0
 40
1.0
 50
90.0
 51
180.0
  0
LINE
  5
1348
  8
0
 10
160.41219622915861
 20
83.012759456580852
 30
0.0
 11
161.30267589515191
 21
67.436684207482344
 31
0.0
  0
LINE
  5
1349
  8
3
 10
186.25014179827701
 20
97.135206949614386
 30
0.0
 11
185.65872445756119
 21
92.866186735058704
 31
0.0
  0
ARC
  5
134A
  8
3
 10
185.25960209196509
 20
97.272433369152736
 30
0.0
 40
1.0
 50
352.11261728170962
 51
114.15030506279319
  0
LINE
  5
134B
  8
0
 10
118.6212173790972
 20
82.959019347219524
 30
0.0
 11
117.30267589515201
 21
67.436684207482344
 31
0.0
  0
LINE
  5
134C
  8
0
 10
99.984134411206696
 20
82.959019347219524
 30
0.0
 11
101.30267589515201
 21
67.436684207482344
 31
0.0
  0
LINE
  5
134D
  8
0
 10
94.802675895151822
 20
95.435575830962136
 30
0.0
 11
94.802675895151935
 21
92.026564736148075
 31
0.0
  0
LINE
  5
134E
  8
0
 10
122.30267589515201
 20
94.936684207482344
 30
0.0
 11
122.30267589515201
 21
90.837984188368637
 31
0.0
  0
LINE
  5
134F
  8
1
 10
114.05267589515201
 20
45.336684207482392
 30
0.0
 11
109.80267589515191
 21
45.336684207482392
 31
0.0
  0
ARC
  5
1350
  8
0
 10
111.20767589515189
 20
45.336684207482392
 30
0.0
 40
0.8450000000000354
 50
314.76027010392079
 51
45.239729896079147
  0
ARC
  5
1351
  8
0
 10
107.39767589515201
 20
45.336684207482392
 30
0.0
 40
0.8450000000000354
 50
134.7602701039209
 51
225.2397298960791
  0
LINE
  5
1352
  8
0
 10
106.80267589515201
 20
65.936684207482358
 30
0.0
 11
106.80267589515201
 21
40.936684207482408
 31
0.0
  0
LINE
  5
1353
  8
0
 10
111.80267589515201
 20
65.936684207482358
 30
0.0
 11
111.80267589515191
 21
40.936684207482458
 31
0.0
  0
LINE
  5
1354
  8
0
 10
106.80267589515191
 20
40.936684207482408
 30
0.0
 11
111.80267589515201
 21
40.936684207482458
 31
0.0
  0
LINE
  5
1355
  8
0
 10
107.55267589515191
 20
39.936684207482422
 30
0.0
 11
111.05267589515191
 21
39.936684207482422
 31
0.0
  0
LINE
  5
1356
  8
1
 10
104.55267589515201
 20
45.336684207482392
 30
0.0
 11
108.80267589515201
 21
45.336684207482392
 31
0.0
  0
LINE
  5
1357
  8
0
 10
107.55267589515191
 20
39.936684207482422
 30
0.0
 11
106.80267589515201
 21
40.936684207482408
 31
0.0
  0
LINE
  5
1358
  8
0
 10
111.05267589515191
 20
39.936684207482422
 30
0.0
 11
111.80267589515201
 21
40.936684207482458
 31
0.0
  0
LINE
  5
1359
  8
0
 10
166.80267589515191
 20
65.936684207482358
 30
0.0
 11
166.80267589515191
 21
40.936684207482408
 31
0.0
  0
LINE
  5
135A
  8
0
 10
171.80267589515191
 20
65.936684207482358
 30
0.0
 11
171.80267589515191
 21
40.936684207482458
 31
0.0
  0
LINE
  5
135B
  8
0
 10
166.80267589515179
 20
40.936684207482408
 30
0.0
 11
171.80267589515191
 21
40.936684207482458
 31
0.0
  0
LINE
  5
135C
  8
0
 10
167.55267589515191
 20
39.936684207482422
 30
0.0
 11
171.05267589515179
 21
39.936684207482422
 31
0.0
  0
LINE
  5
135D
  8
1
 10
166.30267589515191
 20
45.336684207482392
 30
0.0
 11
172.30267589515191
 21
45.336684207482392
 31
0.0
  0
CIRCLE
  5
135E
  8
0
 10
169.30267589515191
 20
45.336684207482392
 30
0.0
 40
0.6
  0
LINE
  5
135F
  8
0
 10
167.55267589515191
 20
39.936684207482422
 30
0.0
 11
166.80267589515191
 21
40.936684207482408
 31
0.0
  0
LINE
  5
1360
  8
0
 10
171.05267589515179
 20
39.936684207482422
 30
0.0
 11
171.80267589515191
 21
40.936684207482458
 31
0.0
  0
LINE
  5
1361
  8
0
 10
51.052675895151928
 20
39.936684207482422
 30
0.0
 11
51.802675895151992
 21
40.936684207482458
 31
0.0
  0
LINE
  5
1362
  8
0
 10
47.552675895151928
 20
39.936684207482422
 30
0.0
 11
46.802675895151992
 21
40.936684207482408
 31
0.0
  0
CIRCLE
  5
1363
  8
0
 10
49.302675895151992
 20
45.336684207482392
 30
0.0
 40
0.6
  0
LINE
  5
1364
  8
0
 10
46.802675895151992
 20
65.936684207482358
 30
0.0
 11
46.802675895151992
 21
40.936684207482408
 31
0.0
  0
LINE
  5
1365
  8
0
 10
51.802675895151992
 20
65.936684207482358
 30
0.0
 11
51.802675895151928
 21
40.936684207482458
 31
0.0
  0
LINE
  5
1366
  8
1
 10
46.302675895151992
 20
45.336684207482392
 30
0.0
 11
52.302675895151992
 21
45.336684207482392
 31
0.0
  0
LINE
  5
1367
  8
0
 10
47.552675895151928
 20
39.936684207482422
 30
0.0
 11
51.052675895151928
 21
39.936684207482422
 31
0.0
  0
LINE
  5
1368
  8
1
 10
49.302675895151992
 20
101.4366842074824
 30
0.0
 11
49.302675895151992
 21
34.936684207482422
 31
0.0
  0
LINE
  5
1369
  8
1
 10
169.30267589515191
 20
101.4366842074824
 30
0.0
 11
169.30267589515191
 21
34.936684207482422
 31
0.0
  0
LINE
  5
136A
  8
1
 10
109.30267589515201
 20
103.4366842074824
 30
0.0
 11
109.30267589515201
 21
34.936684207482422
 31
0.0
  0
ARC
  5
136B
  8
3
 10
35.192177386036811
 20
140.8480859894799
 30
0.0
 40
2.0
 50
199.83057030078791
 51
256.92703439030402
  0
ARC
  5
136C
  8
3
 10
49.302675895151992
 20
145.93668420748239
 30
0.0
 40
17.0
 50
151.34147177551381
 51
199.83057030078791
  0
ARC
  5
136D
  8
3
 10
63.413174404267181
 20
140.8480859894799
 30
0.0
 40
2.0
 50
283.0729656096961
 51
340.16942969921212
  0
LINE
  5
136E
  8
3
 10
40.361872168770731
 20
137.59441786129861
 30
0.0
 11
34.739793941519508
 21
138.89992038586021
 31
0.0
  0
LINE
  5
136F
  8
3
 10
47.670031888281009
 20
133.3424602968098
 30
0.0
 11
40.361872168770731
 21
137.59441786129861
 31
0.0
  0
ARC
  5
1370
  8
3
 10
49.302675895151992
 20
136.41727611427669
 30
0.0
 40
3.4805919067943232
 50
241.36321106602421
 51
298.63678752875347
  0
LINE
  5
1371
  8
3
 10
50.935319902022968
 20
133.3424602968098
 30
0.0
 11
58.243479621533311
 21
137.59441786129861
 31
0.0
  0
LINE
  5
1372
  8
3
 10
58.243479621533311
 20
137.59441786129861
 30
0.0
 11
63.865557848784469
 21
138.89992038586021
 31
0.0
  0
LINE
  5
1373
  8
0
 10
51.68965196761178
 20
132.04593296010441
 30
0.0
 11
58.802675895151992
 21
136.18435864534939
 31
0.0
  0
LINE
  5
1374
  8
0
 10
58.802675895151992
 20
136.18435864534939
 30
0.0
 11
65.571421663691126
 21
137.7561287865245
 31
0.0
  0
ARC
  5
1375
  8
0
 10
65.119038219173831
 20
139.70429439014401
 30
0.0
 40
2.0
 50
283.0729656096961
 51
338.49322972005211
  0
ARC
  5
1376
  8
0
 10
33.486313571130161
 20
139.70429439014401
 30
0.0
 40
2.0
 50
201.50677027994789
 51
256.92703439030402
  0
ARC
  5
1377
  8
0
 10
49.302675895151992
 20
145.93668420748239
 30
0.0
 40
19.0
 50
338.49322972005211
 51
28.550146425531761
  0
LINE
  5
1378
  8
0
 10
39.802675895151992
 20
136.18435864534939
 30
0.0
 11
33.033930126612859
 21
137.7561287865245
 31
0.0
  0
LINE
  5
1379
  8
0
 10
46.915699822692197
 20
132.04593296010441
 30
0.0
 11
39.802675895151992
 21
136.18435864534939
 31
0.0
  0
ARC
  5
137A
  8
0
 10
49.302675895151992
 20
136.41727611427669
 30
0.0
 40
4.9805919067943227
 50
241.36321106602421
 51
298.63678752875347
  0
CIRCLE
  5
137B
  8
0
 10
49.302675895151992
 20
134.43668420748239
 30
0.0
 40
1.5
  0
ARC
  5
137C
  8
0
 10
34.369890224076251
 20
154.06145571822131
 30
0.0
 40
2.0
 50
111.7972416206033
 51
151.44985357446461
  0
ARC
  5
137D
  8
3
 10
36.14027296305489
 20
153.13051135672089
 30
0.0
 40
2.0
 50
109.87573994801851
 51
151.34147177551381
  0
ARC
  5
137E
  8
3
 10
62.465078827249158
 20
153.13051135672089
 30
0.0
 40
2.0
 50
28.658528224486119
 51
70.124260051981494
  0
ARC
  5
137F
  8
0
 10
64.235461566227741
 20
154.06145571822131
 30
0.0
 40
2.0
 50
28.550146425531761
 51
68.202758379395121
  0
ARC
  5
1380
  8
3
 10
49.302675895151928
 20
116.72161475691929
 30
0.0
 40
40.715069450563057
 50
70.124260051981494
 51
109.87573994801851
  0
ARC
  5
1381
  8
3
 10
49.302675895151992
 20
145.93668420748239
 30
0.0
 40
17.0
 50
340.16942969921212
 51
28.658528224486119
  0
ARC
  5
1382
  8
0
 10
49.302675895151928
 20
116.72161475691929
 30
0.0
 40
42.215069450563057
 50
68.202758379395121
 51
111.7972416206033
  0
ARC
  5
1383
  8
0
 10
49.302675895151992
 20
145.93668420748239
 30
0.0
 40
19.0
 50
151.44985357446461
 51
201.50677027994789
  0
CIRCLE
  5
1384
  8
0
 10
49.302675895151992
 20
145.93668420748239
 30
0.0
 40
8.0
  0
LINE
  5
1385
  8
1
 10
25.302675895151999
 20
145.93668420748239
 30
0.0
 11
73.302675895151992
 21
145.93668420748239
 31
0.0
  0
LINE
  5
1386
  8
1
 10
49.302675895151992
 20
163.93668420748239
 30
0.0
 11
49.302675895151992
 21
126.4366842074824
 31
0.0
  0
LINE
  5
1387
  8
0
 10
46.802675895151928
 20
40.936684207482408
 30
0.0
 11
51.802675895151992
 21
40.936684207482458
 31
0.0
  0
TEXT
  5
143C
  8
0
 62
     3
 10
0.0
 20
0.0
 30
0.0
 40
10.0
  1
BLP05020-SUS
  7
STANDARD1
  0
ENDSEC
  0
EOF
