  0
SECTION
  2
HEADER
  9
$ACADVER
  1
AC1009
  9
$INSBASE
 10
0.0
 20
0.0
 30
0.0
  9
$EXTMIN
 10
0.0
 20
-2.960436562073669
 30
0.0
  9
$EXTMAX
 10
197.83927041537709
 20
167.57096091816939
 30
0.0
  9
$LIMMIN
 10
0.0
 20
0.0
  9
$LIMMAX
 10
187.5
 20
135.0
  9
$ORTHOMODE
 70
     0
  9
$REGENMODE
 70
     1
  9
$FILLMODE
 70
     1
  9
$QTEXTMODE
 70
     0
  9
$MIRRTEXT
 70
     0
  9
$DRAGMODE
 70
     2
  9
$LTSCALE
 40
5.0
  9
$OSMODE
 70
  3071
  9
$ATTMODE
 70
     1
  9
$TEXTSIZE
 40
4.0
  9
$TRACEWID
 40
0.05
  9
$TEXTSTYLE
  7
STANDARD
  9
$CLAYER
  8
0
  9
$CELTYPE
  6
BYLAYER
  9
$CECOLOR
 62
   256
  9
$DIMSCALE
 40
0.5
  9
$DIMASZ
 40
3.0
  9
$DIMEXO
 40
2.0
  9
$DIMDLI
 40
0.38
  9
$DIMRND
 40
0.0
  9
$DIMDLE
 40
0.0
  9
$DIMEXE
 40
2.0
  9
$DIMTP
 40
0.0
  9
$DIMTM
 40
0.0
  9
$DIMTXT
 40
3.0
  9
$DIMCEN
 40
0.0
  9
$DIMTSZ
 40
0.0
  9
$DIMTOL
 70
     0
  9
$DIMLIM
 70
     0
  9
$DIMTIH
 70
     0
  9
$DIMTOH
 70
     0
  9
$DIMSE1
 70
     0
  9
$DIMSE2
 70
     0
  9
$DIMTAD
 70
     1
  9
$DIMZIN
 70
     0
  9
$DIMBLK
  1

  9
$DIMASO
 70
     0
  9
$DIMSHO
 70
     0
  9
$DIMPOST
  1

  9
$DIMAPOST
  1

  9
$DIMALT
 70
     0
  9
$DIMALTD
 70
     2
  9
$DIMALTF
 40
25.399999999999999
  9
$DIMLFAC
 40
1.0
  9
$DIMTOFL
 70
     0
  9
$DIMTVP
 40
1.6000000000000001
  9
$DIMTIX
 70
     1
  9
$DIMSOXD
 70
     0
  9
$DIMSAH
 70
     0
  9
$DIMBLK1
  1

  9
$DIMBLK2
  1

  9
$DIMSTYLE
  2
STANDARD
  9
$DIMCLRD
 70
     0
  9
$DIMCLRE
 70
     0
  9
$DIMCLRT
 70
     0
  9
$DIMTFAC
 40
1.0
  9
$DIMGAP
 40
0.09
  9
$LUNITS
 70
     2
  9
$LUPREC
 70
     4
  9
$SKETCHINC
 40
0.1
  9
$FILLETRAD
 40
1.0
  9
$AUNITS
 70
     0
  9
$AUPREC
 70
     0
  9
$MENU
  1
E:\r13\win\SUPPORT\ACAD
  9
$ELEVATION
 40
0.0
  9
$PELEVATION
 40
0.0
  9
$THICKNESS
 40
0.0
  9
$LIMCHECK
 70
     0
  9
$BLIPMODE
 70
     0
  9
$CHAMFERA
 40
0.0
  9
$CHAMFERB
 40
0.0
  9
$SKPOLY
 70
     0
  9
$TDCREATE
 40
2449840.6143865739
  9
$TDUPDATE
 40
2456598.4626968401
  9
$TDINDWG
 40
0.2517673032
  9
$TDUSRTIMER
 40
0.2517673032
  9
$USRTIMER
 70
     1
  9
$ANGBASE
 50
0.0
  9
$ANGDIR
 70
     0
  9
$PDMODE
 70
     0
  9
$PDSIZE
 40
0.0
  9
$PLINEWID
 40
0.0
  9
$COORDS
 70
     1
  9
$SPLFRAME
 70
     0
  9
$SPLINETYPE
 70
     6
  9
$SPLINESEGS
 70
     8
  9
$ATTDIA
 70
     0
  9
$ATTREQ
 70
     1
  9
$HANDLING
 70
     1
  9
$HANDSEED
  5
1599
  9
$SURFTAB1
 70
     6
  9
$SURFTAB2
 70
     6
  9
$SURFTYPE
 70
     6
  9
$SURFU
 70
     6
  9
$SURFV
 70
     6
  9
$UCSNAME
  2

  9
$UCSORG
 10
0.0
 20
0.0
 30
0.0
  9
$UCSXDIR
 10
1.0
 20
0.0
 30
0.0
  9
$UCSYDIR
 10
0.0
 20
1.0
 30
0.0
  9
$PUCSNAME
  2

  9
$PUCSORG
 10
0.0
 20
0.0
 30
0.0
  9
$PUCSXDIR
 10
1.0
 20
0.0
 30
0.0
  9
$PUCSYDIR
 10
0.0
 20
1.0
 30
0.0
  9
$USERI1
 70
     0
  9
$USERI2
 70
     1
  9
$USERI3
 70
     1
  9
$USERI4
 70
     0
  9
$USERI5
 70
     0
  9
$USERR1
 40
0.0
  9
$USERR2
 40
0.0
  9
$USERR3
 40
0.0
  9
$USERR4
 40
0.0
  9
$USERR5
 40
0.0
  9
$WORLDVIEW
 70
     1
  9
$SHADEDGE
 70
     3
  9
$SHADEDIF
 70
    70
  9
$TILEMODE
 70
     1
  9
$MAXACTVP
 70
    16
  9
$PLIMCHECK
 70
     0
  9
$PEXTMIN
 10
1.0000000000000000E+020
 20
1.0000000000000000E+020
 30
1.0000000000000000E+020
  9
$PEXTMAX
 10
-1.0000000000000000E+020
 20
-1.0000000000000000E+020
 30
-1.0000000000000000E+020
  9
$PLIMMIN
 10
0.0
 20
0.0
  9
$PLIMMAX
 10
12.0
 20
9.0
  9
$UNITMODE
 70
     0
  9
$VISRETAIN
 70
     0
  9
$PLINEGEN
 70
     0
  9
$PSLTSCALE
 70
     0
  0
ENDSEC
  0
SECTION
  2
TABLES
  0
TABLE
  2
VPORT
 70
     1
  0
VPORT
  2
*ACTIVE
 70
     0
 10
0.0
 20
0.0
 11
1.0
 21
1.0
 12
103.65401165958291
 22
82.302461479037405
 13
0.0
 23
0.0
 14
5.0
 24
5.0
 15
5.0
 25
5.0
 16
0.0
 26
0.0
 36
1.0
 17
0.0
 27
0.0
 37
0.0
 40
172.07679892436619
 41
1.831871345029239
 42
50.0
 43
0.0
 44
0.0
 50
0.0
 51
0.0
 71
     0
 72
   100
 73
     1
 74
     0
 75
     0
 76
     0
 77
     0
 78
     0
  0
ENDTAB
  0
TABLE
  2
LTYPE
 70
     3
  0
LTYPE
  2
CONTINUOUS
 70
     0
  3
Solid Line
 72
    65
 73
     0
 40
0.0
  0
LTYPE
  2
CENTER
 70
     0
  3
____ _ ____ _ ____ _ ____ _ ____ _ ____ _ ____
 72
    65
 73
     4
 40
2.0
 49
1.25
 49
-0.25
 49
0.25
 49
-0.25
  0
LTYPE
  2
PHANTOM2
 70
     0
  3
___ _ _ ___ _ _ ___ _ _ ___ _ _
 72
    65
 73
     6
 40
1.25
 49
0.625
 49
-0.125
 49
0.125
 49
-0.125
 49
0.125
 49
-0.125
  0
ENDTAB
  0
TABLE
  2
LAYER
 70
     3
  0
LAYER
  2
0
 70
     0
 62
     7
  6
CONTINUOUS
  0
LAYER
  2
1
 70
     0
 62
     1
  6
CENTER
  0
LAYER
  2
3
 70
     0
 62
     3
  6
CONTINUOUS
  0
ENDTAB
  0
TABLE
  2
STYLE
 70
     2
  0
STYLE
  2
STANDARD
 70
     0
 40
0.0
 41
1.0
 50
0.0
 71
     0
 42
4.0
  3
TXT
  4
BIGFONT
  0
STYLE
  2
STANDARD1
 70
     0
 40
0.0
 41
1.0
 50
0.0
 71
     0
 42
3.0
  3
txt
  4

  0
ENDTAB
  0
TABLE
  2
VIEW
 70
     1
  0
VIEW
  2
ALL
 70
     0
 40
179.66152299999999
 10
141.903918
 20
89.830760999999995
 41
0.0
 11
0.0
 21
0.0
 31
1.0
 12
0.0
 22
0.0
 32
0.0
 42
0.0
 43
0.0
 44
0.0
 50
0.0
 71
     0
  0
ENDTAB
  0
TABLE
  2
UCS
 70
     0
  0
ENDTAB
  0
TABLE
  2
APPID
 70
     4
  0
APPID
  2
ACAD
 70
     0
  0
APPID
  2
DCO15
 70
     0
  0
APPID
  2
ACAD_MLEADERVER
 70
     0
  0
APPID
  2
ACAD_NAV_VCDISPLAY
 70
     0
  0
ENDTAB
  0
TABLE
  2
DIMSTYLE
 70
     1
  0
DIMSTYLE
  2
STANDARD
 70
     0
  3

  4

  5

  6

  7

 40
1.0
 41
0.18
 42
0.0625
 43
0.38
 44
0.18
 45
0.0
 46
0.0
 47
0.0
 48
0.0
140
0.18
141
0.09
142
0.0
143
25.399999999999999
144
1.0
145
0.0
146
1.0
147
0.09
 71
     0
 72
     0
 73
     1
 74
     1
 75
     0
 76
     0
 77
     0
 78
     0
170
     0
171
     2
172
     0
173
     0
174
     0
175
     0
176
     0
177
     0
178
     0
  0
ENDTAB
  0
ENDSEC
  0
SECTION
  2
BLOCKS
  0
BLOCK
  8
0
  2
$MODEL_SPACE
 70
     0
 10
0.0
 20
0.0
 30
0.0
  3
$MODEL_SPACE
  1

  0
ENDBLK
  5
1BD
  8
0
  0
BLOCK
 67
     1
  8
0
  2
$PAPER_SPACE
 70
     0
 10
0.0
 20
0.0
 30
0.0
  3
$PAPER_SPACE
  1

  0
ENDBLK
  5
1BB
 67
     1
  8
0
  0
ENDSEC
  0
SECTION
  2
ENTITIES
  0
LINE
  5
1391
  8
0
 10
131.856663392576
 20
99.570960918169447
 30
0.0
 11
131.856663392576
 21
95.472260899055755
 31
0.0
  0
LINE
  5
1392
  8
0
 10
104.3566633925758
 20
100.0698525416492
 30
0.0
 11
104.3566633925759
 21
96.660841446835178
 31
0.0
  0
LINE
  5
1393
  8
0
 10
109.5381219086307
 20
87.593296057906585
 30
0.0
 11
110.8566633925759
 21
72.070960918169447
 31
0.0
  0
LINE
  5
1394
  8
0
 10
128.17520487652109
 20
87.593296057906585
 30
0.0
 11
126.8566633925759
 21
72.070960918169447
 31
0.0
  0
ARC
  5
1395
  8
3
 10
194.8135895893891
 20
101.9067100798399
 30
0.0
 40
1.0
 50
352.11261728171053
 51
114.1503050627926
  0
LINE
  5
1396
  8
3
 10
195.80412929570099
 20
101.7694836603014
 30
0.0
 11
195.21271195498511
 21
97.500463445745794
 31
0.0
  0
LINE
  5
1397
  8
0
 10
169.96618372658261
 20
87.647036167267942
 30
0.0
 11
170.85666339257591
 21
72.070960918169447
 31
0.0
  0
ARC
  5
1398
  8
0
 10
171.85666339257591
 20
101.5709609181694
 30
0.0
 40
1.0
 50
90.0
 51
180.0
  0
LINE
  5
1399
  8
0
 10
170.8566633925758
 20
101.5709609181694
 30
0.0
 11
170.856663392576
 21
100.3882959633092
 31
0.0
  0
LINE
  5
139A
  8
0
 10
186.8566633925758
 20
101.5709609181694
 30
0.0
 11
186.856663392576
 21
100.3882959633092
 31
0.0
  0
LINE
  5
139B
  8
0
 10
187.74714305856909
 20
87.647036167267942
 30
0.0
 11
186.85666339257591
 21
72.070960918169447
 31
0.0
  0
ARC
  5
139C
  8
0
 10
196.8566633925758
 20
102.0709609181694
 30
0.0
 40
1.0
 50
349.29821839888211
 51
90.0
  0
ARC
  5
139D
  8
0
 10
185.85666339257571
 20
101.5709609181694
 30
0.0
 40
1.0
 50
0.0
 51
90.0
  0
LINE
  5
139E
  8
0
 10
197.83927041537709
 20
101.88526374871989
 30
0.0
 11
197.2802713822353
 21
97.850248188454074
 31
0.0
  0
LINE
  5
139F
  8
0
 10
195.33914163103739
 20
103.0709609181694
 30
0.0
 11
196.8566633925758
 21
103.0709609181694
 31
0.0
  0
LINE
  5
13A0
  8
0
 10
185.85666339257571
 20
102.5709609181694
 30
0.0
 11
171.8566633925758
 21
102.5709609181694
 31
0.0
  0
ARC
  5
13A1
  8
0
 10
197.21099269044061
 20
86.819056611165209
 30
0.0
 40
9.4999999999999982
 50
101.60960780340631
 51
175.0000000000002
  0
LINE
  5
13A2
  8
0
 10
112.209614400448
 20
103.0709609181694
 30
0.0
 11
127.6382335502209
 21
103.0709609181694
 31
0.0
  0
LINE
  5
13A3
  8
0
 10
112.6098980098329
 20
96.070960918169447
 30
0.0
 11
128.02661321513841
 21
96.070960918169447
 31
0.0
  0
LINE
  5
13A4
  8
3
 10
128.47648523310221
 20
101.5709609181694
 30
0.0
 11
128.47648523310221
 21
97.570960918169447
 31
0.0
  0
LINE
  5
13A5
  8
3
 10
111.1098980098329
 20
102.0709609181694
 30
0.0
 11
111.1098980098329
 21
97.570960918169447
 31
0.0
  0
LINE
  5
13A6
  8
0
 10
128.25202489086459
 20
102.8604292140185
 30
0.0
 11
131.5163650629801
 21
100.3224884998762
 31
0.0
  0
LINE
  5
13A7
  8
3
 10
111.1098980098329
 20
101.5709609181694
 30
0.0
 11
128.47648523310221
 21
101.5709609181694
 31
0.0
  0
ARC
  5
13A8
  8
3
 10
112.1098980098329
 20
102.0709609181694
 30
0.0
 40
1.0
 50
103.75607136256821
 51
180.0
  0
LINE
  5
13A9
  8
0
 10
171.6066633925758
 20
70.570960918169433
 30
0.0
 11
170.85666339257591
 21
72.070960918169447
 31
0.0
  0
LINE
  5
13AA
  8
0
 10
186.85666339257591
 20
72.070960918169447
 30
0.0
 11
186.10666339257591
 21
70.570960918169433
 31
0.0
  0
LINE
  5
13AB
  8
0
 10
170.85666339257591
 20
72.070960918169447
 30
0.0
 11
186.85666339257591
 21
72.070960918169447
 31
0.0
  0
LINE
  5
13AC
  8
0
 10
171.6066633925758
 20
70.570960918169433
 30
0.0
 11
186.10666339257591
 21
70.570960918169433
 31
0.0
  0
LINE
  5
13AD
  8
0
 10
111.6066633925759
 20
70.570960918169433
 30
0.0
 11
126.1066633925759
 21
70.570960918169433
 31
0.0
  0
LINE
  5
13AE
  8
0
 10
110.8566633925759
 20
72.070960918169447
 30
0.0
 11
126.8566633925759
 21
72.070960918169447
 31
0.0
  0
LINE
  5
13AF
  8
0
 10
126.8566633925759
 20
72.070960918169447
 30
0.0
 11
126.1066633925759
 21
70.570960918169433
 31
0.0
  0
LINE
  5
13B0
  8
0
 10
111.6066633925759
 20
70.570960918169433
 30
0.0
 11
110.8566633925759
 21
72.070960918169447
 31
0.0
  0
ARC
  5
13B1
  8
0
 10
178.8566633925758
 20
139.13125932979219
 30
0.0
 40
39.560298411622817
 50
246.02300889238231
 51
293.97699110761761
  0
ARC
  5
13B2
  8
0
 10
195.33914163103739
 20
102.0709609181694
 30
0.0
 40
1.0
 50
90.0
 51
113.97699110761759
  0
ARC
  5
13B3
  8
0
 10
178.8566633925758
 20
139.13125932979219
 30
0.0
 40
44.560298411622817
 50
257.69038975889589
 51
282.30961024110411
  0
ARC
  5
13B4
  8
0
 10
193.34376466484349
 20
75.656428483639019
 30
0.0
 40
20.553203033069028
 50
85.026046617062846
 51
104.0426149959366
  0
ARC
  5
13B5
  8
0
 10
195.29919196961129
 20
98.124701027530847
 30
0.0
 40
2.0
 50
265.02604661706289
 51
352.11261728171132
  0
ARC
  5
13B6
  8
3
 10
193.7269023955171
 20
97.70630307505337
 30
0.0
 40
1.5
 50
269.00453102565223
 51
352.11261728171132
  0
ARC
  5
13B7
  8
3
 10
163.98642438963449
 20
97.70630307505337
 30
0.0
 40
1.5
 50
187.88738271828879
 51
270.99546897434777
  0
ARC
  5
13B8
  8
0
 10
162.41413481554031
 20
98.124701027530847
 30
0.0
 40
2.0
 50
187.88738271828879
 51
274.97395338293722
  0
ARC
  5
13B9
  8
0
 10
164.3695621203081
 20
75.656428483639019
 30
0.0
 40
20.553203033069028
 50
75.957385004063397
 51
94.973953382937154
  0
ARC
  5
13BA
  8
0
 10
162.3741851541142
 20
102.0709609181694
 30
0.0
 40
1.0
 50
66.02300889238235
 51
90.0
  0
LINE
  5
13BB
  8
0
 10
162.3741851541142
 20
103.0709609181694
 30
0.0
 11
160.8566633925758
 21
103.0709609181694
 31
0.0
  0
LINE
  5
13BC
  8
0
 10
159.87405636977451
 20
101.88526374871989
 30
0.0
 11
160.4330554029163
 21
97.850248188454074
 31
0.0
  0
ARC
  5
13BD
  8
0
 10
160.8566633925758
 20
102.0709609181694
 30
0.0
 40
1.0
 50
90.0
 51
190.70178160111789
  0
LINE
  5
13BE
  8
3
 10
161.90919748945069
 20
101.7694836603014
 30
0.0
 11
162.50061483016651
 21
97.500463445745794
 31
0.0
  0
ARC
  5
13BF
  8
3
 10
162.89973719576261
 20
101.9067100798399
 30
0.0
 40
1.0
 50
65.849694937207417
 51
187.8873827182895
  0
ARC
  5
13C0
  8
0
 10
160.50233409471099
 20
86.819056611165209
 30
0.0
 40
9.4999999999999982
 50
4.9999999999997433
 51
78.390392196593609
  0
ARC
  5
13C1
  8
0
 10
40.502334094711102
 20
86.819056611165209
 30
0.0
 40
9.4999999999999982
 50
4.9999999999997433
 51
78.390392196593609
  0
ARC
  5
13C2
  8
0
 10
75.2991919696114
 20
98.124701027530847
 30
0.0
 40
2.0
 50
269.99999999999841
 51
352.11261728171132
  0
LINE
  5
13C3
  8
0
 10
51.606663392575911
 20
70.570960918169433
 30
0.0
 11
66.106663392575967
 21
70.570960918169433
 31
0.0
  0
LINE
  5
13C4
  8
0
 10
50.85666339257596
 20
72.070960918169447
 30
0.0
 11
66.856663392575967
 21
72.070960918169447
 31
0.0
  0
LINE
  5
13C5
  8
0
 10
66.856663392575967
 20
72.070960918169447
 30
0.0
 11
66.106663392575967
 21
70.570960918169433
 31
0.0
  0
LINE
  5
13C6
  8
0
 10
51.606663392575911
 20
70.570960918169433
 30
0.0
 11
50.85666339257596
 21
72.070960918169447
 31
0.0
  0
ARC
  5
13C7
  8
0
 10
77.21099269044069
 20
86.819056611165209
 30
0.0
 40
9.4999999999999982
 50
101.60960780340631
 51
175.0000000000002
  0
LINE
  5
13C8
  8
0
 10
65.856663392575797
 20
102.5709609181694
 30
0.0
 11
51.856663392575911
 21
102.5709609181694
 31
0.0
  0
LINE
  5
13C9
  8
0
 10
75.809854210545723
 20
103.0709609181694
 30
0.0
 11
76.856663392575911
 21
103.0709609181694
 31
0.0
  0
LINE
  5
13CA
  8
0
 10
77.8392704153772
 20
101.88526374871989
 30
0.0
 11
77.280271382235412
 21
97.850248188454074
 31
0.0
  0
ARC
  5
13CB
  8
0
 10
65.856663392575797
 20
101.5709609181694
 30
0.0
 40
1.0
 50
0.0
 51
90.0
  0
ARC
  5
13CC
  8
0
 10
76.856663392575911
 20
102.0709609181694
 30
0.0
 40
1.0
 50
349.29821839888211
 51
90.0
  0
LINE
  5
13CD
  8
0
 10
67.747143058569122
 20
87.647036167267942
 30
0.0
 11
66.856663392575967
 21
72.070960918169447
 31
0.0
  0
LINE
  5
13CE
  8
0
 10
66.856663392575911
 20
101.5709609181694
 30
0.0
 11
66.856663392576166
 21
99.923534933314102
 31
0.0
  0
LINE
  5
13CF
  8
0
 10
50.856663392575911
 20
101.5709609181694
 30
0.0
 11
50.856663392576131
 21
99.923534933314073
 31
0.0
  0
ARC
  5
13D0
  8
0
 10
51.856663392576017
 20
101.5709609181694
 30
0.0
 40
1.0
 50
90.0
 51
180.0
  0
LINE
  5
13D1
  8
0
 10
49.966183726582699
 20
87.647036167267942
 30
0.0
 11
50.85666339257596
 21
72.070960918169447
 31
0.0
  0
LINE
  5
13D2
  8
3
 10
75.755247819005291
 20
101.4166431232302
 30
0.0
 11
75.156835338046676
 21
97.097129977466423
 31
0.0
  0
ARC
  5
13D3
  8
0
 10
58.856663392575911
 20
89.550650569412454
 30
0.0
 40
11.520310348757
 50
69.991304845338377
 51
111.5982762059504
  0
ARC
  5
13D4
  8
0
 10
66.229875550045534
 20
114.0055095345915
 30
0.0
 40
14.095916843915029
 50
259.09627314459681
 51
306.525513119636
  0
ARC
  5
13D5
  8
0
 10
75.809854210545723
 20
101.0709609181694
 30
0.0
 40
2.0
 50
90.0
 51
126.5255131196359
  0
ARC
  5
13D6
  8
0
 10
64.509298150775436
 20
105.0738066373531
 30
0.0
 40
5.0
 50
249.99130484533831
 51
259.09627314459681
  0
ARC
  5
13D7
  8
3
 10
74.764708112693313
 20
101.5538695427686
 30
0.0
 40
1.0
 50
352.11261728171132
 51
124.42823745356139
  0
ARC
  5
13D8
  8
3
 10
42.948618672458508
 20
101.5538695427686
 30
0.0
 40
1.0
 50
55.571762546438542
 51
187.88738271828879
  0
ARC
  5
13D9
  8
0
 10
41.903472574606099
 20
101.0709609181694
 30
0.0
 40
2.0
 50
53.474486880364083
 51
90.0
  0
LINE
  5
13DA
  8
3
 10
41.95807896614653
 20
101.4166431232302
 30
0.0
 11
42.556491447105117
 21
97.097129977466423
 31
0.0
  0
ARC
  5
13DB
  8
0
 10
40.856663392575911
 20
102.0709609181694
 30
0.0
 40
1.0
 50
90.0
 51
190.70178160111789
  0
LINE
  5
13DC
  8
0
 10
39.874056369774621
 20
101.88526374871989
 30
0.0
 11
40.433055402916402
 21
97.850248188454074
 31
0.0
  0
LINE
  5
13DD
  8
0
 10
41.903472574606099
 20
103.0709609181694
 30
0.0
 11
40.856663392575911
 21
103.0709609181694
 31
0.0
  0
ARC
  5
13DE
  8
0
 10
42.414134815540422
 20
98.124701027530847
 30
0.0
 40
2.0
 50
187.88738271828879
 51
270.0
  0
ARC
  5
13DF
  8
0
 10
51.483451235106287
 20
114.0055095345915
 30
0.0
 40
14.095916843915029
 50
233.47448688036411
 51
282.84041952747373
  0
ARC
  5
13E0
  8
0
 10
58.856663392575911
 20
63.469409174384452
 30
0.0
 40
32.601551743785002
 50
85.801238466179257
 51
94.198761533820743
  0
ARC
  5
13E1
  8
0
 10
67.966826465581335
 20
126.36524258939851
 30
0.0
 40
31.116779040249941
 50
257.5220968865537
 51
282.68462930288513
  0
ARC
  5
13E2
  8
0
 10
49.746500319570487
 20
126.36524258939851
 30
0.0
 40
31.116779040249941
 50
256.3706338523474
 51
282.4779031134463
  0
ARC
  5
13E3
  8
3
 10
73.671025778578695
 20
97.302969606773985
 30
0.0
 40
1.5
 50
281.10457138004659
 51
352.11261728171212
  0
ARC
  5
13E4
  8
3
 10
44.042301006573098
 20
97.302969606773985
 30
0.0
 40
1.5
 50
187.88738271828791
 51
258.89542861995182
  0
POLYLINE
  5
13E5
  8
0
 66
     1
 10
0.0
 20
0.0
 30
0.0
  0
VERTEX
  5
13E6
  8
0
 10
57.356663392575939
 20
94.070960918169433
 30
0.0
 42
0.0754446162297572
  0
VERTEX
  5
13E7
  8
0
 10
57.476326605327102
 20
93.282421531007202
 30
0.0
 42
0.0857828071075947
  0
VERTEX
  5
13E8
  8
0
 10
57.796003220796109
 20
92.656747355796355
 30
0.0
 42
0.1060700219635297
 70
     2
 50
306.86989764584291
  0
VERTEX
  5
13E9
  8
0
 10
58.306284422111361
 20
92.212843664359895
 30
0.0
 42
0.126822357247827
 50
306.86989764584291
  0
VERTEX
  5
13EA
  8
0
 10
58.856663392575882
 20
92.070960918169447
 30
0.0
 42
0.1268223572478301
  0
VERTEX
  5
13EB
  8
0
 10
59.407042363040283
 20
92.212843664359838
 30
0.0
 42
0.1060700219635711
  0
VERTEX
  5
13EC
  8
0
 10
59.917323564355662
 20
92.656747355796355
 30
0.0
 42
0.0857828071076326
 70
     2
 50
53.130102354157017
  0
VERTEX
  5
13ED
  8
0
 10
60.237000179824548
 20
93.282421531007074
 30
0.0
 42
0.0754446162298168
 50
53.130102354157017
  0
VERTEX
  5
13EE
  8
0
 10
60.356663392575818
 20
94.070960918169433
 30
0.0
 42
0.0754446162298803
  0
SEQEND
  5
13EF
  8
0
  0
POLYLINE
  5
13F0
  8
0
 66
     1
 10
0.0
 20
0.0
 30
0.0
  0
VERTEX
  5
13F1
  8
0
 10
58.856663392575882
 20
95.070960918169447
 30
0.0
 42
0.0674590399341561
  0
VERTEX
  5
13F2
  8
0
 10
58.259834893671581
 20
94.990069850318974
 30
0.0
 42
0.0798124861750083
  0
VERTEX
  5
13F3
  8
0
 10
57.796003220796109
 20
94.778067699356001
 30
0.0
 42
0.107118111208329
 70
     2
 50
213.69006752598079
  0
VERTEX
  5
13F4
  8
0
 10
57.459204250313043
 20
94.430296278900158
 30
0.0
 42
0.1398891526406003
 50
213.69006752598079
  0
VERTEX
  5
13F5
  8
0
 10
57.356663392575939
 20
94.070960918169433
 30
0.0
 42
0.1398891526407173
  0
SEQEND
  5
13F6
  8
0
  0
POLYLINE
  5
13F7
  8
0
 66
     1
 10
0.0
 20
0.0
 30
0.0
  0
VERTEX
  5
13F8
  8
0
 10
60.356663392575818
 20
94.070960918169433
 30
0.0
 42
0.1398891526406534
  0
VERTEX
  5
13F9
  8
0
 10
60.254122534838672
 20
94.430296278900215
 30
0.0
 42
0.1071181112083306
  0
VERTEX
  5
13FA
  8
0
 10
59.917323564355662
 20
94.778067699356001
 30
0.0
 42
0.0798124861749671
 70
     2
 50
146.30993247401921
  0
VERTEX
  5
13FB
  8
0
 10
59.45349189148029
 20
94.990069850318974
 30
0.0
 42
0.067459039934149
 50
146.30993247401921
  0
VERTEX
  5
13FC
  8
0
 10
58.856663392575882
 20
95.070960918169447
 30
0.0
 42
0.0674590399341561
  0
SEQEND
  5
13FD
  8
0
  0
ARC
  5
13FE
  8
0
 10
130.856663392576
 20
99.570960918169447
 30
0.0
 40
1.0
 50
0.0
 51
48.722875550173583
  0
ARC
  5
13FF
  8
0
 10
127.6382335502209
 20
102.0709609181694
 30
0.0
 40
1.0
 50
52.13585064630216
 51
90.0
  0
ARC
  5
1400
  8
0
 10
138.1720652727831
 20
86.778903979805762
 30
0.0
 40
10.029977678899661
 50
133.7270284930911
 51
175.03462244334489
  0
ARC
  5
1401
  8
0
 10
129.856663392576
 20
95.472260899055755
 30
0.0
 40
2.0
 50
313.72702849309121
 51
0.0
  0
LINE
  5
1402
  8
0
 10
128.88302601099599
 20
95.878322841828208
 30
0.0
 11
131.6420648444782
 21
94.570960918169447
 31
0.0
  0
ARC
  5
1403
  8
0
 10
128.02661321513841
 20
94.070960918169433
 30
0.0
 40
2.0
 50
64.646212605659073
 51
90.0
  0
ARC
  5
1404
  8
3
 10
126.9764852331022
 20
101.5709609181694
 30
0.0
 40
1.5
 50
0.0
 51
90.0
  0
ARC
  5
1405
  8
3
 10
126.9764852331022
 20
97.570960918169447
 30
0.0
 40
1.5
 50
270.0
 51
0.0
  0
ARC
  5
1406
  8
3
 10
112.6098980098329
 20
97.570960918169447
 30
0.0
 40
1.5
 50
180.0
 51
270.0
  0
ARC
  5
1407
  8
0
 10
100.00405932326071
 20
87.601132238764365
 30
0.0
 40
9.5227706074803589
 50
0.2761918417108533
 51
59.424806707579513
  0
ARC
  5
1408
  8
0
 10
112.209614400448
 20
101.0709609181694
 30
0.0
 40
2.0
 50
90.0
 51
147.60911102237921
  0
ARC
  5
1409
  8
0
 10
105.3566633925758
 20
96.660841446835207
 30
0.0
 40
1.0
 50
180.0000000000008
 51
239.42480670757951
  0
ARC
  5
140A
  8
0
 10
108.3680761795702
 20
106.2682393113336
 30
0.0
 40
11.04434421173967
 50
251.41431262598761
 51
292.58613231403342
  0
ARC
  5
140B
  8
0
 10
99.201167883183103
 20
107.757798700021
 30
0.0
 40
12.63594525824732
 50
325.53513182650101
 51
333.61484699680233
  0
LINE
  5
140C
  8
0
 10
105.76465772110831
 20
100.9828370036667
 30
0.0
 11
107.77046631302041
 21
100.0864816288846
 31
0.0
  0
ARC
  5
140D
  8
0
 10
105.3566633925758
 20
100.0698525416493
 30
0.0
 40
1.0
 50
65.921096220258647
 51
180.00000000000159
  0
ARC
  5
140E
  8
0
 10
108.3824578058192
 20
101.4559583219107
 30
0.0
 40
1.5
 50
245.92109622025859
 51
325.53513182650101
  0
LINE
  5
140F
  8
1
 10
124.3566633925759
 20
39.570960918169483
 30
0.0
 11
119.8566633925758
 21
39.570960918169483
 31
0.0
  0
ARC
  5
1410
  8
0
 10
121.1066633925759
 20
39.570960918169483
 30
0.0
 40
1.25
 50
306.86989764583979
 51
53.130102354160208
  0
ARC
  5
1411
  8
0
 10
116.6066633925759
 20
39.570960918169483
 30
0.0
 40
1.25
 50
126.8698976458398
 51
233.13010235416019
  0
LINE
  5
1412
  8
0
 10
115.8566633925759
 20
70.570960918169476
 30
0.0
 11
115.8566633925759
 21
34.570960918169483
 31
0.0
  0
LINE
  5
1413
  8
0
 10
121.8566633925759
 20
70.570960918169476
 30
0.0
 11
121.8566633925759
 21
34.570960918169483
 31
0.0
  0
LINE
  5
1414
  8
1
 10
113.3566633925759
 20
39.570960918169483
 30
0.0
 11
117.8566633925759
 21
39.570960918169483
 31
0.0
  0
LINE
  5
1415
  8
0
 10
116.6066633925759
 20
33.570960918169483
 30
0.0
 11
121.1066633925759
 21
33.570960918169483
 31
0.0
  0
LINE
  5
1416
  8
0
 10
115.8566633925759
 20
34.570960918169483
 30
0.0
 11
121.8566633925759
 21
34.570960918169483
 31
0.0
  0
LINE
  5
1417
  8
0
 10
115.8566633925759
 20
34.570960918169483
 30
0.0
 11
116.6066633925759
 21
33.570960918169483
 31
0.0
  0
LINE
  5
1418
  8
0
 10
121.1066633925759
 20
33.570960918169483
 30
0.0
 11
121.8566633925759
 21
34.570960918169483
 31
0.0
  0
LINE
  5
1419
  8
0
 10
175.85666339257591
 20
70.570960918169476
 30
0.0
 11
175.8566633925758
 21
34.570960918169483
 31
0.0
  0
LINE
  5
141A
  8
0
 10
181.8566633925758
 20
70.570960918169476
 30
0.0
 11
181.8566633925758
 21
34.570960918169483
 31
0.0
  0
LINE
  5
141B
  8
1
 10
175.8566633925758
 20
39.570960918169483
 30
0.0
 11
181.8566633925758
 21
39.570960918169483
 31
0.0
  0
LINE
  5
141C
  8
0
 10
176.6066633925758
 20
33.570960918169483
 30
0.0
 11
181.1066633925758
 21
33.570960918169483
 31
0.0
  0
LINE
  5
141D
  8
0
 10
175.8566633925758
 20
34.570960918169483
 30
0.0
 11
181.8566633925758
 21
34.570960918169533
 31
0.0
  0
LINE
  5
141E
  8
0
 10
175.8566633925758
 20
34.570960918169483
 30
0.0
 11
176.6066633925758
 21
33.570960918169483
 31
0.0
  0
LINE
  5
141F
  8
0
 10
181.1066633925758
 20
33.570960918169483
 30
0.0
 11
181.8566633925758
 21
34.570960918169533
 31
0.0
  0
CIRCLE
  5
1420
  8
0
 10
178.8566633925758
 20
39.570960918169483
 30
0.0
 40
1.0
  0
CIRCLE
  5
1421
  8
0
 10
58.856663392575911
 20
39.570960918169483
 30
0.0
 40
1.0
  0
LINE
  5
1422
  8
0
 10
61.106663392575911
 20
33.570960918169483
 30
0.0
 11
61.856663392575911
 21
34.570960918169533
 31
0.0
  0
LINE
  5
1423
  8
0
 10
55.856663392575911
 20
34.570960918169483
 30
0.0
 11
56.606663392575911
 21
33.570960918169483
 31
0.0
  0
LINE
  5
1424
  8
0
 10
55.856663392575911
 20
34.570960918169483
 30
0.0
 11
61.856663392575911
 21
34.570960918169533
 31
0.0
  0
LINE
  5
1425
  8
0
 10
61.856663392575911
 20
70.570960918169476
 30
0.0
 11
61.856663392575911
 21
34.570960918169483
 31
0.0
  0
LINE
  5
1426
  8
0
 10
55.85666339257596
 20
70.570960918169476
 30
0.0
 11
55.856663392575911
 21
34.570960918169483
 31
0.0
  0
LINE
  5
1427
  8
1
 10
58.856663392575911
 20
167.57096091816939
 30
0.0
 11
58.856663392575911
 21
130.07096091816939
 31
0.0
  0
LINE
  5
1428
  8
1
 10
34.856663392575911
 20
149.5709609181695
 30
0.0
 11
82.856663392575911
 21
149.5709609181695
 31
0.0
  0
CIRCLE
  5
1429
  8
0
 10
58.856663392575911
 20
149.5709609181695
 30
0.0
 40
8.0
  0
ARC
  5
142A
  8
0
 10
58.856663392575911
 20
149.5709609181695
 30
0.0
 40
19.0
 50
151.449853574466
 51
201.5067702799486
  0
ARC
  5
142B
  8
0
 10
58.856663392575861
 20
120.3558914676064
 30
0.0
 40
42.215069450563057
 50
68.202758379395121
 51
111.7972416206033
  0
ARC
  5
142C
  8
3
 10
58.856663392575911
 20
149.5709609181695
 30
0.0
 40
17.0
 50
340.16942969921212
 51
28.658528224486119
  0
ARC
  5
142D
  8
3
 10
58.856663392575861
 20
120.3558914676064
 30
0.0
 40
40.715069450563057
 50
70.124260051981224
 51
109.8757399480188
  0
ARC
  5
142E
  8
0
 10
73.789449063651659
 20
157.69573242890829
 30
0.0
 40
2.0
 50
28.550146425533189
 51
68.202758379395121
  0
ARC
  5
142F
  8
3
 10
72.019066324673076
 20
156.76478806740801
 30
0.0
 40
2.0
 50
28.658528224486119
 51
70.124260051981224
  0
ARC
  5
1430
  8
3
 10
45.694260460478802
 20
156.76478806740801
 30
0.0
 40
2.0
 50
109.8757399480188
 51
151.34147177551381
  0
ARC
  5
1431
  8
0
 10
43.923877721500162
 20
157.6957324289084
 30
0.0
 40
2.0
 50
111.797241620603
 51
151.449853574466
  0
CIRCLE
  5
1432
  8
0
 10
58.856663392575911
 20
138.0709609181695
 30
0.0
 40
1.5
  0
ARC
  5
1433
  8
0
 10
58.856663392575911
 20
140.05155282496381
 30
0.0
 40
4.9805919067943227
 50
241.36321106602421
 51
298.63678752875268
  0
LINE
  5
1434
  8
0
 10
56.469687320116122
 20
135.68020967079141
 30
0.0
 11
49.356663392575911
 21
139.81863535603651
 31
0.0
  0
LINE
  5
1435
  8
0
 10
49.356663392575911
 20
139.81863535603651
 30
0.0
 11
42.58791762403677
 21
141.3904054972115
 31
0.0
  0
ARC
  5
1436
  8
0
 10
58.856663392575911
 20
149.5709609181695
 30
0.0
 40
19.0
 50
338.49322972005137
 51
28.550146425533189
  0
ARC
  5
1437
  8
0
 10
43.040301068554072
 20
143.3385711008311
 30
0.0
 40
2.0
 50
201.5067702799486
 51
256.92703439030407
  0
ARC
  5
1438
  8
0
 10
74.673025716597749
 20
143.3385711008311
 30
0.0
 40
2.0
 50
283.07296560969593
 51
338.49322972005137
  0
LINE
  5
1439
  8
0
 10
68.356663392575911
 20
139.81863535603651
 30
0.0
 11
75.125409161115044
 21
141.3904054972115
 31
0.0
  0
LINE
  5
143A
  8
0
 10
61.243639465035699
 20
135.68020967079141
 30
0.0
 11
68.356663392575911
 21
139.81863535603651
 31
0.0
  0
LINE
  5
143B
  8
3
 10
67.797467118957229
 20
141.2286945719857
 30
0.0
 11
73.419545346208395
 21
142.5341970965473
 31
0.0
  0
LINE
  5
143C
  8
3
 10
60.489307399446879
 20
136.97673700749689
 30
0.0
 11
67.797467118957229
 21
141.2286945719857
 31
0.0
  0
ARC
  5
143D
  8
3
 10
58.856663392575911
 20
140.05155282496381
 30
0.0
 40
3.4805919067943232
 50
241.36321106602421
 51
298.63678752875268
  0
LINE
  5
143E
  8
3
 10
57.224019385704928
 20
136.97673700749689
 30
0.0
 11
49.915859666194649
 21
141.2286945719857
 31
0.0
  0
LINE
  5
143F
  8
3
 10
49.915859666194649
 20
141.2286945719857
 30
0.0
 11
44.293781438943419
 21
142.5341970965473
 31
0.0
  0
ARC
  5
1440
  8
3
 10
72.9671619016911
 20
144.4823627001669
 30
0.0
 40
2.0
 50
283.07296560969593
 51
340.16942969921212
  0
ARC
  5
1441
  8
3
 10
58.856663392575911
 20
149.5709609181695
 30
0.0
 40
17.0
 50
151.34147177551381
 51
199.83057030078791
  0
ARC
  5
1442
  8
3
 10
44.746164883460722
 20
144.4823627001669
 30
0.0
 40
2.0
 50
199.83057030078791
 51
256.92703439030407
  0
LINE
  5
1443
  8
1
 10
118.8566633925759
 20
107.0709609181694
 30
0.0
 11
118.8566633925759
 21
28.570960918169479
 31
0.0
  0
LINE
  5
1444
  8
1
 10
178.8566633925758
 20
105.0709609181694
 30
0.0
 11
178.8566633925758
 21
28.570960918169479
 31
0.0
  0
LINE
  5
1445
  8
1
 10
58.856663392575911
 20
105.0709609181694
 30
0.0
 11
58.856663392575904
 21
28.570960918169479
 31
0.0
  0
LINE
  5
1446
  8
0
 10
56.606663392575911
 20
33.570960918169483
 30
0.0
 11
61.106663392575911
 21
33.570960918169483
 31
0.0
  0
LINE
  5
1447
  8
1
 10
55.856663392575911
 20
39.570960918169483
 30
0.0
 11
61.856663392575911
 21
39.570960918169483
 31
0.0
  0
TEXT
  5
1508
  8
0
 62
     3
 10
0.0
 20
0.0
 30
0.0
 40
10.0
  1
BLP06030-SUS
  7
STANDARD1
  0
ENDSEC
  0
EOF
