  0
SECTION
  2
HEADER
  9
$ACADVER
  1
AC1009
  9
$INSBASE
 10
0.0
 20
0.0
 30
0.0
  9
$EXTMIN
 10
0.0
 20
-2.960436562073669
 30
0.0
  9
$EXTMAX
 10
196.2001933680659
 20
166.75079782804141
 30
0.0
  9
$LIMMIN
 10
0.0
 20
0.0
  9
$LIMMAX
 10
187.5
 20
135.0
  9
$ORTHOMODE
 70
     0
  9
$REGENMODE
 70
     1
  9
$FILLMODE
 70
     1
  9
$QTEXTMODE
 70
     0
  9
$MIRRTEXT
 70
     0
  9
$DRAGMODE
 70
     2
  9
$LTSCALE
 40
5.0
  9
$OSMODE
 70
  3071
  9
$ATTMODE
 70
     1
  9
$TEXTSIZE
 40
4.0
  9
$TRACEWID
 40
0.05
  9
$TEXTSTYLE
  7
STANDARD
  9
$CLAYER
  8
0
  9
$CELTYPE
  6
BYLAYER
  9
$CECOLOR
 62
   256
  9
$DIMSCALE
 40
0.5
  9
$DIMASZ
 40
3.0
  9
$DIMEXO
 40
2.0
  9
$DIMDLI
 40
0.38
  9
$DIMRND
 40
0.0
  9
$DIMDLE
 40
0.0
  9
$DIMEXE
 40
2.0
  9
$DIMTP
 40
0.0
  9
$DIMTM
 40
0.0
  9
$DIMTXT
 40
3.0
  9
$DIMCEN
 40
0.0
  9
$DIMTSZ
 40
0.0
  9
$DIMTOL
 70
     0
  9
$DIMLIM
 70
     0
  9
$DIMTIH
 70
     0
  9
$DIMTOH
 70
     0
  9
$DIMSE1
 70
     0
  9
$DIMSE2
 70
     0
  9
$DIMTAD
 70
     1
  9
$DIMZIN
 70
     0
  9
$DIMBLK
  1

  9
$DIMASO
 70
     0
  9
$DIMSHO
 70
     0
  9
$DIMPOST
  1

  9
$DIMAPOST
  1

  9
$DIMALT
 70
     0
  9
$DIMALTD
 70
     2
  9
$DIMALTF
 40
25.399999999999999
  9
$DIMLFAC
 40
1.0
  9
$DIMTOFL
 70
     0
  9
$DIMTVP
 40
1.6000000000000001
  9
$DIMTIX
 70
     1
  9
$DIMSOXD
 70
     0
  9
$DIMSAH
 70
     0
  9
$DIMBLK1
  1

  9
$DIMBLK2
  1

  9
$DIMSTYLE
  2
STANDARD
  9
$DIMCLRD
 70
     0
  9
$DIMCLRE
 70
     0
  9
$DIMCLRT
 70
     0
  9
$DIMTFAC
 40
1.0
  9
$DIMGAP
 40
0.09
  9
$LUNITS
 70
     2
  9
$LUPREC
 70
     4
  9
$SKETCHINC
 40
0.1
  9
$FILLETRAD
 40
1.0
  9
$AUNITS
 70
     0
  9
$AUPREC
 70
     0
  9
$MENU
  1
E:\r13\win\SUPPORT\ACAD
  9
$ELEVATION
 40
0.0
  9
$PELEVATION
 40
0.0
  9
$THICKNESS
 40
0.0
  9
$LIMCHECK
 70
     0
  9
$BLIPMODE
 70
     0
  9
$CHAMFERA
 40
0.0
  9
$CHAMFERB
 40
0.0
  9
$SKPOLY
 70
     0
  9
$TDCREATE
 40
2449840.6143865739
  9
$TDUPDATE
 40
2456598.4627857059
  9
$TDINDWG
 40
0.2487555787
  9
$TDUSRTIMER
 40
0.2487555787
  9
$USRTIMER
 70
     1
  9
$ANGBASE
 50
0.0
  9
$ANGDIR
 70
     0
  9
$PDMODE
 70
     0
  9
$PDSIZE
 40
0.0
  9
$PLINEWID
 40
0.0
  9
$COORDS
 70
     1
  9
$SPLFRAME
 70
     0
  9
$SPLINETYPE
 70
     6
  9
$SPLINESEGS
 70
     8
  9
$ATTDIA
 70
     0
  9
$ATTREQ
 70
     1
  9
$HANDLING
 70
     1
  9
$HANDSEED
  5
1650
  9
$SURFTAB1
 70
     6
  9
$SURFTAB2
 70
     6
  9
$SURFTYPE
 70
     6
  9
$SURFU
 70
     6
  9
$SURFV
 70
     6
  9
$UCSNAME
  2

  9
$UCSORG
 10
0.0
 20
0.0
 30
0.0
  9
$UCSXDIR
 10
1.0
 20
0.0
 30
0.0
  9
$UCSYDIR
 10
0.0
 20
1.0
 30
0.0
  9
$PUCSNAME
  2

  9
$PUCSORG
 10
0.0
 20
0.0
 30
0.0
  9
$PUCSXDIR
 10
1.0
 20
0.0
 30
0.0
  9
$PUCSYDIR
 10
0.0
 20
1.0
 30
0.0
  9
$USERI1
 70
     0
  9
$USERI2
 70
     1
  9
$USERI3
 70
     1
  9
$USERI4
 70
     0
  9
$USERI5
 70
     0
  9
$USERR1
 40
0.0
  9
$USERR2
 40
0.0
  9
$USERR3
 40
0.0
  9
$USERR4
 40
0.0
  9
$USERR5
 40
0.0
  9
$WORLDVIEW
 70
     1
  9
$SHADEDGE
 70
     3
  9
$SHADEDIF
 70
    70
  9
$TILEMODE
 70
     1
  9
$MAXACTVP
 70
    16
  9
$PLIMCHECK
 70
     0
  9
$PEXTMIN
 10
1.0000000000000000E+020
 20
1.0000000000000000E+020
 30
1.0000000000000000E+020
  9
$PEXTMAX
 10
-1.0000000000000000E+020
 20
-1.0000000000000000E+020
 30
-1.0000000000000000E+020
  9
$PLIMMIN
 10
0.0
 20
0.0
  9
$PLIMMAX
 10
12.0
 20
9.0
  9
$UNITMODE
 70
     0
  9
$VISRETAIN
 70
     0
  9
$PLINEGEN
 70
     0
  9
$PSLTSCALE
 70
     0
  0
ENDSEC
  0
SECTION
  2
TABLES
  0
TABLE
  2
VPORT
 70
     1
  0
VPORT
  2
*ACTIVE
 70
     0
 10
0.0
 20
0.0
 11
1.0
 21
1.0
 12
102.8116961747764
 22
81.893277417381299
 13
0.0
 23
0.0
 14
5.0
 24
5.0
 15
5.0
 25
5.0
 16
0.0
 26
0.0
 36
1.0
 17
0.0
 27
0.0
 37
0.0
 40
171.2474185346901
 41
1.831871345029239
 42
50.0
 43
0.0
 44
0.0
 50
0.0
 51
0.0
 71
     0
 72
   100
 73
     1
 74
     0
 75
     0
 76
     0
 77
     0
 78
     0
  0
ENDTAB
  0
TABLE
  2
LTYPE
 70
     3
  0
LTYPE
  2
CONTINUOUS
 70
     0
  3
Solid Line
 72
    65
 73
     0
 40
0.0
  0
LTYPE
  2
CENTER
 70
     0
  3
____ _ ____ _ ____ _ ____ _ ____ _ ____ _ ____
 72
    65
 73
     4
 40
2.0
 49
1.25
 49
-0.25
 49
0.25
 49
-0.25
  0
LTYPE
  2
PHANTOM2
 70
     0
  3
___ _ _ ___ _ _ ___ _ _ ___ _ _
 72
    65
 73
     6
 40
1.25
 49
0.625
 49
-0.125
 49
0.125
 49
-0.125
 49
0.125
 49
-0.125
  0
ENDTAB
  0
TABLE
  2
LAYER
 70
     3
  0
LAYER
  2
0
 70
     0
 62
     7
  6
CONTINUOUS
  0
LAYER
  2
1
 70
     0
 62
     1
  6
CENTER
  0
LAYER
  2
3
 70
     0
 62
     3
  6
CONTINUOUS
  0
ENDTAB
  0
TABLE
  2
STYLE
 70
     2
  0
STYLE
  2
STANDARD
 70
     0
 40
0.0
 41
1.0
 50
0.0
 71
     0
 42
4.0
  3
TXT
  4
BIGFONT
  0
STYLE
  2
STANDARD1
 70
     0
 40
0.0
 41
1.0
 50
0.0
 71
     0
 42
3.0
  3
txt
  4

  0
ENDTAB
  0
TABLE
  2
VIEW
 70
     1
  0
VIEW
  2
ALL
 70
     0
 40
179.66152299999999
 10
141.903918
 20
89.830760999999995
 41
0.0
 11
0.0
 21
0.0
 31
1.0
 12
0.0
 22
0.0
 32
0.0
 42
0.0
 43
0.0
 44
0.0
 50
0.0
 71
     0
  0
ENDTAB
  0
TABLE
  2
UCS
 70
     0
  0
ENDTAB
  0
TABLE
  2
APPID
 70
     4
  0
APPID
  2
ACAD
 70
     0
  0
APPID
  2
DCO15
 70
     0
  0
APPID
  2
ACAD_MLEADERVER
 70
     0
  0
APPID
  2
ACAD_NAV_VCDISPLAY
 70
     0
  0
ENDTAB
  0
TABLE
  2
DIMSTYLE
 70
     1
  0
DIMSTYLE
  2
STANDARD
 70
     0
  3

  4

  5

  6

  7

 40
1.0
 41
0.18
 42
0.0625
 43
0.38
 44
0.18
 45
0.0
 46
0.0
 47
0.0
 48
0.0
140
0.18
141
0.09
142
0.0
143
25.399999999999999
144
1.0
145
0.0
146
1.0
147
0.09
 71
     0
 72
     0
 73
     1
 74
     1
 75
     0
 76
     0
 77
     0
 78
     0
170
     0
171
     2
172
     0
173
     0
174
     0
175
     0
176
     0
177
     0
178
     0
  0
ENDTAB
  0
ENDSEC
  0
SECTION
  2
BLOCKS
  0
BLOCK
  8
0
  2
$MODEL_SPACE
 70
     0
 10
0.0
 20
0.0
 30
0.0
  3
$MODEL_SPACE
  1

  0
ENDBLK
  5
1BD
  8
0
  0
BLOCK
 67
     1
  8
0
  2
$PAPER_SPACE
 70
     0
 10
0.0
 20
0.0
 30
0.0
  3
$PAPER_SPACE
  1

  0
ENDBLK
  5
1BB
 67
     1
  8
0
  0
ENDSEC
  0
SECTION
  2
ENTITIES
  0
ARC
  5
1456
  8
0
 10
106.7433807585081
 20
99.635795231782822
 30
0.0
 40
1.5
 50
245.92109622025859
 51
325.53513182650101
  0
ARC
  5
1457
  8
0
 10
103.71758634526461
 20
98.249689451521306
 30
0.0
 40
1.0
 50
65.921096220258647
 51
180.00000000000159
  0
LINE
  5
1458
  8
0
 10
104.1255806737971
 20
99.162673913538754
 30
0.0
 11
106.1313892657093
 21
98.266318538756622
 31
0.0
  0
ARC
  5
1459
  8
0
 10
97.562090835871942
 20
105.93763560989299
 30
0.0
 40
12.63594525824732
 50
325.53513182650101
 51
333.61484699680233
  0
ARC
  5
145A
  8
0
 10
106.7289991322591
 20
104.4480762212057
 30
0.0
 40
11.04434421173967
 50
251.41431262598761
 51
292.58613231403342
  0
ARC
  5
145B
  8
0
 10
103.71758634526471
 20
94.84067835670723
 30
0.0
 40
1.0
 50
180.0000000000008
 51
239.42480670757951
  0
ARC
  5
145C
  8
0
 10
110.5705373531368
 20
99.25079782804147
 30
0.0
 40
2.0
 50
90.0
 51
147.60911102237921
  0
ARC
  5
145D
  8
0
 10
98.364982275949558
 20
85.780969148636416
 30
0.0
 40
9.5227706074803589
 50
0.2761918417108533
 51
59.424806707579513
  0
ARC
  5
145E
  8
3
 10
110.9708209625217
 20
95.75079782804147
 30
0.0
 40
1.5
 50
180.0
 51
270.0
  0
ARC
  5
145F
  8
3
 10
125.33740818579111
 20
95.75079782804147
 30
0.0
 40
1.5
 50
270.0
 51
0.0
  0
ARC
  5
1460
  8
3
 10
125.33740818579111
 20
99.75079782804147
 30
0.0
 40
1.5
 50
0.0
 51
90.0
  0
ARC
  5
1461
  8
0
 10
126.38753616782719
 20
92.25079782804147
 30
0.0
 40
2.0
 50
64.646212605659073
 51
90.0
  0
LINE
  5
1462
  8
0
 10
127.2439489636848
 20
94.058159751700217
 30
0.0
 11
130.00298779716701
 21
92.750797828041456
 31
0.0
  0
ARC
  5
1463
  8
0
 10
128.21758634526481
 20
93.652097808927778
 30
0.0
 40
2.0
 50
313.72702849309121
 51
0.0
  0
ARC
  5
1464
  8
0
 10
136.532988225472
 20
84.958740889677784
 30
0.0
 40
10.029977678899661
 50
133.7270284930911
 51
175.03462244334489
  0
ARC
  5
1465
  8
0
 10
125.9991565029098
 20
100.2507978280414
 30
0.0
 40
1.0
 50
52.13585064630216
 51
90.0
  0
ARC
  5
1466
  8
0
 10
129.21758634526481
 20
97.750797828041485
 30
0.0
 40
1.0
 50
0.0
 51
48.722875550173583
  0
POLYLINE
  5
1467
  8
0
 66
     1
 10
0.0
 20
0.0
 30
0.0
  0
VERTEX
  5
1468
  8
0
 10
58.717586345264657
 20
92.25079782804147
 30
0.0
 42
0.1398891526406534
  0
VERTEX
  5
1469
  8
0
 10
58.61504548752751
 20
92.610133188772224
 30
0.0
 42
0.1071181112083306
  0
VERTEX
  5
146A
  8
0
 10
58.278246517044501
 20
92.957904609228024
 30
0.0
 42
0.0798124861749671
 70
     2
 50
146.30993247401921
  0
VERTEX
  5
146B
  8
0
 10
57.814414844169129
 20
93.169906760190997
 30
0.0
 42
0.067459039934149
 50
146.30993247401921
  0
VERTEX
  5
146C
  8
0
 10
57.217586345264721
 20
93.25079782804147
 30
0.0
 42
0.0674590399341561
  0
SEQEND
  5
146D
  8
0
  0
POLYLINE
  5
146E
  8
0
 66
     1
 10
0.0
 20
0.0
 30
0.0
  0
VERTEX
  5
146F
  8
0
 10
57.217586345264721
 20
93.25079782804147
 30
0.0
 42
0.0674590399341561
  0
VERTEX
  5
1470
  8
0
 10
56.620757846360419
 20
93.169906760190997
 30
0.0
 42
0.0798124861750083
  0
VERTEX
  5
1471
  8
0
 10
56.156926173484948
 20
92.957904609228024
 30
0.0
 42
0.107118111208329
 70
     2
 50
213.69006752598079
  0
VERTEX
  5
1472
  8
0
 10
55.820127203001881
 20
92.610133188772181
 30
0.0
 42
0.1398891526406003
 50
213.69006752598079
  0
VERTEX
  5
1473
  8
0
 10
55.717586345264777
 20
92.25079782804147
 30
0.0
 42
0.1398891526407173
  0
SEQEND
  5
1474
  8
0
  0
POLYLINE
  5
1475
  8
0
 66
     1
 10
0.0
 20
0.0
 30
0.0
  0
VERTEX
  5
1476
  8
0
 10
55.717586345264777
 20
92.25079782804147
 30
0.0
 42
0.0754446162297572
  0
VERTEX
  5
1477
  8
0
 10
55.837249558015941
 20
91.462258440879225
 30
0.0
 42
0.0857828071075947
  0
VERTEX
  5
1478
  8
0
 10
56.156926173484948
 20
90.836584265668364
 30
0.0
 42
0.1060700219635297
 70
     2
 50
306.86989764584291
  0
VERTEX
  5
1479
  8
0
 10
56.667207374800192
 20
90.392680574231903
 30
0.0
 42
0.126822357247827
 50
306.86989764584291
  0
VERTEX
  5
147A
  8
0
 10
57.217586345264721
 20
90.250797828041456
 30
0.0
 42
0.1268223572478301
  0
VERTEX
  5
147B
  8
0
 10
57.767965315729121
 20
90.392680574231861
 30
0.0
 42
0.1060700219635711
  0
VERTEX
  5
147C
  8
0
 10
58.278246517044501
 20
90.836584265668364
 30
0.0
 42
0.0857828071076326
 70
     2
 50
53.130102354157017
  0
VERTEX
  5
147D
  8
0
 10
58.597923132513387
 20
91.462258440879111
 30
0.0
 42
0.0754446162298185
 50
53.130102354157017
  0
VERTEX
  5
147E
  8
0
 10
58.717586345264657
 20
92.25079782804147
 30
0.0
 42
0.0754446162298803
  0
SEQEND
  5
147F
  8
0
  0
ARC
  5
1480
  8
3
 10
42.403223959261929
 20
95.482806516646008
 30
0.0
 40
1.5
 50
187.88738271828791
 51
258.89542861995182
  0
ARC
  5
1481
  8
3
 10
72.031948731267534
 20
95.482806516646008
 30
0.0
 40
1.5
 50
281.10457138004659
 51
352.11261728171212
  0
ARC
  5
1482
  8
0
 10
48.107423272259318
 20
124.5450794992706
 30
0.0
 40
31.116779040249941
 50
256.3706338523474
 51
282.4779031134463
  0
ARC
  5
1483
  8
0
 10
66.327749418270173
 20
124.5450794992706
 30
0.0
 40
31.116779040249941
 50
257.5220968865537
 51
282.68462930288513
  0
ARC
  5
1484
  8
0
 10
57.217586345264749
 20
61.649246084256468
 30
0.0
 40
32.601551743785002
 50
85.801238466179257
 51
94.198761533820743
  0
ARC
  5
1485
  8
0
 10
49.844374187795133
 20
112.1853464444636
 30
0.0
 40
14.095916843915029
 50
233.47448688036411
 51
282.84041952747373
  0
ARC
  5
1486
  8
0
 10
40.77505776822926
 20
96.304537937402856
 30
0.0
 40
2.0
 50
187.88738271828879
 51
270.0
  0
LINE
  5
1487
  8
0
 10
40.264395527294937
 20
101.2507978280414
 30
0.0
 11
39.217586345264749
 21
101.2507978280414
 31
0.0
  0
LINE
  5
1488
  8
0
 10
38.23497932246346
 20
100.0651006585919
 30
0.0
 11
38.793978355605248
 21
96.030085098326083
 31
0.0
  0
ARC
  5
1489
  8
0
 10
39.217586345264749
 20
100.2507978280414
 30
0.0
 40
1.0
 50
90.0
 51
190.70178160111789
  0
LINE
  5
148A
  8
3
 10
40.319001918835362
 20
99.596480033102281
 30
0.0
 11
40.917414399793948
 21
95.276966887338432
 31
0.0
  0
ARC
  5
148B
  8
0
 10
40.264395527294937
 20
99.25079782804147
 30
0.0
 40
2.0
 50
53.474486880364083
 51
90.0
  0
ARC
  5
148C
  8
3
 10
41.309541625147347
 20
99.733706452640675
 30
0.0
 40
1.0
 50
55.571762546438542
 51
187.88738271828879
  0
ARC
  5
148D
  8
3
 10
73.125631065382152
 20
99.733706452640675
 30
0.0
 40
1.0
 50
352.11261728171132
 51
124.42823745356139
  0
ARC
  5
148E
  8
0
 10
62.870221103464267
 20
103.2536435472251
 30
0.0
 40
5.0
 50
249.99130484533831
 51
259.09627314459681
  0
ARC
  5
148F
  8
0
 10
74.170777163234561
 20
99.25079782804147
 30
0.0
 40
2.0
 50
90.0
 51
126.5255131196359
  0
ARC
  5
1490
  8
0
 10
64.590798502734373
 20
112.1853464444636
 30
0.0
 40
14.095916843915029
 50
259.09627314459681
 51
306.525513119636
  0
ARC
  5
1491
  8
0
 10
57.217586345264749
 20
87.730487479284477
 30
0.0
 40
11.520310348757
 50
69.991304845338377
 51
111.5982762059504
  0
LINE
  5
1492
  8
3
 10
74.116170771694129
 20
99.596480033102281
 30
0.0
 11
73.517758290735514
 21
95.276966887338432
 31
0.0
  0
LINE
  5
1493
  8
0
 10
48.327106679271537
 20
85.826873077139965
 30
0.0
 11
49.217586345264799
 21
70.25079782804147
 31
0.0
  0
ARC
  5
1494
  8
0
 10
50.217586345264863
 20
99.75079782804147
 30
0.0
 40
1.0
 50
90.0
 51
180.0
  0
LINE
  5
1495
  8
0
 10
49.217586345264749
 20
99.75079782804147
 30
0.0
 11
49.217586345264969
 21
98.103371843186125
 31
0.0
  0
LINE
  5
1496
  8
0
 10
65.217586345264749
 20
99.75079782804147
 30
0.0
 11
65.217586345265005
 21
98.103371843186125
 31
0.0
  0
LINE
  5
1497
  8
0
 10
66.108066011257961
 20
85.826873077139965
 30
0.0
 11
65.217586345264806
 21
70.25079782804147
 31
0.0
  0
ARC
  5
1498
  8
0
 10
75.217586345264749
 20
100.2507978280414
 30
0.0
 40
1.0
 50
349.29821839888211
 51
90.0
  0
ARC
  5
1499
  8
0
 10
64.217586345264635
 20
99.75079782804147
 30
0.0
 40
1.0
 50
0.0
 51
90.0
  0
LINE
  5
149A
  8
0
 10
76.200193368066039
 20
100.0651006585919
 30
0.0
 11
75.641194334924251
 21
96.030085098326083
 31
0.0
  0
LINE
  5
149B
  8
0
 10
74.170777163234561
 20
101.2507978280414
 30
0.0
 11
75.217586345264749
 21
101.2507978280414
 31
0.0
  0
LINE
  5
149C
  8
0
 10
64.217586345264635
 20
100.7507978280415
 30
0.0
 11
50.217586345264749
 21
100.7507978280415
 31
0.0
  0
LINE
  5
149D
  8
1
 10
57.217586345264749
 20
105.7507978280414
 30
0.0
 11
57.217586345264749
 21
35.75079782804147
 31
0.0
  0
ARC
  5
149E
  8
0
 10
75.571915643129529
 20
84.998893521037246
 30
0.0
 40
9.4999999999999982
 50
101.60960780340631
 51
175.0000000000002
  0
LINE
  5
149F
  8
0
 10
61.217586345264799
 20
42.250797828041691
 30
0.0
 11
61.217586345264692
 21
68.75079782804147
 31
0.0
  0
LINE
  5
14A0
  8
0
 10
53.217586345264742
 20
42.250797828041691
 30
0.0
 11
53.217586345264742
 21
68.75079782804147
 31
0.0
  0
CIRCLE
  5
14A1
  8
0
 10
57.217586345264799
 20
47.250797828041463
 30
0.0
 40
1.5
  0
LINE
  5
14A2
  8
1
 10
60.717586345264813
 20
47.250797828041463
 30
0.0
 11
53.717586345264799
 21
47.250797828041463
 31
0.0
  0
LINE
  5
14A3
  8
0
 10
49.967586345264749
 20
68.75079782804147
 30
0.0
 11
49.217586345264799
 21
70.25079782804147
 31
0.0
  0
LINE
  5
14A4
  8
0
 10
65.217586345264806
 20
70.25079782804147
 30
0.0
 11
64.467586345264806
 21
68.75079782804147
 31
0.0
  0
LINE
  5
14A5
  8
0
 10
49.217586345264799
 20
70.25079782804147
 30
0.0
 11
65.217586345264806
 21
70.25079782804147
 31
0.0
  0
LINE
  5
14A6
  8
0
 10
49.967586345264749
 20
68.75079782804147
 30
0.0
 11
64.467586345264806
 21
68.75079782804147
 31
0.0
  0
LINE
  5
14A7
  8
0
 10
53.967586345264749
 20
40.75079782804147
 30
0.0
 11
60.467586345264749
 21
40.75079782804152
 31
0.0
  0
LINE
  5
14A8
  8
0
 10
53.217586345264742
 20
42.250797828041463
 30
0.0
 11
61.217586345264692
 21
42.250797828041527
 31
0.0
  0
LINE
  5
14A9
  8
0
 10
61.217586345264692
 20
42.250797828041527
 30
0.0
 11
60.467586345264749
 21
40.75079782804152
 31
0.0
  0
LINE
  5
14AA
  8
0
 10
53.967586345264749
 20
40.75079782804147
 30
0.0
 11
53.217586345264742
 21
42.250797828041463
 31
0.0
  0
ARC
  5
14AB
  8
0
 10
73.660114922300238
 20
96.304537937402856
 30
0.0
 40
2.0
 50
269.99999999999841
 51
352.11261728171132
  0
ARC
  5
14AC
  8
0
 10
38.863257047399941
 20
84.998893521037246
 30
0.0
 40
9.4999999999999982
 50
4.9999999999997433
 51
78.390392196593609
  0
ARC
  5
14AD
  8
0
 10
158.86325704739991
 20
84.998893521037246
 30
0.0
 40
9.4999999999999982
 50
4.9999999999997433
 51
78.390392196593609
  0
ARC
  5
14AE
  8
3
 10
161.26066014845139
 20
100.08654698971191
 30
0.0
 40
1.0
 50
65.849694937207417
 51
187.8873827182895
  0
LINE
  5
14AF
  8
3
 10
160.2701204421395
 20
99.949320570173484
 30
0.0
 11
160.86153778285529
 21
95.680300355617817
 31
0.0
  0
ARC
  5
14B0
  8
0
 10
159.21758634526469
 20
100.2507978280414
 30
0.0
 40
1.0
 50
90.0
 51
190.70178160111789
  0
LINE
  5
14B1
  8
0
 10
158.2349793224634
 20
100.0651006585919
 30
0.0
 11
158.79397835560519
 21
96.030085098326083
 31
0.0
  0
LINE
  5
14B2
  8
0
 10
160.73510810680301
 20
101.2507978280414
 30
0.0
 11
159.21758634526469
 21
101.2507978280414
 31
0.0
  0
ARC
  5
14B3
  8
0
 10
160.73510810680301
 20
100.2507978280414
 30
0.0
 40
1.0
 50
66.02300889238235
 51
90.0
  0
ARC
  5
14B4
  8
0
 10
162.730485072997
 20
73.836265393511056
 30
0.0
 40
20.553203033069028
 50
75.957385004063397
 51
94.973953382937154
  0
ARC
  5
14B5
  8
0
 10
160.7750577682292
 20
96.304537937402856
 30
0.0
 40
2.0
 50
187.88738271828879
 51
274.97395338293722
  0
ARC
  5
14B6
  8
3
 10
162.34734734232339
 20
95.886139984925379
 30
0.0
 40
1.5
 50
187.88738271828879
 51
270.99546897434777
  0
ARC
  5
14B7
  8
3
 10
192.087825348206
 20
95.886139984925379
 30
0.0
 40
1.5
 50
269.00453102565223
 51
352.11261728171132
  0
ARC
  5
14B8
  8
0
 10
193.6601149223001
 20
96.304537937402856
 30
0.0
 40
2.0
 50
265.02604661706289
 51
352.11261728171132
  0
ARC
  5
14B9
  8
0
 10
191.7046876175323
 20
73.836265393511056
 30
0.0
 40
20.553203033069028
 50
85.026046617062846
 51
104.0426149959366
  0
ARC
  5
14BA
  8
0
 10
177.21758634526469
 20
137.31109623966421
 30
0.0
 40
44.560298411622817
 50
257.69038975889589
 51
282.30961024110411
  0
ARC
  5
14BB
  8
0
 10
193.70006458372629
 20
100.2507978280414
 30
0.0
 40
1.0
 50
90.0
 51
113.97699110761759
  0
ARC
  5
14BC
  8
0
 10
177.21758634526469
 20
137.31109623966421
 30
0.0
 40
39.560298411622817
 50
246.02300889238231
 51
293.97699110761761
  0
LINE
  5
14BD
  8
0
 10
173.96758634526469
 20
40.75079782804147
 30
0.0
 11
173.21758634526469
 21
42.250797828041463
 31
0.0
  0
LINE
  5
14BE
  8
0
 10
181.21758634526461
 20
42.250797828041527
 30
0.0
 11
180.46758634526469
 21
40.75079782804152
 31
0.0
  0
LINE
  5
14BF
  8
0
 10
173.21758634526469
 20
42.250797828041463
 30
0.0
 11
181.21758634526461
 21
42.250797828041527
 31
0.0
  0
LINE
  5
14C0
  8
0
 10
173.96758634526469
 20
40.75079782804147
 30
0.0
 11
180.46758634526469
 21
40.75079782804152
 31
0.0
  0
LINE
  5
14C1
  8
0
 10
113.96758634526471
 20
40.75079782804147
 30
0.0
 11
120.46758634526471
 21
40.75079782804147
 31
0.0
  0
LINE
  5
14C2
  8
0
 10
113.21758634526471
 20
42.250797828041463
 30
0.0
 11
121.21758634526471
 21
42.250797828041463
 31
0.0
  0
LINE
  5
14C3
  8
0
 10
121.21758634526471
 20
42.250797828041463
 30
0.0
 11
120.46758634526471
 21
40.75079782804147
 31
0.0
  0
LINE
  5
14C4
  8
0
 10
113.96758634526471
 20
40.75079782804147
 30
0.0
 11
113.21758634526471
 21
42.250797828041463
 31
0.0
  0
LINE
  5
14C5
  8
0
 10
109.96758634526471
 20
68.75079782804147
 30
0.0
 11
109.21758634526481
 21
70.25079782804147
 31
0.0
  0
LINE
  5
14C6
  8
0
 10
125.21758634526481
 20
70.25079782804147
 30
0.0
 11
124.46758634526481
 21
68.75079782804147
 31
0.0
  0
LINE
  5
14C7
  8
0
 10
109.21758634526481
 20
70.25079782804147
 30
0.0
 11
125.21758634526481
 21
70.25079782804147
 31
0.0
  0
LINE
  5
14C8
  8
0
 10
109.96758634526471
 20
68.75079782804147
 30
0.0
 11
124.46758634526481
 21
68.75079782804147
 31
0.0
  0
LINE
  5
14C9
  8
0
 10
169.96758634526469
 20
68.75079782804147
 30
0.0
 11
184.46758634526469
 21
68.75079782804147
 31
0.0
  0
LINE
  5
14CA
  8
0
 10
169.21758634526469
 20
70.25079782804147
 30
0.0
 11
185.21758634526469
 21
70.25079782804147
 31
0.0
  0
LINE
  5
14CB
  8
0
 10
185.21758634526469
 20
70.25079782804147
 30
0.0
 11
184.46758634526469
 21
68.75079782804147
 31
0.0
  0
LINE
  5
14CC
  8
0
 10
169.96758634526469
 20
68.75079782804147
 30
0.0
 11
169.21758634526469
 21
70.25079782804147
 31
0.0
  0
LINE
  5
14CD
  8
1
 10
119.21758634526471
 20
47.250797828041463
 30
0.0
 11
123.96758634526471
 21
47.250797828041463
 31
0.0
  0
ARC
  5
14CE
  8
0
 10
120.09258634526471
 20
47.250797828041463
 30
0.0
 40
1.874999999999994
 50
306.86989764584388
 51
53.130102354156143
  0
ARC
  5
14CF
  8
0
 10
114.34258634526471
 20
47.250797828041463
 30
0.0
 40
1.874999999999994
 50
126.86989764584381
 51
233.13010235415609
  0
LINE
  5
14D0
  8
1
 10
115.21758634526481
 20
47.250797828041463
 30
0.0
 11
110.46758634526471
 21
47.250797828041463
 31
0.0
  0
LINE
  5
14D1
  8
1
 10
180.71758634526469
 20
47.250797828041463
 30
0.0
 11
173.71758634526469
 21
47.250797828041463
 31
0.0
  0
CIRCLE
  5
14D2
  8
0
 10
177.21758634526469
 20
47.250797828041463
 30
0.0
 40
1.5
  0
LINE
  5
14D3
  8
0
 10
173.21758634526469
 20
42.250797828041691
 30
0.0
 11
173.21758634526469
 21
68.75079782804147
 31
0.0
  0
LINE
  5
14D4
  8
0
 10
181.21758634526469
 20
42.250797828041691
 30
0.0
 11
181.21758634526461
 21
68.75079782804147
 31
0.0
  0
LINE
  5
14D5
  8
0
 10
121.21758634526481
 20
42.250797828041463
 30
0.0
 11
121.21758634526471
 21
68.75079782804147
 31
0.0
  0
LINE
  5
14D6
  8
0
 10
113.21758634526481
 20
42.250797828041463
 30
0.0
 11
113.21758634526471
 21
68.75079782804147
 31
0.0
  0
ARC
  5
14D7
  8
3
 10
110.4708209625217
 20
100.2507978280414
 30
0.0
 40
1.0
 50
103.75607136256821
 51
180.0
  0
LINE
  5
14D8
  8
3
 10
109.4708209625217
 20
99.75079782804147
 30
0.0
 11
126.83740818579111
 21
99.75079782804147
 31
0.0
  0
LINE
  5
14D9
  8
0
 10
126.6129478435535
 20
101.0402661238905
 30
0.0
 11
129.877288015669
 21
98.502325409748224
 31
0.0
  0
LINE
  5
14DA
  8
3
 10
109.4708209625217
 20
100.2507978280414
 30
0.0
 11
109.4708209625217
 21
95.75079782804147
 31
0.0
  0
LINE
  5
14DB
  8
3
 10
126.83740818579111
 20
99.75079782804147
 30
0.0
 11
126.83740818579111
 21
95.75079782804147
 31
0.0
  0
LINE
  5
14DC
  8
0
 10
110.9708209625217
 20
94.25079782804147
 30
0.0
 11
126.38753616782719
 21
94.25079782804147
 31
0.0
  0
LINE
  5
14DD
  8
0
 10
110.5705373531368
 20
101.2507978280414
 30
0.0
 11
125.9991565029098
 21
101.2507978280414
 31
0.0
  0
ARC
  5
14DE
  8
0
 10
195.57191564312939
 20
84.998893521037246
 30
0.0
 40
9.4999999999999982
 50
101.60960780340631
 51
175.0000000000002
  0
LINE
  5
14DF
  8
1
 10
177.21758634526469
 20
104.2507978280414
 30
0.0
 11
177.21758634526469
 21
35.75079782804147
 31
0.0
  0
LINE
  5
14E0
  8
0
 10
184.21758634526449
 20
100.7507978280415
 30
0.0
 11
170.21758634526469
 21
100.7507978280415
 31
0.0
  0
LINE
  5
14E1
  8
0
 10
193.70006458372629
 20
101.2507978280414
 30
0.0
 11
195.21758634526469
 21
101.2507978280414
 31
0.0
  0
LINE
  5
14E2
  8
0
 10
196.2001933680659
 20
100.0651006585919
 30
0.0
 11
195.64119433492419
 21
96.030085098326083
 31
0.0
  0
ARC
  5
14E3
  8
0
 10
184.21758634526449
 20
99.75079782804147
 30
0.0
 40
1.0
 50
0.0
 51
90.0
  0
ARC
  5
14E4
  8
0
 10
195.21758634526469
 20
100.2507978280414
 30
0.0
 40
1.0
 50
349.29821839888211
 51
90.0
  0
LINE
  5
14E5
  8
0
 10
186.1080660112579
 20
85.826873077139965
 30
0.0
 11
185.21758634526469
 21
70.25079782804147
 31
0.0
  0
LINE
  5
14E6
  8
0
 10
185.21758634526469
 20
99.75079782804147
 30
0.0
 11
185.21758634526489
 21
98.568132873181284
 31
0.0
  0
LINE
  5
14E7
  8
0
 10
169.21758634526469
 20
99.75079782804147
 30
0.0
 11
169.21758634526489
 21
98.568132873181213
 31
0.0
  0
ARC
  5
14E8
  8
0
 10
170.21758634526481
 20
99.75079782804147
 30
0.0
 40
1.0
 50
90.0
 51
180.0
  0
LINE
  5
14E9
  8
0
 10
168.32710667927151
 20
85.826873077139965
 30
0.0
 11
169.21758634526469
 21
70.25079782804147
 31
0.0
  0
LINE
  5
14EA
  8
3
 10
194.1650522483898
 20
99.949320570173484
 30
0.0
 11
193.57363490767401
 21
95.680300355617817
 31
0.0
  0
ARC
  5
14EB
  8
3
 10
193.17451254207791
 20
100.08654698971191
 30
0.0
 40
1.0
 50
352.11261728171053
 51
114.1503050627926
  0
LINE
  5
14EC
  8
1
 10
117.21758634526471
 20
106.2507978280414
 30
0.0
 11
117.21758634526471
 21
35.75079782804147
 31
0.0
  0
LINE
  5
14ED
  8
0
 10
126.53612782921
 20
85.773132967778622
 30
0.0
 11
125.21758634526481
 21
70.25079782804147
 31
0.0
  0
LINE
  5
14EE
  8
0
 10
107.8990448613195
 20
85.773132967778622
 30
0.0
 11
109.21758634526481
 21
70.25079782804147
 31
0.0
  0
LINE
  5
14EF
  8
0
 10
102.71758634526461
 20
98.249689451521263
 30
0.0
 11
102.71758634526471
 21
94.840678356707215
 31
0.0
  0
LINE
  5
14F0
  8
0
 10
130.21758634526481
 20
97.750797828041456
 30
0.0
 11
130.21758634526481
 21
93.652097808927778
 31
0.0
  0
ARC
  5
14F1
  8
3
 10
43.10708783614956
 20
143.6621996100389
 30
0.0
 40
2.0
 50
199.83057030078791
 51
256.92703439030407
  0
ARC
  5
14F2
  8
3
 10
57.217586345264749
 20
148.75079782804141
 30
0.0
 40
17.0
 50
151.34147177551381
 51
199.83057030078791
  0
ARC
  5
14F3
  8
3
 10
71.328084854379938
 20
143.6621996100389
 30
0.0
 40
2.0
 50
283.07296560969593
 51
340.16942969921212
  0
LINE
  5
14F4
  8
3
 10
48.27678261888348
 20
140.40853148185769
 30
0.0
 11
42.654704391632258
 21
141.7140340064193
 31
0.0
  0
LINE
  5
14F5
  8
3
 10
55.584942338393773
 20
136.15657391736889
 30
0.0
 11
48.27678261888348
 21
140.40853148185769
 31
0.0
  0
ARC
  5
14F6
  8
3
 10
57.217586345264749
 20
139.2313897348358
 30
0.0
 40
3.4805919067943232
 50
241.36321106602421
 51
298.63678752875268
  0
LINE
  5
14F7
  8
3
 10
58.850230352135718
 20
136.15657391736889
 30
0.0
 11
66.158390071646053
 21
140.40853148185769
 31
0.0
  0
LINE
  5
14F8
  8
3
 10
66.158390071646053
 20
140.40853148185769
 30
0.0
 11
71.780468298897233
 21
141.7140340064193
 31
0.0
  0
LINE
  5
14F9
  8
0
 10
59.604562417724537
 20
134.86004658066341
 30
0.0
 11
66.717586345264749
 21
138.9984722659085
 31
0.0
  0
LINE
  5
14FA
  8
0
 10
66.717586345264749
 20
138.9984722659085
 30
0.0
 11
73.486332113803883
 21
140.57024240708341
 31
0.0
  0
ARC
  5
14FB
  8
0
 10
73.033948669286588
 20
142.5184080107031
 30
0.0
 40
2.0
 50
283.07296560969593
 51
338.49322972005137
  0
ARC
  5
14FC
  8
0
 10
41.401224021242911
 20
142.5184080107031
 30
0.0
 40
2.0
 50
201.5067702799486
 51
256.92703439030407
  0
ARC
  5
14FD
  8
0
 10
57.217586345264749
 20
148.75079782804141
 30
0.0
 40
19.0
 50
338.49322972005137
 51
28.550146425533189
  0
LINE
  5
14FE
  8
0
 10
47.717586345264749
 20
138.9984722659085
 30
0.0
 11
40.948840576725608
 21
140.57024240708341
 31
0.0
  0
LINE
  5
14FF
  8
0
 10
54.830610272804961
 20
134.86004658066341
 30
0.0
 11
47.717586345264749
 21
138.9984722659085
 31
0.0
  0
ARC
  5
1500
  8
0
 10
57.217586345264749
 20
139.2313897348358
 30
0.0
 40
4.9805919067943227
 50
241.36321106602421
 51
298.63678752875268
  0
CIRCLE
  5
1501
  8
0
 10
57.217586345264749
 20
137.2507978280415
 30
0.0
 40
1.5
  0
ARC
  5
1502
  8
0
 10
42.284800674189
 20
156.87556933878039
 30
0.0
 40
2.0
 50
111.797241620603
 51
151.449853574466
  0
ARC
  5
1503
  8
3
 10
44.05518341316764
 20
155.94462497728
 30
0.0
 40
2.0
 50
109.8757399480188
 51
151.34147177551381
  0
ARC
  5
1504
  8
3
 10
70.379989277361915
 20
155.94462497727989
 30
0.0
 40
2.0
 50
28.658528224486119
 51
70.124260051981224
  0
ARC
  5
1505
  8
0
 10
72.150372016340498
 20
156.87556933878039
 30
0.0
 40
2.0
 50
28.550146425533189
 51
68.202758379395121
  0
ARC
  5
1506
  8
3
 10
57.217586345264692
 20
119.53572837747841
 30
0.0
 40
40.715069450563057
 50
70.124260051981224
 51
109.8757399480188
  0
ARC
  5
1507
  8
3
 10
57.217586345264749
 20
148.75079782804141
 30
0.0
 40
17.0
 50
340.16942969921212
 51
28.658528224486119
  0
ARC
  5
1508
  8
0
 10
57.217586345264692
 20
119.53572837747841
 30
0.0
 40
42.215069450563057
 50
68.202758379395121
 51
111.7972416206033
  0
ARC
  5
1509
  8
0
 10
57.217586345264749
 20
148.75079782804141
 30
0.0
 40
19.0
 50
151.449853574466
 51
201.5067702799486
  0
CIRCLE
  5
150A
  8
0
 10
57.217586345264749
 20
148.75079782804141
 30
0.0
 40
8.0
  0
LINE
  5
150B
  8
1
 10
33.217586345264749
 20
148.75079782804141
 30
0.0
 11
81.217586345264749
 21
148.75079782804141
 31
0.0
  0
LINE
  5
150C
  8
1
 10
57.217586345264749
 20
166.75079782804141
 30
0.0
 11
57.217586345264749
 21
129.25079782804141
 31
0.0
  0
TEXT
  5
15BF
  8
0
 62
     3
 10
0.0
 20
0.0
 30
0.0
 40
10.0
  1
BLP08020-SUS
  7
STANDARD1
  0
ENDSEC
  0
EOF
