  0
SECTION
  2
HEADER
  9
$ACADVER
  1
AC1009
  9
$INSBASE
 10
0.0
 20
0.0
 30
0.0
  9
$EXTMIN
 10
0.0
 20
-2.960436562073669
 30
0.0
  9
$EXTMAX
 10
251.17533790818709
 20
232.8026047462487
 30
0.0
  9
$LIMMIN
 10
0.0
 20
0.0
  9
$LIMMAX
 10
187.5
 20
135.0
  9
$ORTHOMODE
 70
     0
  9
$REGENMODE
 70
     1
  9
$FILLMODE
 70
     1
  9
$QTEXTMODE
 70
     0
  9
$MIRRTEXT
 70
     0
  9
$DRAGMODE
 70
     2
  9
$LTSCALE
 40
5.0
  9
$OSMODE
 70
  3071
  9
$ATTMODE
 70
     1
  9
$TEXTSIZE
 40
4.0
  9
$TRACEWID
 40
0.05
  9
$TEXTSTYLE
  7
STANDARD
  9
$CLAYER
  8
0
  9
$CELTYPE
  6
BYLAYER
  9
$CECOLOR
 62
   256
  9
$DIMSCALE
 40
0.5
  9
$DIMASZ
 40
3.0
  9
$DIMEXO
 40
2.0
  9
$DIMDLI
 40
0.38
  9
$DIMRND
 40
0.0
  9
$DIMDLE
 40
0.0
  9
$DIMEXE
 40
2.0
  9
$DIMTP
 40
0.0
  9
$DIMTM
 40
0.0
  9
$DIMTXT
 40
3.0
  9
$DIMCEN
 40
0.0
  9
$DIMTSZ
 40
0.0
  9
$DIMTOL
 70
     0
  9
$DIMLIM
 70
     0
  9
$DIMTIH
 70
     0
  9
$DIMTOH
 70
     0
  9
$DIMSE1
 70
     0
  9
$DIMSE2
 70
     0
  9
$DIMTAD
 70
     1
  9
$DIMZIN
 70
     0
  9
$DIMBLK
  1

  9
$DIMASO
 70
     0
  9
$DIMSHO
 70
     0
  9
$DIMPOST
  1

  9
$DIMAPOST
  1

  9
$DIMALT
 70
     0
  9
$DIMALTD
 70
     2
  9
$DIMALTF
 40
25.399999999999999
  9
$DIMLFAC
 40
1.0
  9
$DIMTOFL
 70
     0
  9
$DIMTVP
 40
1.6000000000000001
  9
$DIMTIX
 70
     1
  9
$DIMSOXD
 70
     0
  9
$DIMSAH
 70
     0
  9
$DIMBLK1
  1

  9
$DIMBLK2
  1

  9
$DIMSTYLE
  2
STANDARD
  9
$DIMCLRD
 70
     0
  9
$DIMCLRE
 70
     0
  9
$DIMCLRT
 70
     0
  9
$DIMTFAC
 40
1.0
  9
$DIMGAP
 40
0.09
  9
$LUNITS
 70
     2
  9
$LUPREC
 70
     4
  9
$SKETCHINC
 40
0.1
  9
$FILLETRAD
 40
1.0
  9
$AUNITS
 70
     0
  9
$AUPREC
 70
     0
  9
$MENU
  1
E:\r13\win\SUPPORT\ACAD
  9
$ELEVATION
 40
0.0
  9
$PELEVATION
 40
0.0
  9
$THICKNESS
 40
0.0
  9
$LIMCHECK
 70
     0
  9
$BLIPMODE
 70
     0
  9
$CHAMFERA
 40
0.0
  9
$CHAMFERB
 40
0.0
  9
$SKPOLY
 70
     0
  9
$TDCREATE
 40
2449840.6143865739
  9
$TDUPDATE
 40
2456598.4629235989
  9
$TDINDWG
 40
0.2533744907
  9
$TDUSRTIMER
 40
0.2533744907
  9
$USRTIMER
 70
     1
  9
$ANGBASE
 50
0.0
  9
$ANGDIR
 70
     0
  9
$PDMODE
 70
     0
  9
$PDSIZE
 40
0.0
  9
$PLINEWID
 40
0.0
  9
$COORDS
 70
     1
  9
$SPLFRAME
 70
     0
  9
$SPLINETYPE
 70
     6
  9
$SPLINESEGS
 70
     8
  9
$ATTDIA
 70
     0
  9
$ATTREQ
 70
     1
  9
$HANDLING
 70
     1
  9
$HANDSEED
  5
171F
  9
$SURFTAB1
 70
     6
  9
$SURFTAB2
 70
     6
  9
$SURFTYPE
 70
     6
  9
$SURFU
 70
     6
  9
$SURFV
 70
     6
  9
$UCSNAME
  2

  9
$UCSORG
 10
0.0
 20
0.0
 30
0.0
  9
$UCSXDIR
 10
1.0
 20
0.0
 30
0.0
  9
$UCSYDIR
 10
0.0
 20
1.0
 30
0.0
  9
$PUCSNAME
  2

  9
$PUCSORG
 10
0.0
 20
0.0
 30
0.0
  9
$PUCSXDIR
 10
1.0
 20
0.0
 30
0.0
  9
$PUCSYDIR
 10
0.0
 20
1.0
 30
0.0
  9
$USERI1
 70
     0
  9
$USERI2
 70
     1
  9
$USERI3
 70
     1
  9
$USERI4
 70
     0
  9
$USERI5
 70
     0
  9
$USERR1
 40
0.0
  9
$USERR2
 40
0.0
  9
$USERR3
 40
0.0
  9
$USERR4
 40
0.0
  9
$USERR5
 40
0.0
  9
$WORLDVIEW
 70
     1
  9
$SHADEDGE
 70
     3
  9
$SHADEDIF
 70
    70
  9
$TILEMODE
 70
     1
  9
$MAXACTVP
 70
    16
  9
$PLIMCHECK
 70
     0
  9
$PEXTMIN
 10
1.0000000000000000E+020
 20
1.0000000000000000E+020
 30
1.0000000000000000E+020
  9
$PEXTMAX
 10
-1.0000000000000000E+020
 20
-1.0000000000000000E+020
 30
-1.0000000000000000E+020
  9
$PLIMMIN
 10
0.0
 20
0.0
  9
$PLIMMAX
 10
12.0
 20
9.0
  9
$UNITMODE
 70
     0
  9
$VISRETAIN
 70
     0
  9
$PLINEGEN
 70
     0
  9
$PSLTSCALE
 70
     0
  0
ENDSEC
  0
SECTION
  2
TABLES
  0
TABLE
  2
VPORT
 70
     1
  0
VPORT
  2
*ACTIVE
 70
     0
 10
0.0
 20
0.0
 11
1.0
 21
1.0
 12
132.1209610949368
 22
114.91822357564121
 13
0.0
 23
0.0
 14
5.0
 24
5.0
 15
5.0
 25
5.0
 16
0.0
 26
0.0
 36
1.0
 17
0.0
 27
0.0
 37
0.0
 40
237.89761806254839
 41
1.831871345029239
 42
50.0
 43
0.0
 44
0.0
 50
0.0
 51
0.0
 71
     0
 72
   100
 73
     1
 74
     0
 75
     0
 76
     0
 77
     0
 78
     0
  0
ENDTAB
  0
TABLE
  2
LTYPE
 70
     3
  0
LTYPE
  2
CONTINUOUS
 70
     0
  3
Solid Line
 72
    65
 73
     0
 40
0.0
  0
LTYPE
  2
CENTER
 70
     0
  3
____ _ ____ _ ____ _ ____ _ ____ _ ____ _ ____
 72
    65
 73
     4
 40
2.0
 49
1.25
 49
-0.25
 49
0.25
 49
-0.25
  0
LTYPE
  2
PHANTOM2
 70
     0
  3
___ _ _ ___ _ _ ___ _ _ ___ _ _
 72
    65
 73
     6
 40
1.25
 49
0.625
 49
-0.125
 49
0.125
 49
-0.125
 49
0.125
 49
-0.125
  0
ENDTAB
  0
TABLE
  2
LAYER
 70
     3
  0
LAYER
  2
0
 70
     0
 62
     7
  6
CONTINUOUS
  0
LAYER
  2
1
 70
     0
 62
     1
  6
CENTER
  0
LAYER
  2
3
 70
     0
 62
     3
  6
CONTINUOUS
  0
ENDTAB
  0
TABLE
  2
STYLE
 70
     2
  0
STYLE
  2
STANDARD
 70
     0
 40
0.0
 41
1.0
 50
0.0
 71
     0
 42
4.0
  3
TXT
  4
BIGFONT
  0
STYLE
  2
STANDARD1
 70
     0
 40
0.0
 41
1.0
 50
0.0
 71
     0
 42
3.0
  3
txt
  4

  0
ENDTAB
  0
TABLE
  2
VIEW
 70
     1
  0
VIEW
  2
ALL
 70
     0
 40
179.66152299999999
 10
141.903918
 20
89.830760999999995
 41
0.0
 11
0.0
 21
0.0
 31
1.0
 12
0.0
 22
0.0
 32
0.0
 42
0.0
 43
0.0
 44
0.0
 50
0.0
 71
     0
  0
ENDTAB
  0
TABLE
  2
UCS
 70
     0
  0
ENDTAB
  0
TABLE
  2
APPID
 70
     4
  0
APPID
  2
ACAD
 70
     0
  0
APPID
  2
DCO15
 70
     0
  0
APPID
  2
ACAD_MLEADERVER
 70
     0
  0
APPID
  2
ACAD_NAV_VCDISPLAY
 70
     0
  0
ENDTAB
  0
TABLE
  2
DIMSTYLE
 70
     1
  0
DIMSTYLE
  2
STANDARD
 70
     0
  3

  4

  5

  6

  7

 40
1.0
 41
0.18
 42
0.0625
 43
0.38
 44
0.18
 45
0.0
 46
0.0
 47
0.0
 48
0.0
140
0.18
141
0.09
142
0.0
143
25.399999999999999
144
1.0
145
0.0
146
1.0
147
0.09
 71
     0
 72
     0
 73
     1
 74
     1
 75
     0
 76
     0
 77
     0
 78
     0
170
     0
171
     2
172
     0
173
     0
174
     0
175
     0
176
     0
177
     0
178
     0
  0
ENDTAB
  0
ENDSEC
  0
SECTION
  2
BLOCKS
  0
BLOCK
  8
0
  2
$MODEL_SPACE
 70
     0
 10
0.0
 20
0.0
 30
0.0
  3
$MODEL_SPACE
  1

  0
ENDBLK
  5
1BD
  8
0
  0
BLOCK
 67
     1
  8
0
  2
$PAPER_SPACE
 70
     0
 10
0.0
 20
0.0
 30
0.0
  3
$PAPER_SPACE
  1

  0
ENDBLK
  5
1BB
 67
     1
  8
0
  0
ENDSEC
  0
SECTION
  2
ENTITIES
  0
LINE
  5
1520
  8
1
 10
158.22066924896021
 20
82.693127908497843
 30
0.0
 11
164.22066924896021
 21
82.693127908497786
 31
0.0
  0
ARC
  5
1521
  8
0
 10
159.22066924896021
 20
82.693127908497843
 30
0.0
 40
2.5000000000000511
 50
306.8698976458457
 51
53.130102354154353
  0
ARC
  5
1522
  8
0
 10
152.22066924896029
 20
82.693127908497843
 30
0.0
 40
2.5000000000000511
 50
126.8698976458456
 51
233.13010235415439
  0
LINE
  5
1523
  8
1
 10
153.22066924896021
 20
82.693127908497843
 30
0.0
 11
147.22066924896021
 21
82.693127908497786
 31
0.0
  0
LINE
  5
1524
  8
0
 10
150.72066924896021
 20
109.6931279084978
 30
0.0
 11
150.72066924896021
 21
76.693127908497814
 31
0.0
  0
LINE
  5
1525
  8
0
 10
160.72066924896021
 20
109.6931279084978
 30
0.0
 11
160.72066924896021
 21
76.693127908497814
 31
0.0
  0
LINE
  5
1526
  8
0
 10
159.97066924896021
 20
75.693127908497871
 30
0.0
 11
151.47066924896021
 21
75.693127908497843
 31
0.0
  0
LINE
  5
1527
  8
0
 10
160.72066924896021
 20
76.693127908497843
 30
0.0
 11
150.72066924896021
 21
76.693127908497843
 31
0.0
  0
LINE
  5
1528
  8
0
 10
160.72066924896021
 20
76.693127908497843
 30
0.0
 11
159.97066924896021
 21
75.693127908497843
 31
0.0
  0
LINE
  5
1529
  8
0
 10
151.47066924896021
 20
75.693127908497843
 30
0.0
 11
150.72066924896021
 21
76.693127908497843
 31
0.0
  0
LINE
  5
152A
  8
0
 10
222.67533790818709
 20
109.6931279084978
 30
0.0
 11
222.67533790818709
 21
76.693127908497843
 31
0.0
  0
LINE
  5
152B
  8
0
 10
232.67533790818709
 20
109.6931279084978
 30
0.0
 11
232.675337908187
 21
76.693127908497843
 31
0.0
  0
LINE
  5
152C
  8
1
 10
232.175337908187
 20
82.6931279084979
 30
0.0
 11
223.175337908187
 21
82.6931279084979
 31
0.0
  0
CIRCLE
  5
152D
  8
0
 10
227.67533790818709
 20
82.6931279084979
 30
0.0
 40
2.0
  0
LINE
  5
152E
  8
0
 10
231.92533790818709
 20
75.6931279084979
 30
0.0
 11
223.42533790818709
 21
75.693127908497871
 31
0.0
  0
LINE
  5
152F
  8
0
 10
232.67533790818709
 20
76.693127908497871
 30
0.0
 11
222.67533790818709
 21
76.693127908497871
 31
0.0
  0
LINE
  5
1530
  8
0
 10
232.675337908187
 20
76.693127908497871
 30
0.0
 11
231.92533790818709
 21
75.693127908497871
 31
0.0
  0
LINE
  5
1531
  8
0
 10
223.42533790818709
 20
75.693127908497871
 30
0.0
 11
222.67533790818709
 21
76.693127908497871
 31
0.0
  0
LINE
  5
1532
  8
0
 10
77.137283397375626
 20
75.6931279084979
 30
0.0
 11
76.387283397375626
 21
76.6931279084979
 31
0.0
  0
LINE
  5
1533
  8
0
 10
86.387283397375583
 20
76.6931279084979
 30
0.0
 11
85.637283397375626
 21
75.6931279084979
 31
0.0
  0
LINE
  5
1534
  8
0
 10
86.387283397375612
 20
76.6931279084979
 30
0.0
 11
76.387283397375597
 21
76.6931279084979
 31
0.0
  0
LINE
  5
1535
  8
0
 10
85.637283397375626
 20
75.693127908497914
 30
0.0
 11
77.137283397375597
 21
75.6931279084979
 31
0.0
  0
LINE
  5
1536
  8
0
 10
238.675337908187
 20
149.19312790849779
 30
0.0
 11
216.67533790818709
 21
149.19312790849779
 31
0.0
  0
LINE
  5
1537
  8
0
 10
239.675337908187
 20
148.19312790849779
 30
0.0
 11
239.6753379081872
 21
146.9791591670477
 31
0.0
  0
LINE
  5
1538
  8
0
 10
215.67533790818709
 20
148.19312790849779
 30
0.0
 11
215.675337908187
 21
146.97915916704761
 31
0.0
  0
LINE
  5
1539
  8
1
 10
227.67533790818709
 20
154.6931279084981
 30
0.0
 11
227.67533790818709
 21
70.693127908497914
 31
0.0
  0
ARC
  5
153A
  8
0
 10
250.17533790818709
 20
148.69312790849779
 30
0.0
 40
1.0000000000000031
 50
0.0
 51
90.0
  0
LINE
  5
153B
  8
0
 10
250.67087032019779
 20
142.92703699273241
 30
0.0
 11
251.17533790818709
 21
148.6931279084979
 31
0.0
  0
LINE
  5
153C
  8
0
 10
248.95992634285039
 20
149.69312790849779
 30
0.0
 11
250.17533790818709
 21
149.69312790849779
 31
0.0
  0
LINE
  5
153D
  8
1
 10
77.387283397375683
 20
198.3026047462487
 30
0.0
 11
85.387283397375725
 21
198.3026047462487
 31
0.0
  0
CIRCLE
  5
153E
  8
0
 10
81.387283397375683
 20
198.3026047462487
 30
0.0
 40
1.5
  0
CIRCLE
  5
153F
  8
0
 10
81.387283397375654
 20
212.8026047462487
 30
0.0
 40
12.0
  0
LINE
  5
1540
  8
1
 10
52.887283397375633
 20
212.8026047462487
 30
0.0
 11
109.8872833973756
 21
212.8026047462487
 31
0.0
  0
ARC
  5
1541
  8
0
 10
81.387283397375583
 20
212.8026047462487
 30
0.0
 40
23.499999999999989
 50
156.2954933317846
 51
201.9783965190544
  0
ARC
  5
1542
  8
0
 10
81.387283397375583
 20
212.8026047462487
 30
0.0
 40
23.500000000000021
 50
338.0216034809456
 51
23.704506668215188
  0
LINE
  5
1543
  8
1
 10
81.387283397375683
 20
232.8026047462487
 30
0.0
 11
81.387283397375654
 21
189.09199152404011
 31
0.0
  0
ARC
  5
1544
  8
0
 10
81.387283397375484
 20
176.05349197117411
 30
0.0
 40
51.749112775074558
 50
67.353678914296282
 51
112.64632108570331
  0
ARC
  5
1545
  8
0
 10
62.616848413505892
 20
221.0440106042513
 30
0.0
 40
3.0
 50
112.6463210857037
 51
156.2954933317846
  0
ARC
  5
1546
  8
0
 10
100.1577183812454
 20
221.0440106042511
 30
0.0
 40
3.0
 50
23.704506668215188
 51
67.353678914296282
  0
ARC
  5
1547
  8
3
 10
81.387283397375484
 20
176.05349197117411
 30
0.0
 40
49.749112775074558
 50
70.047090115427878
 51
109.9529098845717
  0
ARC
  5
1548
  8
3
 10
81.387283397375583
 20
212.8026047462487
 30
0.0
 40
20.499999999999989
 50
155.72762715794369
 51
200.4554175366799
  0
ARC
  5
1549
  8
3
 10
81.387283397375583
 20
212.8026047462487
 30
0.0
 40
20.500000000000021
 50
339.54458246332013
 51
24.272372842054629
  0
ARC
  5
154A
  8
3
 10
65.434255455593927
 20
219.99641454973479
 30
0.0
 40
3.0
 50
109.95290988457209
 51
155.72762715794369
  0
ARC
  5
154B
  8
3
 10
97.340311339157353
 20
219.99641454973471
 30
0.0
 40
3.0
 50
24.272372842054629
 51
70.047090115427878
  0
ARC
  5
154C
  8
0
 10
81.387283397375654
 20
198.697779776001
 30
0.0
 40
4.8951750297523642
 50
232.2042557115019
 51
307.79574428849781
  0
LINE
  5
154D
  8
0
 10
70.072527613695229
 20
200.3478313899862
 30
0.0
 11
78.387283397375654
 21
194.82960985058261
 31
0.0
  0
LINE
  5
154E
  8
0
 10
61.838959946091592
 20
202.17900095955599
 30
0.0
 11
68.578201911558054
 21
200.9501364068251
 31
0.0
  0
ARC
  5
154F
  8
0
 10
62.377120184531059
 20
205.1303368533103
 30
0.0
 40
3.0
 50
201.9783965190544
 51
259.66595845056162
  0
ARC
  5
1550
  8
0
 10
67.860654926972074
 20
197.01502188181931
 30
0.0
 40
4.0
 50
56.429118784097987
 51
79.665958450561249
  0
LINE
  5
1551
  8
3
 10
71.178463957056806
 20
202.01423614406971
 30
0.0
 11
80.024674006504966
 21
196.14330642503171
 31
0.0
  0
ARC
  5
1552
  8
3
 10
67.860654926972074
 20
197.01502188181931
 30
0.0
 40
6.0
 50
56.429118784097987
 51
79.665958450561249
  0
LINE
  5
1553
  8
3
 10
64.452596057432913
 20
203.73539614210611
 30
0.0
 11
68.936975403851079
 21
202.91769366932789
 31
0.0
  0
ARC
  5
1554
  8
3
 10
64.990756295872416
 20
206.68673203586039
 30
0.0
 40
3.0
 50
200.4554175366799
 51
259.66595845056128
  0
ARC
  5
1555
  8
3
 10
97.783810498878907
 20
206.68673203586039
 30
0.0
 40
3.0
 50
280.33404154943872
 51
339.54458246332013
  0
LINE
  5
1556
  8
3
 10
98.321970737318395
 20
203.73539614210611
 30
0.0
 11
93.837591390900215
 21
202.91769366932789
 31
0.0
  0
ARC
  5
1557
  8
3
 10
94.913911867779234
 20
197.01502188181931
 30
0.0
 40
6.0
 50
100.33404154943869
 51
123.57088121590201
  0
ARC
  5
1558
  8
0
 10
94.913911867779234
 20
197.01502188181931
 30
0.0
 40
4.0
 50
100.33404154943869
 51
123.57088121590201
  0
LINE
  5
1559
  8
3
 10
91.596102837694517
 20
202.01423614406971
 30
0.0
 11
82.749892788246143
 21
196.1433064250316
 31
0.0
  0
LINE
  5
155A
  8
0
 10
92.702039181056065
 20
200.3478313899862
 30
0.0
 11
84.387283397375654
 21
194.82960985058261
 31
0.0
  0
ARC
  5
155B
  8
0
 10
100.3974466102202
 20
205.1303368533103
 30
0.0
 40
3.0
 50
280.33404154943838
 51
338.0216034809456
  0
LINE
  5
155C
  8
0
 10
100.9356068486597
 20
202.17900095955599
 30
0.0
 11
94.196364883193255
 21
200.9501364068251
 31
0.0
  0
ARC
  5
155D
  8
3
 10
81.387283397375654
 20
198.697779776001
 30
0.0
 40
2.8951750297523642
 50
241.92360853106661
 51
298.07639146892939
  0
ARC
  5
155E
  8
0
 10
238.675337908187
 20
148.19312790849779
 30
0.0
 40
1.0
 50
0.0
 51
90.0
  0
ARC
  5
155F
  8
0
 10
216.67533790818709
 20
148.19312790849779
 30
0.0
 40
1.0
 50
90.0
 51
180.0
  0
ARC
  5
1560
  8
0
 10
227.67533790818709
 20
202.32234101262191
 30
0.0
 40
56.629213104124062
 50
248.7131583215459
 51
291.2868416784541
  0
ARC
  5
1561
  8
0
 10
248.95992634285031
 20
147.6931279084977
 30
0.0
 40
2.0
 50
89.999999999998366
 51
111.28684167845449
  0
ARC
  5
1562
  8
0
 10
227.67533790818709
 20
171.75764161056119
 30
0.0
 40
34.064513702063323
 50
257.81850135588212
 51
282.18149864411868
  0
LINE
  5
1563
  8
0
 10
249.04920209753121
 20
141.13600733442939
 30
0.0
 11
234.86326261951581
 21
138.46012170137979
 31
0.0
  0
ARC
  5
1564
  8
0
 10
206.3907494735239
 20
147.6931279084977
 30
0.0
 40
2.0
 50
68.713158321545507
 51
90.000000000001606
  0
LINE
  5
1565
  8
0
 10
206.39074947352381
 20
149.69312790849779
 30
0.0
 11
205.17533790818709
 21
149.69312790849779
 31
0.0
  0
LINE
  5
1566
  8
0
 10
204.67980549617641
 20
142.92703699273241
 30
0.0
 11
204.17533790818709
 21
148.6931279084979
 31
0.0
  0
ARC
  5
1567
  8
0
 10
205.17533790818709
 20
148.69312790849779
 30
0.0
 40
1.0000000000000031
 50
90.0
 51
180.0
  0
LINE
  5
1568
  8
0
 10
206.30147371884291
 20
141.13600733442939
 30
0.0
 11
220.4874131968584
 21
138.46012170137979
 31
0.0
  0
ARC
  5
1569
  8
0
 10
248.67848092401431
 20
143.10134847822769
 30
0.0
 40
2.0
 50
280.68215611154949
 51
355.00000000000023
  0
ARC
  5
156A
  8
0
 10
206.6721948923599
 20
143.10134847822769
 30
0.0
 40
2.0
 50
184.9999999999998
 51
259.31784388845051
  0
LINE
  5
156B
  8
0
 10
238.42533790818709
 20
109.6931279084978
 30
0.0
 11
216.925337908187
 21
109.6931279084978
 31
0.0
  0
LINE
  5
156C
  8
0
 10
239.17533790818709
 20
111.1931279084978
 30
0.0
 11
216.17533790818709
 21
111.1931279084978
 31
0.0
  0
LINE
  5
156D
  8
0
 10
216.17533790818709
 20
111.1931279084978
 30
0.0
 11
216.925337908187
 21
109.6931279084978
 31
0.0
  0
LINE
  5
156E
  8
0
 10
238.42533790818709
 20
109.6931279084978
 30
0.0
 11
239.17533790818709
 21
111.1931279084978
 31
0.0
  0
LINE
  5
156F
  8
0
 10
215.42533790818709
 20
131.6931279084979
 30
0.0
 11
216.17533790818709
 21
111.1931279084978
 31
0.0
  0
ARC
  5
1570
  8
0
 10
201.22614699836731
 20
127.10289089439451
 30
0.0
 40
14.922710824081349
 50
17.914699770321111
 51
70.116572850063207
  0
LINE
  5
1571
  8
0
 10
239.92533790818709
 20
131.6931279084979
 30
0.0
 11
239.17533790818709
 21
111.1931279084978
 31
0.0
  0
ARC
  5
1572
  8
0
 10
254.12452881800689
 20
127.10289089439451
 30
0.0
 40
14.922710824081349
 50
109.88342714993669
 51
162.08530022967889
  0
LINE
  5
1573
  8
3
 10
247.6088789586982
 20
142.3494553171968
 30
0.0
 11
248.1015061695727
 21
147.98021010325701
 31
0.0
  0
ARC
  5
1574
  8
3
 10
245.61648956251469
 20
142.52376680269199
 30
0.0
 40
2.0
 50
280.68215611154949
 51
355.00000000000023
  0
ARC
  5
1575
  8
3
 10
247.105311471481
 20
148.06736584600469
 30
0.0
 40
1.0
 50
355.00000000000023
 51
109.70363178656019
  0
ARC
  5
1576
  8
3
 10
208.24536434489329
 20
148.06736584600469
 30
0.0
 40
1.0
 50
70.296368213439763
 51
184.9999999999998
  0
LINE
  5
1577
  8
3
 10
207.74179685767601
 20
142.3494553171968
 30
0.0
 11
207.24916964680159
 21
147.98021010325701
 31
0.0
  0
ARC
  5
1578
  8
3
 10
209.73418625385949
 20
142.52376680269199
 30
0.0
 40
2.0
 50
184.9999999999998
 51
259.31784388845051
  0
LINE
  5
1579
  8
0
 10
76.387283397375626
 20
109.6931279084978
 30
0.0
 11
76.387283397375626
 21
76.693127908497871
 31
0.0
  0
LINE
  5
157A
  8
0
 10
86.387283397375626
 20
109.6931279084978
 30
0.0
 11
86.387283397375555
 21
76.693127908497871
 31
0.0
  0
LINE
  5
157B
  8
3
 10
101.3180336032617
 20
142.3175558171632
 30
0.0
 11
101.794555225659
 21
147.7642228845634
 31
0.0
  0
ARC
  5
157C
  8
0
 10
107.8364743071954
 20
127.10289089439451
 30
0.0
 40
14.922710824081349
 50
109.88342714993669
 51
162.08530022967889
  0
LINE
  5
157D
  8
0
 10
93.637283397375626
 20
131.6931279084979
 30
0.0
 11
92.887283397375626
 21
111.1931279084979
 31
0.0
  0
ARC
  5
157E
  8
0
 10
54.938092487555849
 20
127.10289089439451
 30
0.0
 40
14.922710824081349
 50
17.914699770321111
 51
70.116572850063207
  0
LINE
  5
157F
  8
0
 10
69.137283397375626
 20
131.6931279084979
 30
0.0
 11
69.887283397375626
 21
111.1931279084979
 31
0.0
  0
LINE
  5
1580
  8
0
 10
92.137283397375626
 20
109.6931279084979
 30
0.0
 11
92.887283397375626
 21
111.1931279084979
 31
0.0
  0
LINE
  5
1581
  8
0
 10
69.887283397375626
 20
111.1931279084979
 30
0.0
 11
70.637283397375569
 21
109.6931279084979
 31
0.0
  0
LINE
  5
1582
  8
0
 10
92.887283397375626
 20
111.1931279084979
 30
0.0
 11
69.887283397375626
 21
111.1931279084979
 31
0.0
  0
LINE
  5
1583
  8
0
 10
92.137283397375626
 20
109.6931279084979
 30
0.0
 11
70.637283397375569
 21
109.6931279084979
 31
0.0
  0
ARC
  5
1584
  8
0
 10
102.3904264132028
 20
143.10134847822769
 30
0.0
 40
2.0
 50
280.68215611154949
 51
355.00000000000023
  0
ARC
  5
1585
  8
0
 10
70.387283397375626
 20
148.1931279084979
 30
0.0
 40
1.0
 50
90.0
 51
180.0
  0
ARC
  5
1586
  8
0
 10
92.387283397375569
 20
148.1931279084979
 30
0.0
 40
1.0
 50
0.0
 51
90.0
  0
CIRCLE
  5
1587
  8
0
 10
81.387283397375569
 20
82.6931279084979
 30
0.0
 40
2.0
  0
LINE
  5
1588
  8
0
 10
102.78806976453239
 20
149.6931279084979
 30
0.0
 11
103.8872833973756
 21
149.6931279084979
 31
0.0
  0
LINE
  5
1589
  8
0
 10
104.3828158093863
 20
142.92703699273241
 30
0.0
 11
104.8872833973756
 21
148.6931279084979
 31
0.0
  0
ARC
  5
158A
  8
0
 10
103.8872833973756
 20
148.6931279084979
 30
0.0
 40
1.0000000000000031
 50
0.0
 51
90.0
  0
LINE
  5
158B
  8
1
 10
85.887283397375555
 20
82.6931279084979
 30
0.0
 11
76.887283397375569
 21
82.6931279084979
 31
0.0
  0
LINE
  5
158C
  8
1
 10
81.387283397375626
 20
154.69312790849821
 30
0.0
 11
81.387283397375626
 21
70.6931279084979
 31
0.0
  0
LINE
  5
158D
  8
0
 10
69.387283397375626
 20
148.1931279084979
 30
0.0
 11
69.387283397375541
 21
146.8068614116448
 31
0.0
  0
LINE
  5
158E
  8
0
 10
93.387283397375555
 20
148.1931279084979
 30
0.0
 11
93.387283397375853
 21
146.8068614116448
 31
0.0
  0
LINE
  5
158F
  8
0
 10
92.387283397375569
 20
149.1931279084979
 30
0.0
 11
70.387283397375626
 21
149.1931279084979
 31
0.0
  0
ARC
  5
1590
  8
0
 10
81.387283397375583
 20
138.4431279084983
 30
0.0
 40
9.2499999999995648
 50
71.075355583948294
 51
108.92464441605171
  0
ARC
  5
1591
  8
0
 10
89.981554744666653
 20
172.49649048834681
 30
0.0
 40
25.914398116769359
 50
257.53313183533572
 51
297.3082897275209
  0
ARC
  5
1592
  8
0
 10
102.78806976453249
 20
147.6931279084979
 30
0.0
 40
2.0
 50
90.00000000000081
 51
117.3082897275209
  0
ARC
  5
1593
  8
3
 10
100.7983605275673
 20
147.85137862731099
 30
0.0
 40
1.0
 50
355.00000000000182
 51
113.69679936221191
  0
ARC
  5
1594
  8
0
 10
72.793012050084599
 20
172.49649048834681
 30
0.0
 40
25.914398116769359
 50
242.6917102724791
 51
282.46686816466428
  0
ARC
  5
1595
  8
3
 10
61.976206267183947
 20
147.85137862731099
 30
0.0
 40
1.0
 50
66.303200637788066
 51
184.9999999999981
  0
ARC
  5
1596
  8
0
 10
59.986497030218743
 20
147.6931279084979
 30
0.0
 40
2.0
 50
62.691710272479071
 51
89.999999999999204
  0
ARC
  5
1597
  8
0
 10
58.887283397375619
 20
148.6931279084979
 30
0.0
 40
1.0000000000000031
 50
90.0
 51
180.0
  0
LINE
  5
1598
  8
0
 10
58.391750985364951
 20
142.92703699273241
 30
0.0
 11
57.887283397375633
 21
148.6931279084979
 31
0.0
  0
LINE
  5
1599
  8
0
 10
59.986497030218771
 20
149.6931279084979
 30
0.0
 11
58.887283397375619
 21
149.6931279084979
 31
0.0
  0
ARC
  5
159A
  8
0
 10
60.384140381548463
 20
143.10134847822769
 30
0.0
 40
2.0
 50
184.9999999999998
 51
259.31784388845051
  0
LINE
  5
159B
  8
3
 10
61.456533191489591
 20
142.31755581716311
 30
0.0
 11
60.980011569092191
 21
147.7642228845634
 31
0.0
  0
ARC
  5
159C
  8
0
 10
81.387283397375583
 20
131.4431279084983
 30
0.0
 40
9.2499999999995648
 50
71.075355583948294
 51
108.92464441605171
  0
ARC
  5
159D
  8
0
 10
90.90289296217648
 20
192.72055274521909
 30
0.0
 40
52.929987039279723
 50
262.92903197711269
 51
282.94623357696139
  0
ARC
  5
159E
  8
0
 10
71.871673832574771
 20
192.72055274521909
 30
0.0
 40
52.929987039279723
 50
257.05376642303861
 51
277.0709680228872
  0
ARC
  5
159F
  8
3
 10
63.44892258767311
 20
142.49186730265839
 30
0.0
 40
2.0
 50
184.9999999999998
 51
260.48074690243908
  0
ARC
  5
15A0
  8
3
 10
99.325644207078184
 20
142.49186730265851
 30
0.0
 40
2.0
 50
279.51925309756081
 51
355.00000000000182
  0
POLYLINE
  5
15A1
  8
0
 66
     1
 10
0.0
 20
0.0
 30
0.0
  0
VERTEX
  5
15A2
  8
0
 10
81.387283397375583
 20
138.6931279084979
 30
0.0
 42
0.0674590399341459
  0
VERTEX
  5
15A3
  8
0
 10
80.790454898471225
 20
138.6122368406474
 30
0.0
 42
0.0798124861749892
  0
VERTEX
  5
15A4
  8
0
 10
80.326623225595796
 20
138.4002346896844
 30
0.0
 42
0.1071181112083711
 70
     2
 50
213.6900675259815
  0
VERTEX
  5
15A5
  8
0
 10
79.989824255112836
 20
138.05246326922861
 30
0.0
 42
0.1398891526407134
 50
213.6900675259815
  0
VERTEX
  5
15A6
  8
0
 10
79.887283397375654
 20
137.6931279084979
 30
0.0
 42
0.1398891526406841
  0
SEQEND
  5
15A7
  8
0
  0
POLYLINE
  5
15A8
  8
0
 66
     1
 10
0.0
 20
0.0
 30
0.0
  0
VERTEX
  5
15A9
  8
0
 10
82.887283397375583
 20
137.6931279084979
 30
0.0
 42
0.1398891526407054
  0
VERTEX
  5
15AA
  8
0
 10
82.784742539638387
 20
138.0524632692287
 30
0.0
 42
0.1071181112083579
  0
VERTEX
  5
15AB
  8
0
 10
82.447943569155385
 20
138.40023468968451
 30
0.0
 42
0.0798124861749987
 70
     2
 50
146.30993247402171
  0
VERTEX
  5
15AC
  8
0
 10
81.984111896279956
 20
138.6122368406474
 30
0.0
 42
0.0674590399341534
 50
146.30993247402171
  0
VERTEX
  5
15AD
  8
0
 10
81.387283397375583
 20
138.6931279084979
 30
0.0
 42
0.0674590399341459
  0
SEQEND
  5
15AE
  8
0
  0
POLYLINE
  5
15AF
  8
0
 66
     1
 10
0.0
 20
0.0
 30
0.0
  0
VERTEX
  5
15B0
  8
0
 10
79.887283397375654
 20
137.6931279084979
 30
0.0
 42
0.0609736195238207
  0
VERTEX
  5
15B1
  8
0
 10
80.009878725786223
 20
136.6915509427125
 30
0.0
 42
0.0743431597850464
  0
VERTEX
  5
15B2
  8
0
 10
80.326623225595867
 20
135.9253609555316
 30
0.0
 42
0.1069431103829572
 70
     2
 50
300.9637565320736
  0
VERTEX
  5
15B3
  8
0
 10
80.859153796758008
 20
135.3577205020911
 30
0.0
 42
0.1522155302173723
 50
300.9637565320736
  0
VERTEX
  5
15B4
  8
0
 10
81.387283397375654
 20
135.1931279084979
 30
0.0
 42
0.1522155302173801
  0
VERTEX
  5
15B5
  8
0
 10
81.915412997993243
 20
135.3577205020911
 30
0.0
 42
0.1069431103829675
  0
VERTEX
  5
15B6
  8
0
 10
82.447943569155456
 20
135.9253609555316
 30
0.0
 42
0.0743431597850622
 70
     2
 50
59.036243467927527
  0
VERTEX
  5
15B7
  8
0
 10
82.764688068965015
 20
136.6915509427125
 30
0.0
 42
0.0609736195238349
 50
59.036243467927527
  0
VERTEX
  5
15B8
  8
0
 10
82.887283397375583
 20
137.6931279084979
 30
0.0
 42
0.0609736195238172
  0
SEQEND
  5
15B9
  8
0
  0
LINE
  5
15BA
  8
1
 10
155.72066924896021
 20
154.69312790849821
 30
0.0
 11
155.72066924896021
 21
70.693127908497843
 31
0.0
  0
LINE
  5
15BB
  8
0
 10
166.47066924896021
 20
109.6931279084979
 30
0.0
 11
144.97066924896009
 21
109.6931279084979
 31
0.0
  0
LINE
  5
15BC
  8
0
 10
167.22066924896021
 20
111.1931279084979
 30
0.0
 11
144.22066924896021
 21
111.1931279084979
 31
0.0
  0
LINE
  5
15BD
  8
0
 10
144.22066924896021
 20
111.1931279084979
 30
0.0
 11
144.97066924896009
 21
109.6931279084979
 31
0.0
  0
LINE
  5
15BE
  8
0
 10
166.47066924896021
 20
109.6931279084979
 30
0.0
 11
167.22066924896021
 21
111.1931279084979
 31
0.0
  0
LINE
  5
15BF
  8
0
 10
143.47066924896021
 20
131.6931279084979
 30
0.0
 11
144.22066924896021
 21
111.1931279084979
 31
0.0
  0
LINE
  5
15C0
  8
0
 10
167.97066924896021
 20
131.6931279084979
 30
0.0
 11
167.22066924896021
 21
111.1931279084979
 31
0.0
  0
LINE
  5
15C1
  8
0
 10
165.2307727963335
 20
149.69312790849779
 30
0.0
 11
146.24059361927911
 21
149.69312790849779
 31
0.0
  0
LINE
  5
15C2
  8
0
 10
166.07895789752499
 20
141.13600733442939
 30
0.0
 11
146.59706546226749
 21
141.13600733442939
 31
0.0
  0
LINE
  5
15C3
  8
0
 10
170.72066924896029
 20
145.0729183995532
 30
0.0
 11
170.72066924896029
 21
138.22627413329391
 31
0.0
  0
LINE
  5
15C4
  8
0
 10
164.60289387010761
 20
149.69312790849779
 30
0.0
 11
166.1083410361627
 21
149.69312790849779
 31
0.0
  0
LINE
  5
15C5
  8
0
 10
167.1703416065468
 20
149.25244598561349
 30
0.0
 11
170.28266981934431
 21
146.13223647666891
 31
0.0
  0
ARC
  5
15C6
  8
0
 10
166.1083410361627
 20
148.19312790849779
 30
0.0
 40
1.5
 50
44.927547206965833
 51
90.0
  0
ARC
  5
15C7
  8
0
 10
169.22066924896029
 20
145.0729183995532
 30
0.0
 40
1.5
 50
0.0
 51
44.927547206965833
  0
ARC
  5
15C8
  8
0
 10
179.99835020743049
 20
129.8106491358655
 30
0.0
 40
12.17410512391621
 50
142.01592220139429
 51
171.10467667631301
  0
ARC
  5
15C9
  8
0
 10
169.22066924896021
 20
138.22627413329391
 30
0.0
 40
1.5
 50
322.01592220139452
 51
0.0
  0
LINE
  5
15CA
  8
3
 10
166.7307727963335
 20
148.19312790849779
 30
0.0
 11
166.7307727963335
 21
142.63600733442939
 31
0.0
  0
LINE
  5
15CB
  8
0
 10
170.72066924896021
 20
138.22627413329391
 30
0.0
 11
167.25741688900629
 21
140.75193877028829
 31
0.0
  0
ARC
  5
15CC
  8
3
 10
165.2307727963335
 20
148.19312790849779
 30
0.0
 40
1.5
 50
0.0
 51
90.0
  0
ARC
  5
15CD
  8
3
 10
165.2307727963335
 20
142.63600733442939
 30
0.0
 40
1.5
 50
270.0
 51
0.0
  0
ARC
  5
15CE
  8
0
 10
166.07895789752499
 20
139.13600733442939
 30
0.0
 40
2.0
 50
53.897650071908792
 51
90.0
  0
LINE
  5
15CF
  8
3
 10
166.7307727963335
 20
148.19312790849779
 30
0.0
 11
144.73077279633361
 21
148.19312790849779
 31
0.0
  0
ARC
  5
15D0
  8
3
 10
146.59706546226749
 20
142.63600733442939
 30
0.0
 40
1.5
 50
180.0
 51
270.0
  0
LINE
  5
15D1
  8
3
 10
145.09706546226749
 20
148.19312790849779
 30
0.0
 11
145.09706546226749
 21
142.63600733442939
 31
0.0
  0
ARC
  5
15D2
  8
3
 10
146.59706546226749
 20
148.19312790849779
 30
0.0
 40
1.5
 50
90.0
 51
180.0
  0
LINE
  5
15D3
  8
0
 10
136.72066924896009
 20
146.6931279084979
 30
0.0
 11
136.72066924896001
 21
141.2959880555413
 31
0.0
  0
ARC
  5
15D4
  8
0
 10
146.24059361927911
 20
147.6931279084977
 30
0.0
 40
2.0
 50
90.0
 51
149.51874098472021
  0
ARC
  5
15D5
  8
0
 10
149.421718881863
 20
185.56243326744081
 30
0.0
 40
39.592332546903528
 50
253.24632832590009
 51
258.58594178971367
  0
ARC
  5
15D6
  8
0
 10
141.98227687712799
 20
148.7135775324906
 30
0.0
 40
2.0
 50
258.58594178971367
 51
329.51874098472013
  0
ARC
  5
15D7
  8
0
 10
137.72066924896021
 20
146.6931279084979
 30
0.0
 40
1.0
 50
73.246328325898503
 51
180.0
  0
LINE
  5
15D8
  8
0
 10
144.51700336722371
 20
148.70764091630971
 30
0.0
 11
143.70586712918339
 21
147.69906452467859
 31
0.0
  0
ARC
  5
15D9
  8
0
 10
131.1285952768196
 20
129.46782242939241
 30
0.0
 40
12.54108346233005
 50
10.220754972063069
 51
60.868199155746922
  0
ARC
  5
15DA
  8
0
 10
137.72066924896021
 20
141.2959880555413
 30
0.0
 40
1.0
 50
180.0
 51
240.86819915574731
  0
ARC
  5
15DB
  8
0
 10
140.2944350792483
 20
152.53562719598779
 30
0.0
 40
12.36998753370165
 50
254.4947051467928
 51
296.01574337099157
  0
TEXT
  5
168E
  8
0
 62
     3
 10
0.0
 20
0.0
 30
0.0
 40
10.0
  1
BLP10025-SUS
  7
STANDARD1
  0
ENDSEC
  0
EOF
