  0
SECTION
  2
HEADER
  9
$ACADVER
  1
AC1009
  9
$INSBASE
 10
0.0
 20
0.0
 30
0.0
  9
$EXTMIN
 10
0.0
 20
-1.4802182810368341
 30
0.0
  9
$EXTMAX
 10
156.63110536285561
 20
113.18075539568351
 30
0.0
  9
$LIMMIN
 10
0.0
 20
0.0
  9
$LIMMAX
 10
187.5
 20
135.0
  9
$ORTHOMODE
 70
     1
  9
$REGENMODE
 70
     1
  9
$FILLMODE
 70
     1
  9
$QTEXTMODE
 70
     0
  9
$MIRRTEXT
 70
     0
  9
$DRAGMODE
 70
     2
  9
$LTSCALE
 40
5.0
  9
$OSMODE
 70
  3071
  9
$ATTMODE
 70
     1
  9
$TEXTSIZE
 40
2.5000000000000488
  9
$TRACEWID
 40
0.05
  9
$TEXTSTYLE
  7
STANDARD
  9
$CLAYER
  8
0
  9
$CELTYPE
  6
BYLAYER
  9
$CECOLOR
 62
   256
  9
$DIMSCALE
 40
0.5
  9
$DIMASZ
 40
3.0
  9
$DIMEXO
 40
2.0
  9
$DIMDLI
 40
0.38
  9
$DIMRND
 40
0.0
  9
$DIMDLE
 40
0.0
  9
$DIMEXE
 40
2.0
  9
$DIMTP
 40
0.0
  9
$DIMTM
 40
0.0
  9
$DIMTXT
 40
3.2000000000000002
  9
$DIMCEN
 40
0.0
  9
$DIMTSZ
 40
0.0
  9
$DIMTOL
 70
     0
  9
$DIMLIM
 70
     0
  9
$DIMTIH
 70
     0
  9
$DIMTOH
 70
     0
  9
$DIMSE1
 70
     0
  9
$DIMSE2
 70
     0
  9
$DIMTAD
 70
     1
  9
$DIMZIN
 70
     0
  9
$DIMBLK
  1

  9
$DIMASO
 70
     0
  9
$DIMSHO
 70
     0
  9
$DIMPOST
  1

  9
$DIMAPOST
  1

  9
$DIMALT
 70
     0
  9
$DIMALTD
 70
     2
  9
$DIMALTF
 40
25.399999999999999
  9
$DIMLFAC
 40
1.0
  9
$DIMTOFL
 70
     1
  9
$DIMTVP
 40
1.6000000000000001
  9
$DIMTIX
 70
     1
  9
$DIMSOXD
 70
     0
  9
$DIMSAH
 70
     0
  9
$DIMBLK1
  1

  9
$DIMBLK2
  1

  9
$DIMSTYLE
  2
STANDARD
  9
$DIMCLRD
 70
     0
  9
$DIMCLRE
 70
     0
  9
$DIMCLRT
 70
     0
  9
$DIMTFAC
 40
1.0
  9
$DIMGAP
 40
0.09
  9
$LUNITS
 70
     2
  9
$LUPREC
 70
     4
  9
$SKETCHINC
 40
0.1
  9
$FILLETRAD
 40
0.0
  9
$AUNITS
 70
     0
  9
$AUPREC
 70
     4
  9
$MENU
  1
E:\r13\win\SUPPORT\ACAD
  9
$ELEVATION
 40
0.0
  9
$PELEVATION
 40
0.0
  9
$THICKNESS
 40
0.0
  9
$LIMCHECK
 70
     0
  9
$BLIPMODE
 70
     0
  9
$CHAMFERA
 40
0.0
  9
$CHAMFERB
 40
0.0
  9
$SKPOLY
 70
     0
  9
$TDCREATE
 40
2449840.6213541669
  9
$TDUPDATE
 40
2456598.4003833681
  9
$TDINDWG
 40
0.0006483333
  9
$TDUSRTIMER
 40
0.0006483333
  9
$USRTIMER
 70
     1
  9
$ANGBASE
 50
0.0
  9
$ANGDIR
 70
     0
  9
$PDMODE
 70
     0
  9
$PDSIZE
 40
0.0
  9
$PLINEWID
 40
0.0
  9
$COORDS
 70
     1
  9
$SPLFRAME
 70
     0
  9
$SPLINETYPE
 70
     6
  9
$SPLINESEGS
 70
     8
  9
$ATTDIA
 70
     0
  9
$ATTREQ
 70
     1
  9
$HANDLING
 70
     1
  9
$HANDSEED
  5
210
  9
$SURFTAB1
 70
     6
  9
$SURFTAB2
 70
     6
  9
$SURFTYPE
 70
     6
  9
$SURFU
 70
     6
  9
$SURFV
 70
     6
  9
$UCSNAME
  2

  9
$UCSORG
 10
0.0
 20
0.0
 30
0.0
  9
$UCSXDIR
 10
1.0
 20
0.0
 30
0.0
  9
$UCSYDIR
 10
0.0
 20
1.0
 30
0.0
  9
$PUCSNAME
  2

  9
$PUCSORG
 10
0.0
 20
0.0
 30
0.0
  9
$PUCSXDIR
 10
1.0
 20
0.0
 30
0.0
  9
$PUCSYDIR
 10
0.0
 20
1.0
 30
0.0
  9
$USERI1
 70
     0
  9
$USERI2
 70
     1
  9
$USERI3
 70
     0
  9
$USERI4
 70
     0
  9
$USERI5
 70
     0
  9
$USERR1
 40
0.0
  9
$USERR2
 40
0.0
  9
$USERR3
 40
0.0
  9
$USERR4
 40
0.0
  9
$USERR5
 40
0.0
  9
$WORLDVIEW
 70
     1
  9
$SHADEDGE
 70
     3
  9
$SHADEDIF
 70
    70
  9
$TILEMODE
 70
     1
  9
$MAXACTVP
 70
    16
  9
$PLIMCHECK
 70
     0
  9
$PEXTMIN
 10
1.0000000000000000E+020
 20
1.0000000000000000E+020
 30
1.0000000000000000E+020
  9
$PEXTMAX
 10
-1.0000000000000000E+020
 20
-1.0000000000000000E+020
 30
-1.0000000000000000E+020
  9
$PLIMMIN
 10
0.0
 20
0.0
  9
$PLIMMAX
 10
12.0
 20
9.0
  9
$UNITMODE
 70
     0
  9
$VISRETAIN
 70
     0
  9
$PLINEGEN
 70
     0
  9
$PSLTSCALE
 70
     0
  0
ENDSEC
  0
SECTION
  2
TABLES
  0
TABLE
  2
VPORT
 70
     1
  0
VPORT
  2
*ACTIVE
 70
     0
 10
0.0
 20
0.0
 11
1.0
 21
1.0
 12
97.52905416604365
 22
66.75636307133405
 13
0.0
 23
0.0
 14
5.0
 24
5.0
 15
5.0
 25
5.0
 16
0.0
 26
0.0
 36
1.0
 17
0.0
 27
0.0
 37
0.0
 40
137.71137496815999
 41
1.831871345029239
 42
50.0
 43
0.0
 44
0.0
 50
0.0
 51
0.0
 71
     0
 72
   500
 73
     1
 74
     0
 75
     0
 76
     0
 77
     0
 78
     2
  0
ENDTAB
  0
TABLE
  2
LTYPE
 70
     4
  0
LTYPE
  2
CONTINUOUS
 70
     0
  3
Solid Line
 72
    65
 73
     0
 40
0.0
  0
LTYPE
  2
CENTER
 70
     0
  3
____ _ ____ _ ____ _ ____ _ ____ _ ____ _ ____
 72
    65
 73
     4
 40
2.0
 49
1.25
 49
-0.25
 49
0.25
 49
-0.25
  0
LTYPE
  2
HIDDEN
 70
     0
  3
_ _ _ _ _ _ _ _ _ _ _ _ _ _ _ _ _ _ _ _ _ _ _
 72
    65
 73
     2
 40
0.375
 49
0.25
 49
-0.125
  0
LTYPE
  2
PHANTOM2
 70
     0
  3
___ _ _ ___ _ _ ___ _ _ ___ _ _
 72
    65
 73
     6
 40
1.25
 49
0.625
 49
-0.125
 49
0.125
 49
-0.125
 49
0.125
 49
-0.125
  0
ENDTAB
  0
TABLE
  2
LAYER
 70
     4
  0
LAYER
  2
0
 70
     0
 62
     7
  6
CONTINUOUS
  0
LAYER
  2
1
 70
     0
 62
     1
  6
CENTER
  0
LAYER
  2
2
 70
     0
 62
     2
  6
HIDDEN
  0
LAYER
  2
3
 70
     0
 62
     3
  6
CONTINUOUS
  0
ENDTAB
  0
TABLE
  2
STYLE
 70
     2
  0
STYLE
  2
STANDARD
 70
     0
 40
0.0
 41
1.0
 50
0.0
 71
     0
 42
2.5000000000000488
  3
TXT
  4
BIGFONT
  0
STYLE
  2
STANDARD1
 70
     0
 40
0.0
 41
1.0
 50
0.0
 71
     0
 42
3.0
  3
txt
  4

  0
ENDTAB
  0
TABLE
  2
VIEW
 70
     1
  0
VIEW
  2
ALL
 70
     0
 40
135.0
 10
110.4957983193277
 20
67.5
 41
0.0
 11
0.0
 21
0.0
 31
1.0
 12
0.0
 22
0.0
 32
0.0
 42
0.0
 43
0.0
 44
0.0
 50
0.0
 71
     0
  0
ENDTAB
  0
TABLE
  2
UCS
 70
     0
  0
ENDTAB
  0
TABLE
  2
APPID
 70
     3
  0
APPID
  2
ACAD
 70
     0
  0
APPID
  2
ACAD_MLEADERVER
 70
     0
  0
APPID
  2
ACAD_NAV_VCDISPLAY
 70
     0
  0
ENDTAB
  0
TABLE
  2
DIMSTYLE
 70
     1
  0
DIMSTYLE
  2
STANDARD
 70
     0
  3

  4

  5

  6

  7

 40
1.0
 41
0.18
 42
0.0625
 43
0.38
 44
0.18
 45
0.0
 46
0.0
 47
0.0
 48
0.0
140
0.18
141
0.09
142
0.0
143
25.399999999999999
144
1.0
145
0.0
146
1.0
147
0.09
 71
     0
 72
     0
 73
     1
 74
     1
 75
     0
 76
     0
 77
     0
 78
     0
170
     0
171
     2
172
     0
173
     0
174
     0
175
     0
176
     0
177
     0
178
     0
  0
ENDTAB
  0
ENDSEC
  0
SECTION
  2
BLOCKS
  0
BLOCK
  8
0
  2
$MODEL_SPACE
 70
     0
 10
0.0
 20
0.0
 30
0.0
  3
$MODEL_SPACE
  1

  0
ENDBLK
  5
C4
  8
0
  0
BLOCK
 67
     1
  8
0
  2
$PAPER_SPACE
 70
     0
 10
0.0
 20
0.0
 30
0.0
  3
$PAPER_SPACE
  1

  0
ENDBLK
  5
C2
 67
     1
  8
0
  0
ENDSEC
  0
SECTION
  2
ENTITIES
  0
CIRCLE
  5
36
  8
0
 10
35.0
 20
68.837679856115116
 30
0.0
 40
5.0
  0
CIRCLE
  5
37
  8
3
 10
35.0
 20
68.837679856115116
 30
0.0
 40
4.1879999999998736
  0
LINE
  5
38
  8
0
 10
37.499999997964331
 20
70.281055527914916
 30
0.0
 11
37.499999997964331
 21
67.394304181967229
 31
0.0
  0
LINE
  5
39
  8
0
 10
37.499999997962497
 20
67.394304184315089
 30
0.0
 11
34.999999997964331
 21
65.950928511341019
 31
0.0
  0
LINE
  5
3A
  8
0
 10
34.999999999999773
 20
65.95092851251745
 30
0.0
 11
32.499999999999773
 21
67.394304185491066
 31
0.0
  0
LINE
  5
3B
  8
0
 10
32.500000002033403
 20
67.394304184316908
 30
0.0
 11
32.500000002033403
 21
70.281055530264595
 31
0.0
  0
LINE
  5
3C
  8
0
 10
32.500000002033403
 20
70.281055527914916
 30
0.0
 11
35.000000002033403
 21
71.724431200888986
 31
0.0
  0
LINE
  5
3D
  8
0
 10
34.999999999999773
 20
71.724431199712555
 30
0.0
 11
37.499999999999773
 21
70.281055526738939
 31
0.0
  0
LINE
  5
3E
  8
1
 10
42.5
 20
68.837679856115116
 30
0.0
 11
27.5
 21
68.837679856115116
 31
0.0
  0
LINE
  5
3F
  8
1
 10
35.0
 20
76.337679856115116
 30
0.0
 11
35.0
 21
61.337679856115123
 31
0.0
  0
LINE
  5
40
  8
2
 10
86.025514765510664
 20
71.724431199713393
 30
0.0
 11
87.692181430820696
 21
68.837679856115045
 31
0.0
  0
LINE
  5
41
  8
2
 10
86.025514765510664
 20
65.950928512516711
 30
0.0
 11
87.692181430820668
 21
68.837679856115045
 31
0.0
  0
LINE
  5
42
  8
0
 10
95.160451256049541
 20
63.837679856115052
 30
0.0
 11
82.825514765510675
 21
63.837679856115123
 31
0.0
  0
LINE
  5
43
  8
0
 10
95.160451256049683
 20
73.837679856115045
 30
0.0
 11
82.825514765510604
 21
73.837679856115045
 31
0.0
  0
LINE
  5
44
  8
3
 10
96.63751476551073
 20
64.649679856115057
 30
0.0
 11
82.356706346928732
 21
64.649679856115185
 31
0.0
  0
LINE
  5
45
  8
3
 10
96.63751476551073
 20
73.025679856114976
 30
0.0
 11
82.356706346928576
 21
73.025679856115048
 31
0.0
  0
LINE
  5
46
  8
0
 10
97.325514765510761
 20
72.587679856115102
 30
0.0
 11
97.325514765510661
 21
65.087679856115088
 31
0.0
  0
LINE
  5
47
  8
0
 10
82.025514765510607
 20
72.452039210060022
 30
0.0
 11
82.025514765510721
 21
65.223320502170495
 31
0.0
  0
LINE
  5
48
  8
2
 10
86.025514765510607
 20
71.724431199713749
 30
0.0
 11
86.025514765510664
 21
65.950928512516711
 31
0.0
  0
LINE
  5
49
  8
0
 10
82.825514765510604
 20
73.837679856115045
 30
0.0
 11
82.825514765510675
 21
63.837679856115123
 31
0.0
  0
LINE
  5
4A
  8
0
 10
82.825514765510675
 20
73.837679856115045
 30
0.0
 11
82.025514765510607
 21
72.452039210060022
 31
0.0
  0
LINE
  5
4B
  8
0
 10
82.825514765510675
 20
63.837679856115287
 30
0.0
 11
82.025514765510607
 21
65.223320502170438
 31
0.0
  0
LINE
  5
4C
  8
2
 10
86.025514765510607
 20
71.724431199713749
 30
0.0
 11
82.025514765510607
 21
71.724431199713749
 31
0.0
  0
LINE
  5
4D
  8
2
 10
86.025514765510607
 20
70.281055527914177
 30
0.0
 11
82.025514765510607
 21
70.281055527914177
 31
0.0
  0
LINE
  5
4E
  8
2
 10
86.025514765510607
 20
67.394304184316283
 30
0.0
 11
82.025514765510607
 21
67.394304184316283
 31
0.0
  0
LINE
  5
4F
  8
2
 10
86.025514765510607
 20
65.950928512516711
 30
0.0
 11
82.025514765510607
 21
65.950928512516711
 31
0.0
  0
LINE
  5
50
  8
1
 10
79.525514765510664
 20
68.837679856115102
 30
0.0
 11
102.2255147655103
 21
68.837679856115102
 31
0.0
  0
LINE
  5
51
  8
0
 10
97.32551476551069
 20
72.587679856115102
 30
0.0
 11
95.160451256049726
 21
73.837679856115045
 31
0.0
  0
LINE
  5
52
  8
0
 10
97.32551476551069
 20
65.087679856115102
 30
0.0
 11
95.160451256049726
 21
63.83767985611518
 31
0.0
  0
LINE
  5
53
  8
0
 10
95.160451256049555
 20
63.837679856115059
 30
0.0
 11
95.160451256049726
 21
73.837679856115045
 31
0.0
  0
LINE
  5
54
  8
1
 10
96.225514765510354
 20
62.837679856115123
 30
0.0
 11
96.225514765510383
 21
74.83767985611513
 31
0.0
  0
ARC
  5
55
  8
0
 10
96.225514765510383
 20
68.83767985611513
 30
0.0
 40
3.5
 50
288.31769841120439
 51
71.682301588793948
  0
ARC
  5
56
  8
2
 10
96.225514765510383
 20
68.83767985611513
 30
0.0
 40
3.5
 50
71.682301588794161
 51
288.31769841120439
  0
LINE
  5
60
  8
1
 10
149.13110536285561
 20
76.337679856115116
 30
0.0
 11
149.13110536285561
 21
61.337679856115123
 31
0.0
  0
LINE
  5
61
  8
1
 10
156.63110536285561
 20
68.837679856115116
 30
0.0
 11
141.63110536285561
 21
68.837679856115116
 31
0.0
  0
CIRCLE
  5
62
  8
3
 10
149.13110536285561
 20
68.837679856115116
 30
0.0
 40
4.1879999999998736
  0
CIRCLE
  5
63
  8
0
 10
149.13110536285561
 20
68.837679856115116
 30
0.0
 40
5.0
  0
CIRCLE
  5
64
  8
0
 10
149.13110536285561
 20
68.837679856115116
 30
0.0
 40
3.3226495451666831
  0
ARC
  5
65
  8
2
 10
96.225514765510383
 20
107.18075539568351
 30
0.0
 40
3.5
 50
71.682301588794161
 51
288.31769841120439
  0
ARC
  5
66
  8
0
 10
96.225514765510383
 20
107.18075539568351
 30
0.0
 40
3.5
 50
288.31769841120439
 51
71.682301588793948
  0
LINE
  5
67
  8
1
 10
96.225514765510354
 20
101.18075539568341
 30
0.0
 11
96.225514765510383
 21
113.18075539568351
 31
0.0
  0
LINE
  5
68
  8
0
 10
95.160451256049555
 20
102.18075539568341
 30
0.0
 11
95.160451256049726
 21
112.18075539568341
 31
0.0
  0
LINE
  5
69
  8
0
 10
97.32551476551069
 20
103.43075539568341
 30
0.0
 11
95.160451256049726
 21
102.18075539568351
 31
0.0
  0
LINE
  5
6A
  8
0
 10
97.32551476551069
 20
110.93075539568341
 30
0.0
 11
95.160451256049726
 21
112.18075539568341
 31
0.0
  0
LINE
  5
6B
  8
1
 10
79.525514765510664
 20
107.18075539568341
 30
0.0
 11
102.2255147655103
 21
107.18075539568341
 31
0.0
  0
LINE
  5
6C
  8
0
 10
82.825514765510675
 20
102.1807553956836
 30
0.0
 11
82.025514765510607
 21
103.5663960417388
 31
0.0
  0
LINE
  5
6D
  8
0
 10
82.825514765510675
 20
112.18075539568341
 30
0.0
 11
82.025514765510607
 21
110.7951147496283
 31
0.0
  0
LINE
  5
6E
  8
0
 10
82.825514765510604
 20
112.18075539568341
 30
0.0
 11
82.825514765510675
 21
102.18075539568341
 31
0.0
  0
LINE
  5
6F
  8
2
 10
86.025514765510607
 20
109.6807553936479
 30
0.0
 11
86.025514765510664
 21
104.68075539771689
 31
0.0
  0
LINE
  5
70
  8
0
 10
82.025514765510607
 20
110.7951147496283
 30
0.0
 11
82.025514765510721
 21
103.5663960417388
 31
0.0
  0
LINE
  5
71
  8
0
 10
97.325514765510761
 20
110.93075539568341
 30
0.0
 11
97.325514765510661
 21
103.43075539568341
 31
0.0
  0
LINE
  5
72
  8
3
 10
96.63751476551073
 20
111.36875539568329
 30
0.0
 11
82.356706346928576
 21
111.36875539568339
 31
0.0
  0
LINE
  5
73
  8
3
 10
96.63751476551073
 20
102.9927553956834
 30
0.0
 11
82.356706346928732
 21
102.9927553956835
 31
0.0
  0
LINE
  5
74
  8
0
 10
95.160451256049683
 20
112.18075539568341
 30
0.0
 11
82.825514765510604
 21
112.18075539568341
 31
0.0
  0
LINE
  5
75
  8
0
 10
95.160451256049541
 20
102.18075539568341
 30
0.0
 11
82.825514765510675
 21
102.18075539568341
 31
0.0
  0
LINE
  5
76
  8
2
 10
82.025514765510636
 20
109.6807553936478
 30
0.0
 11
86.025514765510607
 21
109.6807553936478
 31
0.0
  0
LINE
  5
77
  8
2
 10
82.025514765510664
 20
107.18075539568351
 30
0.0
 11
86.025514765510636
 21
107.18075539568351
 31
0.0
  0
LINE
  5
78
  8
2
 10
82.025514765510707
 20
104.68075539771689
 30
0.0
 11
86.025514765510664
 21
104.68075539771689
 31
0.0
  0
LINE
  5
79
  8
2
 10
86.025514765510664
 20
104.68075539771689
 30
0.0
 11
87.692181430820668
 21
107.18075539568341
 31
0.0
  0
LINE
  5
7A
  8
2
 10
86.025514765510607
 20
109.6807553936478
 30
0.0
 11
87.692181430820668
 21
107.18075539568341
 31
0.0
  0
LINE
  5
7B
  8
0
 10
95.160451256049541
 20
20.726169064748149
 30
0.0
 11
82.825514765510675
 21
20.726169064748198
 31
0.0
  0
LINE
  5
7C
  8
0
 10
95.160451256049683
 20
30.726169064748131
 30
0.0
 11
82.825514765510604
 21
30.726169064748149
 31
0.0
  0
LINE
  5
7D
  8
3
 10
96.63751476551073
 20
21.53816906474815
 30
0.0
 11
82.356706346928732
 21
21.538169064748281
 31
0.0
  0
LINE
  5
7E
  8
3
 10
96.63751476551073
 20
29.914169064748069
 30
0.0
 11
82.356706346928576
 21
29.91416906474814
 31
0.0
  0
LINE
  5
7F
  8
0
 10
97.325514765510761
 20
29.476169064748191
 30
0.0
 11
97.325514765510661
 21
21.976169064748181
 31
0.0
  0
LINE
  5
80
  8
0
 10
82.025514765510607
 20
29.340528418693111
 30
0.0
 11
82.025514765510721
 21
22.11180971080358
 31
0.0
  0
LINE
  5
81
  8
0
 10
82.825514765510604
 20
30.726169064748149
 30
0.0
 11
82.825514765510675
 21
20.726169064748198
 31
0.0
  0
LINE
  5
82
  8
0
 10
82.825514765510675
 20
30.726169064748149
 30
0.0
 11
82.025514765510607
 21
29.340528418693111
 31
0.0
  0
LINE
  5
83
  8
0
 10
82.825514765510675
 20
20.72616906474838
 30
0.0
 11
82.025514765510607
 21
22.111809710803531
 31
0.0
  0
LINE
  5
84
  8
1
 10
79.525514765510664
 20
25.726169064748191
 30
0.0
 11
102.2255147655103
 21
25.726169064748191
 31
0.0
  0
LINE
  5
85
  8
0
 10
97.32551476551069
 20
29.476169064748191
 30
0.0
 11
95.160451256049726
 21
30.726169064748131
 31
0.0
  0
LINE
  5
86
  8
0
 10
97.32551476551069
 20
21.976169064748191
 30
0.0
 11
95.160451256049726
 21
20.72616906474828
 31
0.0
  0
LINE
  5
87
  8
0
 10
95.160451256049555
 20
20.72616906474817
 30
0.0
 11
95.160451256049726
 21
30.726169064748131
 31
0.0
  0
LINE
  5
88
  8
1
 10
96.225514765510354
 20
19.72616906474822
 30
0.0
 11
96.225514765510383
 21
31.72616906474822
 31
0.0
  0
ARC
  5
89
  8
0
 10
96.225514765510383
 20
25.72616906474822
 30
0.0
 40
3.5
 50
288.31769841120439
 51
71.682301588793948
  0
ARC
  5
8A
  8
2
 10
96.225514765510383
 20
25.72616906474822
 30
0.0
 40
3.5
 50
71.682301588794161
 51
288.31769841120439
  0
LINE
  5
8B
  8
2
 10
86.025514765510607
 20
28.2261690627126
 30
0.0
 11
86.025514765510678
 21
23.226169066781651
 31
0.0
  0
LINE
  5
8C
  8
2
 10
82.025514765510636
 20
28.226169062712561
 30
0.0
 11
86.025514765510607
 21
28.226169062712589
 31
0.0
  0
LINE
  5
8D
  8
2
 10
82.025514765510678
 20
25.726169064748191
 30
0.0
 11
86.02551476551065
 21
25.726169064748252
 31
0.0
  0
LINE
  5
8E
  8
2
 10
82.025514765510721
 20
23.22616906678164
 30
0.0
 11
86.025514765510678
 21
23.226169066781679
 31
0.0
  0
LINE
  5
8F
  8
2
 10
86.025514765510678
 20
23.226169066781651
 30
0.0
 11
87.692181430820696
 21
25.726169064748131
 31
0.0
  0
LINE
  5
90
  8
2
 10
86.025514765510607
 20
28.226169062712589
 30
0.0
 11
87.692181430820696
 21
25.726169064748131
 31
0.0
  0
TEXT
  5
17F
  8
0
 62
     3
 10
0.0
 20
0.0
 30
0.0
 40
5.0
  1
BSR10X16
  7
STANDARD1
  0
ENDSEC
  0
EOF
