  0
SECTION
  2
HEADER
  9
$ACADVER
  1
AC1009
  9
$INSBASE
 10
0.0
 20
0.0
 30
0.0
  9
$EXTMIN
 10
0.0
 20
-1.4802182810368341
 30
0.0
  9
$EXTMAX
 10
161.1566916823495
 20
114.99505395683479
 30
0.0
  9
$LIMMIN
 10
0.0
 20
0.0
  9
$LIMMAX
 10
187.5
 20
135.0
  9
$ORTHOMODE
 70
     1
  9
$REGENMODE
 70
     1
  9
$FILLMODE
 70
     1
  9
$QTEXTMODE
 70
     0
  9
$MIRRTEXT
 70
     0
  9
$DRAGMODE
 70
     2
  9
$LTSCALE
 40
5.0
  9
$OSMODE
 70
  3071
  9
$ATTMODE
 70
     1
  9
$TEXTSIZE
 40
2.5000000000000488
  9
$TRACEWID
 40
0.05
  9
$TEXTSTYLE
  7
STANDARD
  9
$CLAYER
  8
0
  9
$CELTYPE
  6
BYLAYER
  9
$CECOLOR
 62
   256
  9
$DIMSCALE
 40
0.5
  9
$DIMASZ
 40
3.0
  9
$DIMEXO
 40
2.0
  9
$DIMDLI
 40
0.38
  9
$DIMRND
 40
0.0
  9
$DIMDLE
 40
0.0
  9
$DIMEXE
 40
2.0
  9
$DIMTP
 40
0.0
  9
$DIMTM
 40
0.0
  9
$DIMTXT
 40
3.2000000000000002
  9
$DIMCEN
 40
0.0
  9
$DIMTSZ
 40
0.0
  9
$DIMTOL
 70
     0
  9
$DIMLIM
 70
     0
  9
$DIMTIH
 70
     0
  9
$DIMTOH
 70
     0
  9
$DIMSE1
 70
     0
  9
$DIMSE2
 70
     0
  9
$DIMTAD
 70
     1
  9
$DIMZIN
 70
     0
  9
$DIMBLK
  1

  9
$DIMASO
 70
     0
  9
$DIMSHO
 70
     0
  9
$DIMPOST
  1

  9
$DIMAPOST
  1

  9
$DIMALT
 70
     0
  9
$DIMALTD
 70
     2
  9
$DIMALTF
 40
25.399999999999999
  9
$DIMLFAC
 40
1.0
  9
$DIMTOFL
 70
     1
  9
$DIMTVP
 40
1.6000000000000001
  9
$DIMTIX
 70
     1
  9
$DIMSOXD
 70
     0
  9
$DIMSAH
 70
     0
  9
$DIMBLK1
  1

  9
$DIMBLK2
  1

  9
$DIMSTYLE
  2
STANDARD
  9
$DIMCLRD
 70
     0
  9
$DIMCLRE
 70
     0
  9
$DIMCLRT
 70
     0
  9
$DIMTFAC
 40
1.0
  9
$DIMGAP
 40
0.09
  9
$LUNITS
 70
     2
  9
$LUPREC
 70
     4
  9
$SKETCHINC
 40
0.1
  9
$FILLETRAD
 40
0.0
  9
$AUNITS
 70
     0
  9
$AUPREC
 70
     4
  9
$MENU
  1
E:\r13\win\SUPPORT\ACAD
  9
$ELEVATION
 40
0.0
  9
$PELEVATION
 40
0.0
  9
$THICKNESS
 40
0.0
  9
$LIMCHECK
 70
     0
  9
$BLIPMODE
 70
     0
  9
$CHAMFERA
 40
0.0
  9
$CHAMFERB
 40
0.0
  9
$SKPOLY
 70
     0
  9
$TDCREATE
 40
2449840.6213888889
  9
$TDUPDATE
 40
2456598.4004855668
  9
$TDINDWG
 40
0.0003728935
  9
$TDUSRTIMER
 40
0.0003728935
  9
$USRTIMER
 70
     1
  9
$ANGBASE
 50
0.0
  9
$ANGDIR
 70
     0
  9
$PDMODE
 70
     0
  9
$PDSIZE
 40
0.0
  9
$PLINEWID
 40
0.0
  9
$COORDS
 70
     1
  9
$SPLFRAME
 70
     0
  9
$SPLINETYPE
 70
     6
  9
$SPLINESEGS
 70
     8
  9
$ATTDIA
 70
     0
  9
$ATTREQ
 70
     1
  9
$HANDLING
 70
     1
  9
$HANDSEED
  5
210
  9
$SURFTAB1
 70
     6
  9
$SURFTAB2
 70
     6
  9
$SURFTYPE
 70
     6
  9
$SURFU
 70
     6
  9
$SURFV
 70
     6
  9
$UCSNAME
  2

  9
$UCSORG
 10
0.0
 20
0.0
 30
0.0
  9
$UCSXDIR
 10
1.0
 20
0.0
 30
0.0
  9
$UCSYDIR
 10
0.0
 20
1.0
 30
0.0
  9
$PUCSNAME
  2

  9
$PUCSORG
 10
0.0
 20
0.0
 30
0.0
  9
$PUCSXDIR
 10
1.0
 20
0.0
 30
0.0
  9
$PUCSYDIR
 10
0.0
 20
1.0
 30
0.0
  9
$USERI1
 70
     0
  9
$USERI2
 70
     1
  9
$USERI3
 70
     0
  9
$USERI4
 70
     0
  9
$USERI5
 70
     0
  9
$USERR1
 40
0.0
  9
$USERR2
 40
0.0
  9
$USERR3
 40
0.0
  9
$USERR4
 40
0.0
  9
$USERR5
 40
0.0
  9
$WORLDVIEW
 70
     1
  9
$SHADEDGE
 70
     3
  9
$SHADEDIF
 70
    70
  9
$TILEMODE
 70
     1
  9
$MAXACTVP
 70
    16
  9
$PLIMCHECK
 70
     0
  9
$PEXTMIN
 10
1.0000000000000000E+020
 20
1.0000000000000000E+020
 30
1.0000000000000000E+020
  9
$PEXTMAX
 10
-1.0000000000000000E+020
 20
-1.0000000000000000E+020
 30
-1.0000000000000000E+020
  9
$PLIMMIN
 10
0.0
 20
0.0
  9
$PLIMMAX
 10
12.0
 20
9.0
  9
$UNITMODE
 70
     0
  9
$VISRETAIN
 70
     0
  9
$PLINEGEN
 70
     0
  9
$PSLTSCALE
 70
     0
  0
ENDSEC
  0
SECTION
  2
TABLES
  0
TABLE
  2
VPORT
 70
     1
  0
VPORT
  2
*ACTIVE
 70
     0
 10
0.0
 20
0.0
 11
1.0
 21
1.0
 12
97.52905416604365
 22
66.75636307133405
 13
0.0
 23
0.0
 14
5.0
 24
5.0
 15
5.0
 25
5.0
 16
0.0
 26
0.0
 36
1.0
 17
0.0
 27
0.0
 37
0.0
 40
137.71137496815999
 41
1.831871345029239
 42
50.0
 43
0.0
 44
0.0
 50
0.0
 51
0.0
 71
     0
 72
   500
 73
     1
 74
     0
 75
     0
 76
     0
 77
     0
 78
     2
  0
ENDTAB
  0
TABLE
  2
LTYPE
 70
     4
  0
LTYPE
  2
CONTINUOUS
 70
     0
  3
Solid Line
 72
    65
 73
     0
 40
0.0
  0
LTYPE
  2
CENTER
 70
     0
  3
____ _ ____ _ ____ _ ____ _ ____ _ ____ _ ____
 72
    65
 73
     4
 40
2.0
 49
1.25
 49
-0.25
 49
0.25
 49
-0.25
  0
LTYPE
  2
HIDDEN
 70
     0
  3
_ _ _ _ _ _ _ _ _ _ _ _ _ _ _ _ _ _ _ _ _ _ _
 72
    65
 73
     2
 40
0.375
 49
0.25
 49
-0.125
  0
LTYPE
  2
PHANTOM2
 70
     0
  3
___ _ _ ___ _ _ ___ _ _ ___ _ _
 72
    65
 73
     6
 40
1.25
 49
0.625
 49
-0.125
 49
0.125
 49
-0.125
 49
0.125
 49
-0.125
  0
ENDTAB
  0
TABLE
  2
LAYER
 70
     4
  0
LAYER
  2
0
 70
     0
 62
     7
  6
CONTINUOUS
  0
LAYER
  2
1
 70
     0
 62
     1
  6
CENTER
  0
LAYER
  2
2
 70
     0
 62
     2
  6
HIDDEN
  0
LAYER
  2
3
 70
     0
 62
     3
  6
CONTINUOUS
  0
ENDTAB
  0
TABLE
  2
STYLE
 70
     2
  0
STYLE
  2
STANDARD
 70
     0
 40
0.0
 41
1.0
 50
0.0
 71
     0
 42
2.5000000000000488
  3
TXT
  4
BIGFONT
  0
STYLE
  2
STANDARD1
 70
     0
 40
0.0
 41
1.0
 50
0.0
 71
     0
 42
3.0
  3
txt
  4

  0
ENDTAB
  0
TABLE
  2
VIEW
 70
     1
  0
VIEW
  2
ALL
 70
     0
 40
87.5
 10
71.617647058823522
 20
43.75
 41
0.0
 11
0.0
 21
0.0
 31
1.0
 12
0.0
 22
0.0
 32
0.0
 42
0.0
 43
0.0
 44
0.0
 50
0.0
 71
     0
  0
ENDTAB
  0
TABLE
  2
UCS
 70
     0
  0
ENDTAB
  0
TABLE
  2
APPID
 70
     3
  0
APPID
  2
ACAD
 70
     0
  0
APPID
  2
ACAD_MLEADERVER
 70
     0
  0
APPID
  2
ACAD_NAV_VCDISPLAY
 70
     0
  0
ENDTAB
  0
TABLE
  2
DIMSTYLE
 70
     1
  0
DIMSTYLE
  2
STANDARD
 70
     0
  3

  4

  5

  6

  7

 40
1.0
 41
0.18
 42
0.0625
 43
0.38
 44
0.18
 45
0.0
 46
0.0
 47
0.0
 48
0.0
140
0.18
141
0.09
142
0.0
143
25.399999999999999
144
1.0
145
0.0
146
1.0
147
0.09
 71
     0
 72
     0
 73
     1
 74
     1
 75
     0
 76
     0
 77
     0
 78
     0
170
     0
171
     2
172
     0
173
     0
174
     0
175
     0
176
     0
177
     0
178
     0
  0
ENDTAB
  0
ENDSEC
  0
SECTION
  2
BLOCKS
  0
BLOCK
  8
0
  2
$MODEL_SPACE
 70
     0
 10
0.0
 20
0.0
 30
0.0
  3
$MODEL_SPACE
  1

  0
ENDBLK
  5
C4
  8
0
  0
BLOCK
 67
     1
  8
0
  2
$PAPER_SPACE
 70
     0
 10
0.0
 20
0.0
 30
0.0
  3
$PAPER_SPACE
  1

  0
ENDBLK
  5
C2
 67
     1
  8
0
  0
ENDSEC
  0
SECTION
  2
ENTITIES
  0
CIRCLE
  5
36
  8
0
 10
32.275205852346431
 20
69.970773381294961
 30
0.0
 40
5.0
  0
CIRCLE
  5
37
  8
3
 10
32.275205852346431
 20
69.970773381294961
 30
0.0
 40
4.1879999999998736
  0
LINE
  5
38
  8
0
 10
34.775205850310762
 20
71.414149053094761
 30
0.0
 11
34.775205850310762
 21
68.527397707147074
 31
0.0
  0
LINE
  5
39
  8
0
 10
34.775205850308943
 20
68.527397709494934
 30
0.0
 11
32.275205850310762
 21
67.084022036520864
 31
0.0
  0
LINE
  5
3A
  8
0
 10
32.275205852346197
 20
67.084022037697295
 30
0.0
 11
29.7752058523462
 21
68.527397710670911
 31
0.0
  0
LINE
  5
3B
  8
0
 10
29.775205854379841
 20
68.527397709496753
 30
0.0
 11
29.775205854379841
 21
71.41414905544444
 31
0.0
  0
LINE
  5
3C
  8
0
 10
29.775205854379841
 20
71.414149053094761
 30
0.0
 11
32.275205854379841
 21
72.857524726068831
 31
0.0
  0
LINE
  5
3D
  8
0
 10
32.275205852346197
 20
72.8575247248924
 30
0.0
 11
34.775205852346197
 21
71.414149051918784
 31
0.0
  0
LINE
  5
3E
  8
1
 10
39.775205852346431
 20
69.970773381294961
 30
0.0
 11
24.775205852346431
 21
69.970773381294961
 31
0.0
  0
LINE
  5
3F
  8
1
 10
32.275205852346431
 20
77.470773381294961
 30
0.0
 11
32.275205852346431
 21
62.470773381294961
 31
0.0
  0
LINE
  5
40
  8
2
 10
74.0
 20
72.857524724893253
 30
0.0
 11
75.666666665310032
 21
69.970773381294904
 31
0.0
  0
LINE
  5
41
  8
2
 10
74.0
 20
67.084022037696556
 30
0.0
 11
75.666666665310004
 21
69.970773381294904
 31
0.0
  0
LINE
  5
42
  8
0
 10
102.13493649053891
 20
64.970773381295203
 30
0.0
 11
70.800000000000011
 21
64.970773381294961
 31
0.0
  0
LINE
  5
43
  8
0
 10
102.134936490539
 20
74.970773381295189
 30
0.0
 11
70.799999999999955
 21
74.970773381294904
 31
0.0
  0
LINE
  5
44
  8
3
 10
103.61200000000009
 20
65.782773381295215
 30
0.0
 11
70.331191581418068
 21
65.782773381295016
 31
0.0
  0
LINE
  5
45
  8
3
 10
103.61200000000009
 20
74.158773381295134
 30
0.0
 11
70.331191581417897
 21
74.158773381294893
 31
0.0
  0
LINE
  5
46
  8
0
 10
104.3000000000001
 20
73.72077338129526
 30
0.0
 11
104.3
 21
66.220773381295231
 31
0.0
  0
LINE
  5
47
  8
0
 10
69.999999999999943
 20
73.585132735239867
 30
0.0
 11
70.000000000000057
 21
66.35641402735034
 31
0.0
  0
LINE
  5
48
  8
2
 10
73.999999999999943
 20
72.857524724893594
 30
0.0
 11
74.0
 21
67.084022037696556
 31
0.0
  0
LINE
  5
49
  8
0
 10
70.799999999999955
 20
74.970773381294904
 30
0.0
 11
70.800000000000011
 21
64.970773381294961
 31
0.0
  0
LINE
  5
4A
  8
0
 10
70.800000000000011
 20
74.970773381294904
 30
0.0
 11
69.999999999999943
 21
73.585132735239867
 31
0.0
  0
LINE
  5
4B
  8
0
 10
70.800000000000011
 20
64.970773381295132
 30
0.0
 11
69.999999999999943
 21
66.356414027350283
 31
0.0
  0
LINE
  5
4C
  8
2
 10
73.999999999999943
 20
72.857524724893594
 30
0.0
 11
69.999999999999943
 21
72.857524724893594
 31
0.0
  0
LINE
  5
4D
  8
2
 10
73.999999999999943
 20
71.414149053094022
 30
0.0
 11
69.999999999999943
 21
71.414149053094022
 31
0.0
  0
LINE
  5
4E
  8
2
 10
73.999999999999943
 20
68.527397709496128
 30
0.0
 11
69.999999999999943
 21
68.527397709496128
 31
0.0
  0
LINE
  5
4F
  8
2
 10
73.999999999999943
 20
67.084022037696556
 30
0.0
 11
69.999999999999943
 21
67.084022037696556
 31
0.0
  0
LINE
  5
50
  8
1
 10
67.5
 20
69.970773381294947
 30
0.0
 11
109.1999999999997
 21
69.97077338129526
 31
0.0
  0
LINE
  5
51
  8
0
 10
104.3
 20
73.72077338129526
 30
0.0
 11
102.1349364905391
 21
74.970773381295174
 31
0.0
  0
LINE
  5
52
  8
0
 10
104.3
 20
66.22077338129526
 30
0.0
 11
102.1349364905391
 21
64.970773381295317
 31
0.0
  0
LINE
  5
53
  8
0
 10
102.13493649053891
 20
64.970773381295203
 30
0.0
 11
102.1349364905391
 21
74.970773381295189
 31
0.0
  0
LINE
  5
54
  8
1
 10
103.1999999999997
 20
63.970773381295267
 30
0.0
 11
103.1999999999997
 21
75.97077338129526
 31
0.0
  0
ARC
  5
55
  8
0
 10
103.1999999999997
 20
69.970773381295231
 30
0.0
 40
3.5
 50
288.31769841120411
 51
71.682301588794417
  0
ARC
  5
56
  8
2
 10
103.1999999999997
 20
69.970773381295089
 30
0.0
 40
3.5
 50
71.682301588794417
 51
288.31769841120411
  0
LINE
  5
60
  8
1
 10
153.6566916823495
 20
77.470773381294961
 30
0.0
 11
153.6566916823495
 21
62.470773381294961
 31
0.0
  0
LINE
  5
61
  8
1
 10
161.1566916823495
 20
69.970773381294961
 30
0.0
 11
146.1566916823495
 21
69.970773381294961
 31
0.0
  0
CIRCLE
  5
62
  8
3
 10
153.6566916823495
 20
69.970773381294961
 30
0.0
 40
4.1879999999998736
  0
CIRCLE
  5
63
  8
0
 10
153.6566916823495
 20
69.970773381294961
 30
0.0
 40
5.0
  0
CIRCLE
  5
64
  8
0
 10
153.6566916823495
 20
69.970773381294961
 30
0.0
 40
3.3226495451671951
  0
ARC
  5
65
  8
2
 10
103.1999999999997
 20
108.9950539568346
 30
0.0
 40
3.5
 50
71.682301588794417
 51
288.31769841120411
  0
ARC
  5
66
  8
0
 10
103.1999999999997
 20
108.99505395683479
 30
0.0
 40
3.5
 50
288.31769841120411
 51
71.682301588794417
  0
LINE
  5
67
  8
1
 10
103.1999999999997
 20
102.99505395683479
 30
0.0
 11
103.1999999999997
 21
114.99505395683479
 31
0.0
  0
LINE
  5
68
  8
0
 10
102.13493649053891
 20
103.9950539568347
 30
0.0
 11
102.1349364905391
 21
113.9950539568347
 31
0.0
  0
LINE
  5
69
  8
0
 10
104.3
 20
105.24505395683479
 30
0.0
 11
102.1349364905391
 21
103.99505395683489
 31
0.0
  0
LINE
  5
6A
  8
0
 10
104.3
 20
112.74505395683479
 30
0.0
 11
102.1349364905391
 21
113.9950539568347
 31
0.0
  0
LINE
  5
6B
  8
1
 10
67.5
 20
108.9950539568345
 30
0.0
 11
109.1999999999997
 21
108.99505395683479
 31
0.0
  0
LINE
  5
6C
  8
0
 10
70.800000000000011
 20
103.9950539568347
 30
0.0
 11
69.999999999999943
 21
105.3806946028898
 31
0.0
  0
LINE
  5
6D
  8
0
 10
70.800000000000011
 20
113.9950539568344
 30
0.0
 11
69.999999999999943
 21
112.6094133107794
 31
0.0
  0
LINE
  5
6E
  8
0
 10
70.799999999999955
 20
113.9950539568344
 30
0.0
 11
70.800000000000011
 21
103.9950539568345
 31
0.0
  0
LINE
  5
6F
  8
0
 10
69.999999999999943
 20
112.6094133107794
 30
0.0
 11
70.000000000000057
 21
105.3806946028899
 31
0.0
  0
LINE
  5
70
  8
0
 10
104.3000000000001
 20
112.74505395683479
 30
0.0
 11
104.3
 21
105.24505395683479
 31
0.0
  0
LINE
  5
71
  8
3
 10
103.61200000000009
 20
113.1830539568347
 30
0.0
 11
70.331191581417897
 21
113.1830539568344
 31
0.0
  0
LINE
  5
72
  8
3
 10
103.61200000000009
 20
104.80705395683481
 30
0.0
 11
70.331191581418068
 21
104.80705395683459
 31
0.0
  0
LINE
  5
73
  8
0
 10
102.134936490539
 20
113.9950539568347
 30
0.0
 11
70.799999999999955
 21
113.9950539568344
 31
0.0
  0
LINE
  5
74
  8
0
 10
102.13493649053891
 20
103.9950539568347
 30
0.0
 11
70.800000000000011
 21
103.9950539568345
 31
0.0
  0
LINE
  5
75
  8
2
 10
73.999999999999943
 20
111.49505395479891
 30
0.0
 11
74.000000000000014
 21
106.495053958868
 31
0.0
  0
LINE
  5
76
  8
2
 10
69.999999999999972
 20
111.49505395479891
 30
0.0
 11
73.999999999999943
 21
111.49505395479891
 31
0.0
  0
LINE
  5
77
  8
2
 10
70.000000000000014
 20
108.9950539568345
 30
0.0
 11
73.999999999999986
 21
108.9950539568346
 31
0.0
  0
LINE
  5
78
  8
2
 10
70.000000000000057
 20
106.495053958868
 30
0.0
 11
74.000000000000014
 21
106.495053958868
 31
0.0
  0
LINE
  5
79
  8
2
 10
74.000000000000014
 20
106.495053958868
 30
0.0
 11
75.666666665310018
 21
108.9950539568345
 31
0.0
  0
LINE
  5
7A
  8
2
 10
73.999999999999943
 20
111.49505395479891
 30
0.0
 11
75.666666665310018
 21
108.9950539568345
 31
0.0
  0
LINE
  5
7B
  8
2
 10
73.999999999999943
 20
32.313399278539947
 30
0.0
 11
75.666666665310018
 21
29.813399280575499
 31
0.0
  0
LINE
  5
7C
  8
2
 10
74.000000000000014
 20
27.313399282609009
 30
0.0
 11
75.666666665310018
 21
29.813399280575499
 31
0.0
  0
LINE
  5
7D
  8
2
 10
70.000000000000057
 20
27.313399282609002
 30
0.0
 11
74.000000000000014
 21
27.313399282609041
 31
0.0
  0
LINE
  5
7E
  8
2
 10
70.000000000000014
 20
29.813399280575549
 30
0.0
 11
73.999999999999986
 21
29.813399280575609
 31
0.0
  0
LINE
  5
7F
  8
2
 10
69.999999999999972
 20
32.313399278539919
 30
0.0
 11
73.999999999999943
 21
32.313399278539947
 31
0.0
  0
LINE
  5
80
  8
2
 10
73.999999999999943
 20
32.313399278539961
 30
0.0
 11
74.000000000000014
 21
27.313399282609009
 31
0.0
  0
LINE
  5
81
  8
0
 10
102.13493649053891
 20
24.81339928057578
 30
0.0
 11
70.800000000000011
 21
24.813399280575538
 31
0.0
  0
LINE
  5
82
  8
0
 10
102.134936490539
 20
34.813399280575773
 30
0.0
 11
70.799999999999955
 21
34.813399280575481
 31
0.0
  0
LINE
  5
83
  8
3
 10
103.61200000000009
 20
25.625399280575792
 30
0.0
 11
70.331191581418068
 21
25.625399280575611
 31
0.0
  0
LINE
  5
84
  8
3
 10
103.61200000000009
 20
34.001399280575711
 30
0.0
 11
70.331191581417897
 21
34.00139928057547
 31
0.0
  0
LINE
  5
85
  8
0
 10
104.3000000000001
 20
33.563399280575837
 30
0.0
 11
104.3
 21
26.063399280575808
 31
0.0
  0
LINE
  5
86
  8
0
 10
69.999999999999943
 20
33.427758634520451
 30
0.0
 11
70.000000000000057
 21
26.19903992663092
 31
0.0
  0
LINE
  5
87
  8
0
 10
70.799999999999955
 20
34.813399280575481
 30
0.0
 11
70.800000000000011
 21
24.813399280575538
 31
0.0
  0
LINE
  5
88
  8
0
 10
70.800000000000011
 20
34.813399280575481
 30
0.0
 11
69.999999999999943
 21
33.427758634520451
 31
0.0
  0
LINE
  5
89
  8
0
 10
70.800000000000011
 20
24.813399280575709
 30
0.0
 11
69.999999999999943
 21
26.19903992663086
 31
0.0
  0
LINE
  5
8A
  8
1
 10
67.5
 20
29.813399280575531
 30
0.0
 11
109.1999999999997
 21
29.81339928057584
 31
0.0
  0
LINE
  5
8B
  8
0
 10
104.3
 20
33.563399280575837
 30
0.0
 11
102.1349364905391
 21
34.813399280575752
 31
0.0
  0
LINE
  5
8C
  8
0
 10
104.3
 20
26.06339928057584
 30
0.0
 11
102.1349364905391
 21
24.813399280575901
 31
0.0
  0
LINE
  5
8D
  8
0
 10
102.13493649053891
 20
24.81339928057578
 30
0.0
 11
102.1349364905391
 21
34.813399280575773
 31
0.0
  0
LINE
  5
8E
  8
1
 10
103.1999999999997
 20
23.81339928057584
 30
0.0
 11
103.1999999999997
 21
35.813399280575837
 31
0.0
  0
ARC
  5
8F
  8
0
 10
103.1999999999997
 20
29.813399280575808
 30
0.0
 40
3.5
 50
288.31769841120411
 51
71.682301588794417
  0
ARC
  5
90
  8
2
 10
103.1999999999997
 20
29.81339928057567
 30
0.0
 40
3.5
 50
71.682301588794417
 51
288.31769841120411
  0
TEXT
  5
17F
  8
0
 62
     3
 10
0.0
 20
0.0
 30
0.0
 40
5.0
  1
BSR10X35
  7
STANDARD1
  0
ENDSEC
  0
EOF
