  0
SECTION
  2
HEADER
  9
$ACADVER
  1
AC1009
  9
$INSBASE
 10
0.0
 20
0.0
 30
0.0
  9
$EXTMIN
 10
0.0
 20
-1.4802182810368341
 30
0.0
  9
$EXTMAX
 10
171.64083516578211
 20
115.2243705035971
 30
0.0
  9
$LIMMIN
 10
0.0
 20
0.0
  9
$LIMMAX
 10
187.5
 20
135.0
  9
$ORTHOMODE
 70
     1
  9
$REGENMODE
 70
     1
  9
$FILLMODE
 70
     1
  9
$QTEXTMODE
 70
     0
  9
$MIRRTEXT
 70
     0
  9
$DRAGMODE
 70
     2
  9
$LTSCALE
 40
5.0
  9
$OSMODE
 70
  3071
  9
$ATTMODE
 70
     1
  9
$TEXTSIZE
 40
2.5000000000000488
  9
$TRACEWID
 40
0.05
  9
$TEXTSTYLE
  7
STANDARD
  9
$CLAYER
  8
0
  9
$CELTYPE
  6
BYLAYER
  9
$CECOLOR
 62
   256
  9
$DIMSCALE
 40
0.5
  9
$DIMASZ
 40
3.0
  9
$DIMEXO
 40
2.0
  9
$DIMDLI
 40
0.38
  9
$DIMRND
 40
0.0
  9
$DIMDLE
 40
0.0
  9
$DIMEXE
 40
2.0
  9
$DIMTP
 40
0.0
  9
$DIMTM
 40
0.0
  9
$DIMTXT
 40
3.2000000000000002
  9
$DIMCEN
 40
0.0
  9
$DIMTSZ
 40
0.0
  9
$DIMTOL
 70
     0
  9
$DIMLIM
 70
     0
  9
$DIMTIH
 70
     0
  9
$DIMTOH
 70
     0
  9
$DIMSE1
 70
     0
  9
$DIMSE2
 70
     0
  9
$DIMTAD
 70
     1
  9
$DIMZIN
 70
     0
  9
$DIMBLK
  1

  9
$DIMASO
 70
     0
  9
$DIMSHO
 70
     0
  9
$DIMPOST
  1

  9
$DIMAPOST
  1

  9
$DIMALT
 70
     0
  9
$DIMALTD
 70
     2
  9
$DIMALTF
 40
25.399999999999999
  9
$DIMLFAC
 40
1.0
  9
$DIMTOFL
 70
     1
  9
$DIMTVP
 40
1.6000000000000001
  9
$DIMTIX
 70
     1
  9
$DIMSOXD
 70
     0
  9
$DIMSAH
 70
     0
  9
$DIMBLK1
  1

  9
$DIMBLK2
  1

  9
$DIMSTYLE
  2
STANDARD
  9
$DIMCLRD
 70
     0
  9
$DIMCLRE
 70
     0
  9
$DIMCLRT
 70
     0
  9
$DIMTFAC
 40
1.0
  9
$DIMGAP
 40
0.09
  9
$LUNITS
 70
     2
  9
$LUPREC
 70
     4
  9
$SKETCHINC
 40
0.1
  9
$FILLETRAD
 40
0.0
  9
$AUNITS
 70
     0
  9
$AUPREC
 70
     4
  9
$MENU
  1
E:\r13\win\SUPPORT\ACAD
  9
$ELEVATION
 40
0.0
  9
$PELEVATION
 40
0.0
  9
$THICKNESS
 40
0.0
  9
$LIMCHECK
 70
     0
  9
$BLIPMODE
 70
     0
  9
$CHAMFERA
 40
0.0
  9
$CHAMFERB
 40
0.0
  9
$SKPOLY
 70
     0
  9
$TDCREATE
 40
2449840.621516203
  9
$TDUPDATE
 40
2456598.400763623
  9
$TDINDWG
 40
0.0002081366
  9
$TDUSRTIMER
 40
0.0002081366
  9
$USRTIMER
 70
     1
  9
$ANGBASE
 50
0.0
  9
$ANGDIR
 70
     0
  9
$PDMODE
 70
     0
  9
$PDSIZE
 40
0.0
  9
$PLINEWID
 40
0.0
  9
$COORDS
 70
     1
  9
$SPLFRAME
 70
     0
  9
$SPLINETYPE
 70
     6
  9
$SPLINESEGS
 70
     8
  9
$ATTDIA
 70
     0
  9
$ATTREQ
 70
     1
  9
$HANDLING
 70
     1
  9
$HANDSEED
  5
210
  9
$SURFTAB1
 70
     6
  9
$SURFTAB2
 70
     6
  9
$SURFTYPE
 70
     6
  9
$SURFU
 70
     6
  9
$SURFV
 70
     6
  9
$UCSNAME
  2

  9
$UCSORG
 10
0.0
 20
0.0
 30
0.0
  9
$UCSXDIR
 10
1.0
 20
0.0
 30
0.0
  9
$UCSYDIR
 10
0.0
 20
1.0
 30
0.0
  9
$PUCSNAME
  2

  9
$PUCSORG
 10
0.0
 20
0.0
 30
0.0
  9
$PUCSXDIR
 10
1.0
 20
0.0
 30
0.0
  9
$PUCSYDIR
 10
0.0
 20
1.0
 30
0.0
  9
$USERI1
 70
     0
  9
$USERI2
 70
     1
  9
$USERI3
 70
     0
  9
$USERI4
 70
     0
  9
$USERI5
 70
     0
  9
$USERR1
 40
0.0
  9
$USERR2
 40
0.0
  9
$USERR3
 40
0.0
  9
$USERR4
 40
0.0
  9
$USERR5
 40
0.0
  9
$WORLDVIEW
 70
     1
  9
$SHADEDGE
 70
     3
  9
$SHADEDIF
 70
    70
  9
$TILEMODE
 70
     1
  9
$MAXACTVP
 70
    16
  9
$PLIMCHECK
 70
     0
  9
$PEXTMIN
 10
1.0000000000000000E+020
 20
1.0000000000000000E+020
 30
1.0000000000000000E+020
  9
$PEXTMAX
 10
-1.0000000000000000E+020
 20
-1.0000000000000000E+020
 30
-1.0000000000000000E+020
  9
$PLIMMIN
 10
0.0
 20
0.0
  9
$PLIMMAX
 10
12.0
 20
9.0
  9
$UNITMODE
 70
     0
  9
$VISRETAIN
 70
     0
  9
$PLINEGEN
 70
     0
  9
$PSLTSCALE
 70
     0
  0
ENDSEC
  0
SECTION
  2
TABLES
  0
TABLE
  2
VPORT
 70
     1
  0
VPORT
  2
*ACTIVE
 70
     0
 10
0.0
 20
0.0
 11
1.0
 21
1.0
 12
97.52905416604365
 22
66.75636307133405
 13
0.0
 23
0.0
 14
5.0
 24
5.0
 15
5.0
 25
5.0
 16
0.0
 26
0.0
 36
1.0
 17
0.0
 27
0.0
 37
0.0
 40
137.71137496815999
 41
1.831871345029239
 42
50.0
 43
0.0
 44
0.0
 50
0.0
 51
0.0
 71
     0
 72
   500
 73
     1
 74
     0
 75
     0
 76
     0
 77
     0
 78
     2
  0
ENDTAB
  0
TABLE
  2
LTYPE
 70
     4
  0
LTYPE
  2
CONTINUOUS
 70
     0
  3
Solid Line
 72
    65
 73
     0
 40
0.0
  0
LTYPE
  2
CENTER
 70
     0
  3
____ _ ____ _ ____ _ ____ _ ____ _ ____ _ ____
 72
    65
 73
     4
 40
2.0
 49
1.25
 49
-0.25
 49
0.25
 49
-0.25
  0
LTYPE
  2
HIDDEN
 70
     0
  3
_ _ _ _ _ _ _ _ _ _ _ _ _ _ _ _ _ _ _ _ _ _ _
 72
    65
 73
     2
 40
0.375
 49
0.25
 49
-0.125
  0
LTYPE
  2
PHANTOM2
 70
     0
  3
___ _ _ ___ _ _ ___ _ _ ___ _ _
 72
    65
 73
     6
 40
1.25
 49
0.625
 49
-0.125
 49
0.125
 49
-0.125
 49
0.125
 49
-0.125
  0
ENDTAB
  0
TABLE
  2
LAYER
 70
     4
  0
LAYER
  2
0
 70
     0
 62
     7
  6
CONTINUOUS
  0
LAYER
  2
1
 70
     0
 62
     1
  6
CENTER
  0
LAYER
  2
2
 70
     0
 62
     2
  6
HIDDEN
  0
LAYER
  2
3
 70
     0
 62
     3
  6
CONTINUOUS
  0
ENDTAB
  0
TABLE
  2
STYLE
 70
     2
  0
STYLE
  2
STANDARD
 70
     0
 40
0.0
 41
1.0
 50
0.0
 71
     0
 42
2.5000000000000488
  3
TXT
  4
BIGFONT
  0
STYLE
  2
STANDARD1
 70
     0
 40
0.0
 41
1.0
 50
0.0
 71
     0
 42
3.0
  3
txt
  4

  0
ENDTAB
  0
TABLE
  2
VIEW
 70
     1
  0
VIEW
  2
ALL
 70
     0
 40
135.0
 10
110.4957983193277
 20
67.5
 41
0.0
 11
0.0
 21
0.0
 31
1.0
 12
0.0
 22
0.0
 32
0.0
 42
0.0
 43
0.0
 44
0.0
 50
0.0
 71
     0
  0
ENDTAB
  0
TABLE
  2
UCS
 70
     0
  0
ENDTAB
  0
TABLE
  2
APPID
 70
     3
  0
APPID
  2
ACAD
 70
     0
  0
APPID
  2
ACAD_MLEADERVER
 70
     0
  0
APPID
  2
ACAD_NAV_VCDISPLAY
 70
     0
  0
ENDTAB
  0
TABLE
  2
DIMSTYLE
 70
     1
  0
DIMSTYLE
  2
STANDARD
 70
     0
  3

  4

  5

  6

  7

 40
1.0
 41
0.18
 42
0.0625
 43
0.38
 44
0.18
 45
0.0
 46
0.0
 47
0.0
 48
0.0
140
0.18
141
0.09
142
0.0
143
25.399999999999999
144
1.0
145
0.0
146
1.0
147
0.09
 71
     0
 72
     0
 73
     1
 74
     1
 75
     0
 76
     0
 77
     0
 78
     0
170
     0
171
     2
172
     0
173
     0
174
     0
175
     0
176
     0
177
     0
178
     0
  0
ENDTAB
  0
ENDSEC
  0
SECTION
  2
BLOCKS
  0
BLOCK
  8
0
  2
$MODEL_SPACE
 70
     0
 10
0.0
 20
0.0
 30
0.0
  3
$MODEL_SPACE
  1

  0
ENDBLK
  5
C4
  8
0
  0
BLOCK
 67
     1
  8
0
  2
$PAPER_SPACE
 70
     0
 10
0.0
 20
0.0
 30
0.0
  3
$PAPER_SPACE
  1

  0
ENDBLK
  5
C2
 67
     1
  8
0
  0
ENDSEC
  0
SECTION
  2
ENTITIES
  0
LINE
  5
36
  8
0
 10
29.999999999998291
 20
69.600816538245084
 30
0.0
 11
33.999999999998302
 21
67.291415461487375
 31
0.0
  0
LINE
  5
37
  8
0
 10
26.000000003254289
 20
67.291415463368679
 30
0.0
 11
30.000000003254289
 21
69.600816540127738
 31
0.0
  0
LINE
  5
38
  8
0
 10
26.000000003254289
 20
62.672613313611777
 30
0.0
 11
26.000000003254289
 21
67.29141546712853
 31
0.0
  0
LINE
  5
39
  8
0
 10
29.999999999998291
 20
60.363212238733112
 30
0.0
 11
25.999999999998298
 21
62.6726133154908
 31
0.0
  0
LINE
  5
3A
  8
0
 10
33.999999996738673
 20
62.67261331360951
 30
0.0
 11
29.9999999967423
 21
60.363212236850451
 31
0.0
  0
LINE
  5
3B
  8
0
 10
33.999999996742311
 20
67.291415463369134
 30
0.0
 11
33.999999996742311
 21
62.67261330985238
 31
0.0
  0
CIRCLE
  5
3C
  8
3
 10
30.0
 20
64.982014388489205
 30
0.0
 40
6.9175000000000004
  0
CIRCLE
  5
3D
  8
0
 10
30.0
 20
64.982014388489205
 30
0.0
 40
8.0
  0
LINE
  5
3E
  8
2
 10
74.396952261952208
 20
69.600816538246264
 30
0.0
 11
77.063618926448044
 21
64.982014388489148
 31
0.0
  0
LINE
  5
3F
  8
0
 10
69.496952261952259
 20
72.982014388488295
 30
0.0
 11
114.3658633487082
 21
72.982014388488267
 31
0.0
  0
LINE
  5
40
  8
3
 10
68.871970595554131
 20
71.899514388487688
 30
0.0
 11
116.2408083479026
 21
71.899514388487674
 31
0.0
  0
LINE
  5
41
  8
0
 10
69.496952261952231
 20
72.982014388488295
 30
0.0
 11
68.396952261952237
 21
71.076758500162413
 31
0.0
  0
LINE
  5
42
  8
2
 10
68.396952261952208
 20
69.600816538246335
 30
0.0
 11
74.396952261952208
 21
69.600816538246264
 31
0.0
  0
LINE
  5
43
  8
2
 10
68.396952261952208
 20
67.29141546336669
 30
0.0
 11
74.396952261952237
 21
67.29141546336669
 31
0.0
  0
LINE
  5
44
  8
2
 10
74.396952261952208
 20
60.363212238732139
 30
0.0
 11
77.063618926448044
 21
64.982014388489262
 31
0.0
  0
LINE
  5
45
  8
2
 10
68.396952261952208
 20
62.67261331361172
 30
0.0
 11
74.396952261952237
 21
62.67261331361172
 31
0.0
  0
LINE
  5
46
  8
2
 10
68.396952261952208
 20
60.363212238732082
 30
0.0
 11
74.396952261952208
 21
60.363212238732139
 31
0.0
  0
LINE
  5
47
  8
0
 10
69.496952261952231
 20
56.982014388490121
 30
0.0
 11
68.396952261952237
 21
58.887270276815997
 31
0.0
  0
LINE
  5
48
  8
3
 10
68.871970595554131
 20
58.064514388490728
 30
0.0
 11
116.2408083479026
 21
58.0645143884907
 31
0.0
  0
LINE
  5
49
  8
0
 10
69.496952261952259
 20
56.982014388490121
 30
0.0
 11
114.3658633487082
 21
56.982014388490079
 31
0.0
  0
LINE
  5
4A
  8
0
 10
69.496952261952202
 20
56.982014388490121
 30
0.0
 11
69.496952261952202
 21
72.982014388488295
 31
0.0
  0
LINE
  5
4B
  8
2
 10
74.396952261952208
 20
60.363212238732139
 30
0.0
 11
74.396952261952208
 21
69.600816538246264
 31
0.0
  0
LINE
  5
4C
  8
0
 10
68.396952261952208
 20
58.887270276815947
 30
0.0
 11
68.396952261952237
 21
71.076758500162413
 31
0.0
  0
LINE
  5
4D
  8
0
 10
117.39695226195219
 20
58.732014388489169
 30
0.0
 11
117.39695226195219
 21
71.232014388489176
 31
0.0
  0
LINE
  5
4E
  8
1
 10
40.499999999999993
 20
64.982014388489205
 30
0.0
 11
19.5
 21
64.982014388489205
 31
0.0
  0
LINE
  5
4F
  8
1
 10
30.0
 20
75.482014388489205
 30
0.0
 11
30.0
 21
54.482014388489212
 31
0.0
  0
LINE
  5
50
  8
1
 10
65.896952261952222
 20
64.982014388489205
 30
0.0
 11
123.89695226195229
 21
64.982014388489176
 31
0.0
  0
LINE
  5
51
  8
0
 10
117.39695226195219
 20
71.232014388489176
 30
0.0
 11
114.3658633487082
 21
72.982014388488267
 31
0.0
  0
LINE
  5
52
  8
0
 10
117.39695226195219
 20
58.732014388489183
 30
0.0
 11
114.3658633487082
 21
56.982014388490093
 31
0.0
  0
LINE
  5
53
  8
0
 10
114.3658633487082
 20
56.982014388490093
 30
0.0
 11
114.3658633487082
 21
72.982014388488281
 31
0.0
  0
LINE
  5
54
  8
1
 10
115.39695226195219
 20
56.482014388489191
 30
0.0
 11
115.39695226195219
 21
73.482014388489191
 31
0.0
  0
ARC
  5
55
  8
0
 10
115.39695226195219
 20
64.982014388489176
 30
0.0
 40
6.0
 50
289.47122063449012
 51
70.528779365509692
  0
ARC
  5
56
  8
2
 10
115.39695226195219
 20
64.982014388489191
 30
0.0
 40
6.0
 50
70.52877936550918
 51
289.47122063449058
  0
LINE
  5
60
  8
1
 10
161.14083516578211
 20
75.482014388489205
 30
0.0
 11
161.14083516578211
 21
54.482014388489212
 31
0.0
  0
LINE
  5
61
  8
1
 10
171.64083516578211
 20
64.982014388489205
 30
0.0
 11
150.64083516578211
 21
64.982014388489205
 31
0.0
  0
CIRCLE
  5
62
  8
0
 10
161.14083516578211
 20
64.982014388489205
 30
0.0
 40
8.0
  0
CIRCLE
  5
63
  8
3
 10
161.14083516578211
 20
64.982014388489205
 30
0.0
 40
6.9175000000000004
  0
CIRCLE
  5
64
  8
0
 10
161.14083516578211
 20
64.982014388489205
 30
0.0
 40
5.6568542494923539
  0
ARC
  5
65
  8
2
 10
115.39695226195219
 20
106.7243705035971
 30
0.0
 40
6.0
 50
70.52877936550918
 51
289.47122063449058
  0
ARC
  5
66
  8
0
 10
115.39695226195219
 20
106.7243705035971
 30
0.0
 40
6.0
 50
289.47122063449012
 51
70.528779365509692
  0
LINE
  5
67
  8
1
 10
115.39695226195219
 20
98.2243705035971
 30
0.0
 11
115.39695226195219
 21
115.2243705035971
 31
0.0
  0
LINE
  5
68
  8
0
 10
114.3658633487082
 20
98.72437050359801
 30
0.0
 11
114.3658633487082
 21
114.72437050359621
 31
0.0
  0
LINE
  5
69
  8
0
 10
117.39695226195219
 20
100.4743705035971
 30
0.0
 11
114.3658633487082
 21
98.72437050359801
 31
0.0
  0
LINE
  5
6A
  8
0
 10
117.39695226195219
 20
112.9743705035971
 30
0.0
 11
114.3658633487082
 21
114.72437050359621
 31
0.0
  0
LINE
  5
6B
  8
1
 10
65.896952261952222
 20
106.7243705035971
 30
0.0
 11
123.89695226195229
 21
106.7243705035971
 31
0.0
  0
LINE
  5
6C
  8
0
 10
117.39695226195219
 20
100.4743705035971
 30
0.0
 11
117.39695226195219
 21
112.9743705035971
 31
0.0
  0
LINE
  5
6D
  8
0
 10
68.396952261952208
 20
100.62962639192379
 30
0.0
 11
68.396952261952237
 21
112.81911461527029
 31
0.0
  0
LINE
  5
6E
  8
0
 10
69.496952261952202
 20
98.724370503598038
 30
0.0
 11
69.496952261952202
 21
114.72437050359621
 31
0.0
  0
LINE
  5
6F
  8
0
 10
69.496952261952259
 20
98.724370503598038
 30
0.0
 11
114.3658633487082
 21
98.724370503597996
 31
0.0
  0
LINE
  5
70
  8
3
 10
68.871970595554131
 20
99.806870503598645
 30
0.0
 11
116.2408083479026
 21
99.806870503598617
 31
0.0
  0
LINE
  5
71
  8
0
 10
69.496952261952231
 20
98.724370503598038
 30
0.0
 11
68.396952261952237
 21
100.62962639192391
 31
0.0
  0
LINE
  5
72
  8
0
 10
69.496952261952231
 20
114.72437050359621
 30
0.0
 11
68.396952261952237
 21
112.81911461527029
 31
0.0
  0
LINE
  5
73
  8
3
 10
68.871970595554131
 20
113.6418705035956
 30
0.0
 11
116.2408083479026
 21
113.6418705035955
 31
0.0
  0
LINE
  5
74
  8
0
 10
69.496952261952259
 20
114.72437050359621
 30
0.0
 11
114.3658633487082
 21
114.72437050359621
 31
0.0
  0
LINE
  5
75
  8
2
 10
74.396952261952222
 20
102.7243705068514
 30
0.0
 11
74.396952261952222
 21
110.7243705003394
 31
0.0
  0
LINE
  5
76
  8
2
 10
68.396952261952237
 20
102.7243705068514
 30
0.0
 11
74.396952261952237
 21
102.7243705068514
 31
0.0
  0
LINE
  5
77
  8
2
 10
68.396952261952265
 20
110.7243705003394
 30
0.0
 11
74.396952261952237
 21
110.7243705003394
 31
0.0
  0
LINE
  5
78
  8
2
 10
68.396952261952251
 20
106.7243705035971
 30
0.0
 11
74.396952261952237
 21
106.7243705035971
 31
0.0
  0
LINE
  5
79
  8
2
 10
74.396952261952222
 20
102.7243705068514
 30
0.0
 11
77.063618926448044
 21
106.7243705035971
 31
0.0
  0
LINE
  5
7A
  8
2
 10
74.396952261952237
 20
110.7243705003394
 30
0.0
 11
77.063618926448058
 21
106.7243705035971
 31
0.0
  0
LINE
  5
7B
  8
2
 10
74.396952261952237
 20
28.817895680195559
 30
0.0
 11
77.063618926448058
 21
24.817895683453219
 31
0.0
  0
LINE
  5
7C
  8
2
 10
74.396952261952222
 20
20.817895686707509
 30
0.0
 11
77.063618926448044
 21
24.817895683453219
 31
0.0
  0
LINE
  5
7D
  8
2
 10
68.396952261952251
 20
24.817895683453251
 30
0.0
 11
74.396952261952237
 21
24.817895683453251
 31
0.0
  0
LINE
  5
7E
  8
2
 10
68.396952261952265
 20
28.817895680195551
 30
0.0
 11
74.396952261952237
 21
28.817895680195551
 31
0.0
  0
LINE
  5
7F
  8
2
 10
68.396952261952237
 20
20.817895686707509
 30
0.0
 11
74.396952261952237
 21
20.817895686707509
 31
0.0
  0
LINE
  5
80
  8
2
 10
74.396952261952222
 20
20.81789568670753
 30
0.0
 11
74.396952261952222
 21
28.817895680195559
 31
0.0
  0
LINE
  5
81
  8
0
 10
69.496952261952259
 20
32.817895683452321
 30
0.0
 11
114.3658633487082
 21
32.817895683452292
 31
0.0
  0
LINE
  5
82
  8
3
 10
68.871970595554131
 20
31.735395683451721
 30
0.0
 11
116.2408083479026
 21
31.735395683451699
 31
0.0
  0
LINE
  5
83
  8
0
 10
69.496952261952231
 20
32.817895683452321
 30
0.0
 11
68.396952261952237
 21
30.912639795126442
 31
0.0
  0
LINE
  5
84
  8
0
 10
69.496952261952231
 20
16.81789568345415
 30
0.0
 11
68.396952261952237
 21
18.723151571780029
 31
0.0
  0
LINE
  5
85
  8
3
 10
68.871970595554131
 20
17.900395683454761
 30
0.0
 11
116.2408083479026
 21
17.900395683454729
 31
0.0
  0
LINE
  5
86
  8
0
 10
69.496952261952259
 20
16.81789568345415
 30
0.0
 11
114.3658633487082
 21
16.817895683454111
 31
0.0
  0
LINE
  5
87
  8
0
 10
69.496952261952202
 20
16.81789568345415
 30
0.0
 11
69.496952261952202
 21
32.817895683452321
 31
0.0
  0
LINE
  5
88
  8
0
 10
68.396952261952208
 20
18.723151571779979
 30
0.0
 11
68.396952261952237
 21
30.912639795126442
 31
0.0
  0
LINE
  5
89
  8
0
 10
117.39695226195219
 20
18.567895683453202
 30
0.0
 11
117.39695226195219
 21
31.067895683453202
 31
0.0
  0
LINE
  5
8A
  8
1
 10
65.896952261952222
 20
24.81789568345323
 30
0.0
 11
123.89695226195229
 21
24.817895683453202
 31
0.0
  0
LINE
  5
8B
  8
0
 10
117.39695226195219
 20
31.067895683453202
 30
0.0
 11
114.3658633487082
 21
32.817895683452292
 31
0.0
  0
LINE
  5
8C
  8
0
 10
117.39695226195219
 20
18.567895683453209
 30
0.0
 11
114.3658633487082
 21
16.817895683454118
 31
0.0
  0
LINE
  5
8D
  8
0
 10
114.3658633487082
 20
16.817895683454118
 30
0.0
 11
114.3658633487082
 21
32.817895683452313
 31
0.0
  0
LINE
  5
8E
  8
1
 10
115.39695226195219
 20
16.317895683453209
 30
0.0
 11
115.39695226195219
 21
33.317895683453223
 31
0.0
  0
ARC
  5
8F
  8
0
 10
115.39695226195219
 20
24.817895683453202
 30
0.0
 40
6.0
 50
289.47122063449012
 51
70.528779365509692
  0
ARC
  5
90
  8
2
 10
115.39695226195219
 20
24.817895683453219
 30
0.0
 40
6.0
 50
70.52877936550918
 51
289.47122063449058
  0
TEXT
  5
17F
  8
0
 62
     3
 10
0.0
 20
0.0
 30
0.0
 40
5.0
  1
BSR16X50
  7
STANDARD1
  0
ENDSEC
  0
EOF
