  0
SECTION
  2
HEADER
  9
$ACADVER
  1
AC1009
  9
$INSBASE
 10
0.0
 20
0.0
 30
0.0
  9
$EXTMIN
 10
0.0
 20
-1.4802182810368341
 30
0.0
  9
$EXTMAX
 10
63.558908317034927
 20
45.391546762596391
 30
0.0
  9
$LIMMIN
 10
0.0
 20
0.0
  9
$LIMMAX
 10
75.0
 20
54.0
  9
$ORTHOMODE
 70
     1
  9
$REGENMODE
 70
     1
  9
$FILLMODE
 70
     1
  9
$QTEXTMODE
 70
     0
  9
$MIRRTEXT
 70
     0
  9
$DRAGMODE
 70
     2
  9
$LTSCALE
 40
2.0
  9
$OSMODE
 70
  3071
  9
$ATTMODE
 70
     1
  9
$TEXTSIZE
 40
0.640000000000005
  9
$TRACEWID
 40
0.05
  9
$TEXTSTYLE
  7
STANDARD
  9
$CLAYER
  8
0
  9
$CELTYPE
  6
BYLAYER
  9
$CECOLOR
 62
   256
  9
$DIMSCALE
 40
0.2
  9
$DIMASZ
 40
3.0
  9
$DIMEXO
 40
2.0
  9
$DIMDLI
 40
0.38
  9
$DIMRND
 40
0.0
  9
$DIMDLE
 40
0.0
  9
$DIMEXE
 40
2.0
  9
$DIMTP
 40
0.0
  9
$DIMTM
 40
0.0
  9
$DIMTXT
 40
3.2000000000000002
  9
$DIMCEN
 40
0.0
  9
$DIMTSZ
 40
0.0
  9
$DIMTOL
 70
     0
  9
$DIMLIM
 70
     0
  9
$DIMTIH
 70
     0
  9
$DIMTOH
 70
     0
  9
$DIMSE1
 70
     0
  9
$DIMSE2
 70
     0
  9
$DIMTAD
 70
     1
  9
$DIMZIN
 70
     0
  9
$DIMBLK
  1

  9
$DIMASO
 70
     0
  9
$DIMSHO
 70
     0
  9
$DIMPOST
  1

  9
$DIMAPOST
  1

  9
$DIMALT
 70
     0
  9
$DIMALTD
 70
     2
  9
$DIMALTF
 40
25.399999999999999
  9
$DIMLFAC
 40
1.0
  9
$DIMTOFL
 70
     1
  9
$DIMTVP
 40
1.6000000000000001
  9
$DIMTIX
 70
     1
  9
$DIMSOXD
 70
     0
  9
$DIMSAH
 70
     0
  9
$DIMBLK1
  1

  9
$DIMBLK2
  1

  9
$DIMSTYLE
  2
STANDARD
  9
$DIMCLRD
 70
     0
  9
$DIMCLRE
 70
     0
  9
$DIMCLRT
 70
     0
  9
$DIMTFAC
 40
1.0
  9
$DIMGAP
 40
0.09
  9
$LUNITS
 70
     2
  9
$LUPREC
 70
     4
  9
$SKETCHINC
 40
0.1
  9
$FILLETRAD
 40
0.0
  9
$AUNITS
 70
     0
  9
$AUPREC
 70
     4
  9
$MENU
  1
E:\r13\win\SUPPORT\ACAD
  9
$ELEVATION
 40
0.0
  9
$PELEVATION
 40
0.0
  9
$THICKNESS
 40
0.0
  9
$LIMCHECK
 70
     0
  9
$BLIPMODE
 70
     0
  9
$CHAMFERA
 40
0.0
  9
$CHAMFERB
 40
0.0
  9
$SKPOLY
 70
     0
  9
$TDCREATE
 40
2449840.6211342602
  9
$TDUPDATE
 40
2456598.4008343988
  9
$TDINDWG
 40
0.0005584259
  9
$TDUSRTIMER
 40
0.0005584259
  9
$USRTIMER
 70
     1
  9
$ANGBASE
 50
0.0
  9
$ANGDIR
 70
     0
  9
$PDMODE
 70
     0
  9
$PDSIZE
 40
0.0
  9
$PLINEWID
 40
0.0
  9
$COORDS
 70
     1
  9
$SPLFRAME
 70
     0
  9
$SPLINETYPE
 70
     6
  9
$SPLINESEGS
 70
     8
  9
$ATTDIA
 70
     0
  9
$ATTREQ
 70
     1
  9
$HANDLING
 70
     1
  9
$HANDSEED
  5
210
  9
$SURFTAB1
 70
     6
  9
$SURFTAB2
 70
     6
  9
$SURFTYPE
 70
     6
  9
$SURFU
 70
     6
  9
$SURFV
 70
     6
  9
$UCSNAME
  2

  9
$UCSORG
 10
0.0
 20
0.0
 30
0.0
  9
$UCSXDIR
 10
1.0
 20
0.0
 30
0.0
  9
$UCSYDIR
 10
0.0
 20
1.0
 30
0.0
  9
$PUCSNAME
  2

  9
$PUCSORG
 10
0.0
 20
0.0
 30
0.0
  9
$PUCSXDIR
 10
1.0
 20
0.0
 30
0.0
  9
$PUCSYDIR
 10
0.0
 20
1.0
 30
0.0
  9
$USERI1
 70
     0
  9
$USERI2
 70
     1
  9
$USERI3
 70
     0
  9
$USERI4
 70
     0
  9
$USERI5
 70
     0
  9
$USERR1
 40
0.0
  9
$USERR2
 40
0.0
  9
$USERR3
 40
0.0
  9
$USERR4
 40
0.0
  9
$USERR5
 40
0.0
  9
$WORLDVIEW
 70
     1
  9
$SHADEDGE
 70
     3
  9
$SHADEDIF
 70
    70
  9
$TILEMODE
 70
     1
  9
$MAXACTVP
 70
    16
  9
$PLIMCHECK
 70
     0
  9
$PEXTMIN
 10
1.0000000000000000E+020
 20
1.0000000000000000E+020
 30
1.0000000000000000E+020
  9
$PEXTMAX
 10
-1.0000000000000000E+020
 20
-1.0000000000000000E+020
 30
-1.0000000000000000E+020
  9
$PLIMMIN
 10
0.0
 20
0.0
  9
$PLIMMAX
 10
12.0
 20
9.0
  9
$UNITMODE
 70
     0
  9
$VISRETAIN
 70
     0
  9
$PLINEGEN
 70
     0
  9
$PSLTSCALE
 70
     0
  0
ENDSEC
  0
SECTION
  2
TABLES
  0
TABLE
  2
VPORT
 70
     1
  0
VPORT
  2
*ACTIVE
 70
     0
 10
0.0
 20
0.0
 11
1.0
 21
1.0
 12
39.036165471588582
 22
26.259658875478959
 13
0.0
 23
0.0
 14
2.0
 24
2.0
 15
2.0
 25
2.0
 16
0.0
 26
0.0
 36
1.0
 17
0.0
 27
0.0
 37
0.0
 40
55.978266843203883
 41
1.831871345029239
 42
50.0
 43
0.0
 44
0.0
 50
0.0
 51
0.0
 71
     0
 72
   500
 73
     1
 74
     0
 75
     0
 76
     0
 77
     0
 78
     2
  0
ENDTAB
  0
TABLE
  2
LTYPE
 70
     4
  0
LTYPE
  2
CONTINUOUS
 70
     0
  3
Solid Line
 72
    65
 73
     0
 40
0.0
  0
LTYPE
  2
CENTER
 70
     0
  3
____ _ ____ _ ____ _ ____ _ ____ _ ____ _ ____
 72
    65
 73
     4
 40
2.0
 49
1.25
 49
-0.25
 49
0.25
 49
-0.25
  0
LTYPE
  2
HIDDEN
 70
     0
  3
_ _ _ _ _ _ _ _ _ _ _ _ _ _ _ _ _ _ _ _ _ _ _
 72
    65
 73
     2
 40
0.375
 49
0.25
 49
-0.125
  0
LTYPE
  2
PHANTOM2
 70
     0
  3
___ _ _ ___ _ _ ___ _ _ ___ _ _
 72
    65
 73
     6
 40
1.25
 49
0.625
 49
-0.125
 49
0.125
 49
-0.125
 49
0.125
 49
-0.125
  0
ENDTAB
  0
TABLE
  2
LAYER
 70
     4
  0
LAYER
  2
0
 70
     0
 62
     7
  6
CONTINUOUS
  0
LAYER
  2
1
 70
     0
 62
     1
  6
CENTER
  0
LAYER
  2
2
 70
     0
 62
     2
  6
HIDDEN
  0
LAYER
  2
3
 70
     0
 62
     3
  6
CONTINUOUS
  0
ENDTAB
  0
TABLE
  2
STYLE
 70
     2
  0
STYLE
  2
STANDARD
 70
     0
 40
0.0
 41
1.0
 50
0.0
 71
     0
 42
0.640000000000005
  3
TXT
  4
BIGFONT
  0
STYLE
  2
STANDARD1
 70
     0
 40
0.0
 41
1.0
 50
0.0
 71
     0
 42
3.0
  3
txt
  4

  0
ENDTAB
  0
TABLE
  2
VIEW
 70
     1
  0
VIEW
  2
ALL
 70
     0
 40
54.0
 10
44.198319327731092
 20
27.0
 41
0.0
 11
0.0
 21
0.0
 31
1.0
 12
0.0
 22
0.0
 32
0.0
 42
0.0
 43
0.0
 44
0.0
 50
0.0
 71
     0
  0
ENDTAB
  0
TABLE
  2
UCS
 70
     0
  0
ENDTAB
  0
TABLE
  2
APPID
 70
     3
  0
APPID
  2
ACAD
 70
     0
  0
APPID
  2
ACAD_MLEADERVER
 70
     0
  0
APPID
  2
ACAD_NAV_VCDISPLAY
 70
     0
  0
ENDTAB
  0
TABLE
  2
DIMSTYLE
 70
     1
  0
DIMSTYLE
  2
STANDARD
 70
     0
  3

  4

  5

  6

  7

 40
1.0
 41
0.18
 42
0.0625
 43
0.38
 44
0.18
 45
0.0
 46
0.0
 47
0.0
 48
0.0
140
0.18
141
0.09
142
0.0
143
25.399999999999999
144
1.0
145
0.0
146
1.0
147
0.09
 71
     0
 72
     0
 73
     1
 74
     1
 75
     0
 76
     0
 77
     0
 78
     0
170
     0
171
     2
172
     0
173
     0
174
     0
175
     0
176
     0
177
     0
178
     0
  0
ENDTAB
  0
ENDSEC
  0
SECTION
  2
BLOCKS
  0
BLOCK
  8
0
  2
$MODEL_SPACE
 70
     0
 10
0.0
 20
0.0
 30
0.0
  3
$MODEL_SPACE
  1

  0
ENDBLK
  5
C4
  8
0
  0
BLOCK
 67
     1
  8
0
  2
$PAPER_SPACE
 70
     0
 10
0.0
 20
0.0
 30
0.0
  3
$PAPER_SPACE
  1

  0
ENDBLK
  5
C2
 67
     1
  8
0
  0
ENDSEC
  0
SECTION
  2
ENTITIES
  0
CIRCLE
  5
36
  8
3
 10
14.0
 20
26.1726618705036
 30
0.0
 40
1.6209999999999991
  0
CIRCLE
  5
37
  8
0
 10
14.0
 20
26.1726618705036
 30
0.0
 40
2.0
  0
LINE
  5
38
  8
0
 10
14.99999999918572
 20
26.75001213922361
 30
0.0
 11
14.99999999918572
 21
25.595311600844418
 31
0.0
  0
LINE
  5
39
  8
0
 10
14.99999999918481
 20
25.595311601783699
 30
0.0
 11
13.99999999918572
 21
25.017961332593931
 31
0.0
  0
LINE
  5
3A
  8
0
 10
13.999999999999719
 20
25.017961333064601
 30
0.0
 11
12.999999999999719
 21
25.595311602254021
 31
0.0
  0
LINE
  5
3B
  8
0
 10
13.00000000081371
 20
25.595311601784271
 30
0.0
 11
13.00000000081371
 21
26.750012140163459
 31
0.0
  0
LINE
  5
3C
  8
0
 10
13.00000000081371
 20
26.7500121392235
 30
0.0
 11
14.00000000081371
 21
27.327362408413261
 31
0.0
  0
LINE
  5
3D
  8
0
 10
13.999999999999719
 20
27.327362407942601
 30
0.0
 11
14.999999999999719
 21
26.750012138753171
 31
0.0
  0
LINE
  5
3E
  8
1
 10
17.0
 20
26.1726618705036
 30
0.0
 11
11.0
 21
26.1726618705036
 31
0.0
  0
LINE
  5
3F
  8
1
 10
14.0
 20
29.1726618705036
 30
0.0
 11
14.0
 21
23.1726618705036
 31
0.0
  0
LINE
  5
40
  8
1
 10
31.146070101812182
 20
26.1726618705036
 30
0.0
 11
43.646070101812057
 21
26.1726618705036
 31
0.0
  0
LINE
  5
41
  8
0
 10
32.146070101812171
 20
27.653046628239291
 30
0.0
 11
32.146070101812171
 21
24.692277112768078
 31
0.0
  0
LINE
  5
42
  8
0
 10
32.446070101812303
 20
24.17266187049734
 30
0.0
 11
41.030044698016773
 21
24.17266187049734
 31
0.0
  0
LINE
  5
43
  8
0
 10
32.446070101812239
 20
28.172661870510069
 30
0.0
 11
41.030044698016397
 21
28.172661870510069
 31
0.0
  0
LINE
  5
44
  8
0
 10
41.89607010181205
 20
27.672661870503578
 30
0.0
 11
41.89607010181205
 21
24.67266187050361
 31
0.0
  0
LINE
  5
45
  8
0
 10
32.446070101812239
 20
28.172661870510069
 30
0.0
 11
32.446070101812303
 21
24.17266187049734
 31
0.0
  0
LINE
  5
46
  8
0
 10
32.446070101812182
 20
24.17266187049723
 30
0.0
 11
32.146070101812292
 21
24.692277112767851
 31
0.0
  0
LINE
  5
47
  8
0
 10
32.446070101812239
 20
28.172661870510069
 30
0.0
 11
32.146070101812292
 21
27.653046628239402
 31
0.0
  0
LINE
  5
48
  8
3
 10
32.227254349790059
 20
24.551661870496108
 30
0.0
 11
41.686491954083237
 21
24.551661870496108
 31
0.0
  0
LINE
  5
49
  8
3
 10
32.227254349790059
 20
27.793661870511311
 30
0.0
 11
41.686491954082861
 21
27.793661870511311
 31
0.0
  0
LINE
  5
4A
  8
2
 10
34.146070101812171
 20
27.327362407942601
 30
0.0
 11
34.146070101812057
 21
25.017961333064601
 31
0.0
  0
LINE
  5
4B
  8
2
 10
32.146070101812171
 20
25.017961333064601
 30
0.0
 11
34.146070101812057
 21
25.017961333064601
 31
0.0
  0
LINE
  5
4C
  8
2
 10
32.146070101812171
 20
25.595311601784381
 30
0.0
 11
34.146070101812121
 21
25.595311601784381
 31
0.0
  0
LINE
  5
4D
  8
2
 10
32.146070101812228
 20
26.750012139223209
 30
0.0
 11
34.146070101812171
 21
26.750012139223209
 31
0.0
  0
LINE
  5
4E
  8
2
 10
32.146070101812228
 20
27.327362407942541
 30
0.0
 11
34.146070101812171
 21
27.327362407942601
 31
0.0
  0
LINE
  5
4F
  8
2
 10
34.146070101812057
 20
25.017961333064651
 30
0.0
 11
34.812736767935952
 21
26.17266187050371
 31
0.0
  0
LINE
  5
50
  8
2
 10
34.146070101812171
 20
27.327362407942601
 30
0.0
 11
34.812736767935952
 21
26.17266187050371
 31
0.0
  0
LINE
  5
51
  8
1
 10
41.396070101812057
 20
28.872661870510061
 30
0.0
 11
41.396070101812057
 21
23.472661870497141
 31
0.0
  0
LINE
  5
52
  8
0
 10
41.89607010181205
 20
27.672661870503589
 30
0.0
 11
41.030044698016397
 21
28.172661870510069
 31
0.0
  0
LINE
  5
53
  8
0
 10
41.89607010181205
 20
24.67266187050361
 30
0.0
 11
41.030044698016397
 21
24.17266187049713
 31
0.0
  0
LINE
  5
54
  8
0
 10
41.030044698016383
 20
28.17266187051008
 30
0.0
 11
41.030044698016773
 21
24.17266187049735
 31
0.0
  0
ARC
  5
55
  8
0
 10
41.396070101812057
 20
26.1726618705036
 30
0.0
 40
1.25
 50
293.57817847819882
 51
66.421821521801178
  0
ARC
  5
56
  8
2
 10
41.39607010181205
 20
26.1726618705036
 30
0.0
 40
1.25
 50
66.421821521794413
 51
293.5781784782057
  0
LINE
  5
60
  8
1
 10
60.558908317034927
 20
29.1726618705036
 30
0.0
 11
60.558908317034927
 21
23.1726618705036
 31
0.0
  0
LINE
  5
61
  8
1
 10
63.558908317034927
 20
26.1726618705036
 30
0.0
 11
57.55890831703492
 21
26.1726618705036
 31
0.0
  0
CIRCLE
  5
62
  8
0
 10
60.558908317034927
 20
26.1726618705036
 30
0.0
 40
2.0
  0
CIRCLE
  5
63
  8
3
 10
60.558908317034927
 20
26.1726618705036
 30
0.0
 40
1.6209999999999991
  0
CIRCLE
  5
64
  8
0
 10
60.55890831703492
 20
26.1726618705036
 30
0.0
 40
1.1456439237389049
  0
ARC
  5
65
  8
2
 10
41.39607010181205
 20
42.691546762589937
 30
0.0
 40
1.25
 50
66.421821521794413
 51
293.5781784782057
  0
ARC
  5
66
  8
0
 10
41.396070101812057
 20
42.69154676258993
 30
0.0
 40
1.25
 50
293.57817847819882
 51
66.421821521801178
  0
LINE
  5
67
  8
0
 10
41.030044698016383
 20
44.691546762596403
 30
0.0
 11
41.030044698016773
 21
40.69154676258367
 31
0.0
  0
LINE
  5
68
  8
0
 10
41.89607010181205
 20
41.19154676258993
 30
0.0
 11
41.030044698016397
 21
40.691546762583449
 31
0.0
  0
LINE
  5
69
  8
0
 10
41.89607010181205
 20
44.191546762589923
 30
0.0
 11
41.030044698016397
 21
44.691546762596403
 31
0.0
  0
LINE
  5
6A
  8
1
 10
41.396070101812057
 20
45.391546762596391
 30
0.0
 11
41.396070101812057
 21
39.991546762583468
 31
0.0
  0
LINE
  5
6B
  8
3
 10
32.227254349790059
 20
44.312546762597627
 30
0.0
 11
41.686491954082861
 21
44.312546762597641
 31
0.0
  0
LINE
  5
6C
  8
3
 10
32.227254349790059
 20
41.070546762582431
 30
0.0
 11
41.686491954083237
 21
41.070546762582431
 31
0.0
  0
LINE
  5
6D
  8
0
 10
32.446070101812239
 20
44.691546762596403
 30
0.0
 11
32.146070101812292
 21
44.171931520325728
 31
0.0
  0
LINE
  5
6E
  8
0
 10
32.446070101812182
 20
40.691546762583563
 30
0.0
 11
32.146070101812292
 21
41.211162004854167
 31
0.0
  0
LINE
  5
6F
  8
0
 10
32.446070101812239
 20
44.691546762596403
 30
0.0
 11
32.446070101812303
 21
40.691546762583663
 31
0.0
  0
LINE
  5
70
  8
0
 10
41.89607010181205
 20
44.191546762589908
 30
0.0
 11
41.89607010181205
 21
41.19154676258993
 31
0.0
  0
LINE
  5
71
  8
0
 10
32.446070101812239
 20
44.691546762596403
 30
0.0
 11
41.030044698016397
 21
44.691546762596403
 31
0.0
  0
LINE
  5
72
  8
0
 10
32.446070101812303
 20
40.691546762583663
 30
0.0
 11
41.030044698016773
 21
40.691546762583663
 31
0.0
  0
LINE
  5
73
  8
0
 10
32.146070101812171
 20
44.171931520325607
 30
0.0
 11
32.146070101812171
 21
41.211162004854401
 31
0.0
  0
LINE
  5
74
  8
1
 10
31.146070101812182
 20
42.691546762589923
 30
0.0
 11
43.646070101812057
 21
42.69154676258993
 31
0.0
  0
LINE
  5
75
  8
2
 10
34.146070101812157
 20
43.691546761775371
 30
0.0
 11
34.146070101812072
 21
41.691546763403359
 31
0.0
  0
LINE
  5
76
  8
2
 10
32.146070101812178
 20
43.691546761775463
 30
0.0
 11
34.146070101812171
 21
43.691546761775371
 31
0.0
  0
LINE
  5
77
  8
2
 10
32.146070101812171
 20
42.69154676258978
 30
0.0
 11
34.146070101812121
 21
42.691546762589688
 31
0.0
  0
LINE
  5
78
  8
2
 10
32.146070101812171
 20
41.691546763403458
 30
0.0
 11
34.146070101812072
 21
41.691546763403359
 31
0.0
  0
LINE
  5
79
  8
2
 10
34.812736767935881
 20
42.69154676258993
 30
0.0
 11
34.146070101812157
 21
43.691546761775371
 31
0.0
  0
LINE
  5
7A
  8
2
 10
34.146070101812072
 20
41.691546763403359
 30
0.0
 11
34.812736767935888
 21
42.691546762589923
 31
0.0
  0
LINE
  5
7B
  8
2
 10
34.146070101812072
 20
9.0206834540508467
 30
0.0
 11
34.812736767935888
 21
10.0206834532374
 31
0.0
  0
LINE
  5
7C
  8
2
 10
34.812736767935881
 20
10.02068345323741
 30
0.0
 11
34.146070101812157
 21
11.020683452422849
 31
0.0
  0
LINE
  5
7D
  8
2
 10
32.146070101812171
 20
9.0206834540509391
 30
0.0
 11
34.146070101812072
 21
9.0206834540508467
 31
0.0
  0
LINE
  5
7E
  8
2
 10
32.146070101812171
 20
10.02068345323727
 30
0.0
 11
34.146070101812121
 21
10.02068345323717
 31
0.0
  0
LINE
  5
7F
  8
2
 10
32.146070101812178
 20
11.020683452422951
 30
0.0
 11
34.146070101812171
 21
11.020683452422849
 31
0.0
  0
LINE
  5
80
  8
2
 10
34.146070101812157
 20
11.02068345242286
 30
0.0
 11
34.146070101812072
 21
9.0206834540508467
 31
0.0
  0
LINE
  5
81
  8
1
 10
31.146070101812182
 20
10.0206834532374
 30
0.0
 11
43.646070101812057
 21
10.02068345323741
 31
0.0
  0
LINE
  5
82
  8
0
 10
32.146070101812171
 20
11.50106821097309
 30
0.0
 11
32.146070101812171
 21
8.5402986955018818
 31
0.0
  0
LINE
  5
83
  8
0
 10
32.446070101812303
 20
8.0206834532311504
 30
0.0
 11
41.030044698016773
 21
8.0206834532311504
 31
0.0
  0
LINE
  5
84
  8
0
 10
32.446070101812239
 20
12.02068345324388
 30
0.0
 11
41.030044698016397
 21
12.02068345324388
 31
0.0
  0
LINE
  5
85
  8
0
 10
41.89607010181205
 20
11.520683453237391
 30
0.0
 11
41.89607010181205
 21
8.5206834532374174
 31
0.0
  0
LINE
  5
86
  8
0
 10
32.446070101812239
 20
12.02068345324388
 30
0.0
 11
32.446070101812303
 21
8.0206834532311504
 31
0.0
  0
LINE
  5
87
  8
0
 10
32.446070101812182
 20
8.0206834532310367
 30
0.0
 11
32.146070101812292
 21
8.5402986955016544
 31
0.0
  0
LINE
  5
88
  8
0
 10
32.446070101812239
 20
12.02068345324388
 30
0.0
 11
32.146070101812292
 21
11.501068210973211
 31
0.0
  0
LINE
  5
89
  8
3
 10
32.227254349790059
 20
8.3996834532299172
 30
0.0
 11
41.686491954083237
 21
8.3996834532299172
 31
0.0
  0
LINE
  5
8A
  8
3
 10
32.227254349790059
 20
11.641683453245109
 30
0.0
 11
41.686491954082861
 21
11.64168345324512
 31
0.0
  0
LINE
  5
8B
  8
1
 10
41.396070101812057
 20
12.72068345324387
 30
0.0
 11
41.396070101812057
 21
7.3206834532309477
 31
0.0
  0
LINE
  5
8C
  8
0
 10
41.89607010181205
 20
11.5206834532374
 30
0.0
 11
41.030044698016397
 21
12.02068345324388
 31
0.0
  0
LINE
  5
8D
  8
0
 10
41.89607010181205
 20
8.5206834532374174
 30
0.0
 11
41.030044698016397
 21
8.0206834532309372
 31
0.0
  0
LINE
  5
8E
  8
0
 10
41.030044698016383
 20
12.02068345324389
 30
0.0
 11
41.030044698016773
 21
8.0206834532311575
 31
0.0
  0
ARC
  5
8F
  8
0
 10
41.396070101812057
 20
10.02068345323741
 30
0.0
 40
1.25
 50
293.57817847819882
 51
66.421821521801178
  0
ARC
  5
90
  8
2
 10
41.39607010181205
 20
10.020683453237419
 30
0.0
 40
1.25
 50
66.421821521794413
 51
293.5781784782057
  0
TEXT
  5
17F
  8
0
 62
     3
 10
0.0
 20
0.0
 30
0.0
 40
5.0
  1
BSR4X10-SUS
  7
STANDARD1
  0
ENDSEC
  0
EOF
