  0
SECTION
  2
HEADER
  9
$ACADVER
  1
AC1009
  9
$INSBASE
 10
0.0
 20
0.0
 30
0.0
  9
$EXTMIN
 10
0.0
 20
-1.4802182810368341
 30
0.0
  9
$EXTMAX
 10
73.834977971946898
 20
54.501145556452727
 30
0.0
  9
$LIMMIN
 10
0.0
 20
0.0
  9
$LIMMAX
 10
75.0
 20
54.0
  9
$ORTHOMODE
 70
     0
  9
$REGENMODE
 70
     1
  9
$FILLMODE
 70
     1
  9
$QTEXTMODE
 70
     0
  9
$MIRRTEXT
 70
     0
  9
$DRAGMODE
 70
     2
  9
$LTSCALE
 40
2.0
  9
$OSMODE
 70
  3071
  9
$ATTMODE
 70
     1
  9
$TEXTSIZE
 40
1.0000000000000491
  9
$TRACEWID
 40
0.05
  9
$TEXTSTYLE
  7
STANDARD
  9
$CLAYER
  8
0
  9
$CELTYPE
  6
BYLAYER
  9
$CECOLOR
 62
   256
  9
$DIMSCALE
 40
0.2
  9
$DIMASZ
 40
3.0
  9
$DIMEXO
 40
2.0
  9
$DIMDLI
 40
0.38
  9
$DIMRND
 40
0.0
  9
$DIMDLE
 40
0.0
  9
$DIMEXE
 40
2.0
  9
$DIMTP
 40
0.0
  9
$DIMTM
 40
0.0
  9
$DIMTXT
 40
3.0
  9
$DIMCEN
 40
0.0
  9
$DIMTSZ
 40
0.0
  9
$DIMTOL
 70
     0
  9
$DIMLIM
 70
     0
  9
$DIMTIH
 70
     0
  9
$DIMTOH
 70
     0
  9
$DIMSE1
 70
     0
  9
$DIMSE2
 70
     0
  9
$DIMTAD
 70
     1
  9
$DIMZIN
 70
     0
  9
$DIMBLK
  1

  9
$DIMASO
 70
     0
  9
$DIMSHO
 70
     0
  9
$DIMPOST
  1

  9
$DIMAPOST
  1

  9
$DIMALT
 70
     0
  9
$DIMALTD
 70
     2
  9
$DIMALTF
 40
25.399999999999999
  9
$DIMLFAC
 40
1.0
  9
$DIMTOFL
 70
     1
  9
$DIMTVP
 40
1.6000000000000001
  9
$DIMTIX
 70
     1
  9
$DIMSOXD
 70
     0
  9
$DIMSAH
 70
     0
  9
$DIMBLK1
  1

  9
$DIMBLK2
  1

  9
$DIMSTYLE
  2
STANDARD
  9
$DIMCLRD
 70
     0
  9
$DIMCLRE
 70
     0
  9
$DIMCLRT
 70
     0
  9
$DIMTFAC
 40
1.0
  9
$DIMGAP
 40
0.09
  9
$LUNITS
 70
     2
  9
$LUPREC
 70
     4
  9
$SKETCHINC
 40
0.1
  9
$FILLETRAD
 40
0.0
  9
$AUNITS
 70
     0
  9
$AUPREC
 70
     4
  9
$MENU
  1
E:\r13\win\SUPPORT\ACAD
  9
$ELEVATION
 40
0.0
  9
$PELEVATION
 40
0.0
  9
$THICKNESS
 40
0.0
  9
$LIMCHECK
 70
     0
  9
$BLIPMODE
 70
     0
  9
$CHAMFERA
 40
0.0
  9
$CHAMFERB
 40
0.0
  9
$SKPOLY
 70
     0
  9
$TDCREATE
 40
2449840.6211921298
  9
$TDUPDATE
 40
2456598.4009678238
  9
$TDINDWG
 40
0.0025571759
  9
$TDUSRTIMER
 40
0.0025571759
  9
$USRTIMER
 70
     1
  9
$ANGBASE
 50
0.0
  9
$ANGDIR
 70
     0
  9
$PDMODE
 70
     0
  9
$PDSIZE
 40
0.0
  9
$PLINEWID
 40
0.0
  9
$COORDS
 70
     1
  9
$SPLFRAME
 70
     0
  9
$SPLINETYPE
 70
     6
  9
$SPLINESEGS
 70
     8
  9
$ATTDIA
 70
     0
  9
$ATTREQ
 70
     1
  9
$HANDLING
 70
     1
  9
$HANDSEED
  5
251
  9
$SURFTAB1
 70
     6
  9
$SURFTAB2
 70
     6
  9
$SURFTYPE
 70
     6
  9
$SURFU
 70
     6
  9
$SURFV
 70
     6
  9
$UCSNAME
  2

  9
$UCSORG
 10
0.0
 20
0.0
 30
0.0
  9
$UCSXDIR
 10
1.0
 20
0.0
 30
0.0
  9
$UCSYDIR
 10
0.0
 20
1.0
 30
0.0
  9
$PUCSNAME
  2

  9
$PUCSORG
 10
0.0
 20
0.0
 30
0.0
  9
$PUCSXDIR
 10
1.0
 20
0.0
 30
0.0
  9
$PUCSYDIR
 10
0.0
 20
1.0
 30
0.0
  9
$USERI1
 70
     0
  9
$USERI2
 70
     1
  9
$USERI3
 70
     1
  9
$USERI4
 70
     0
  9
$USERI5
 70
     0
  9
$USERR1
 40
0.0
  9
$USERR2
 40
0.0
  9
$USERR3
 40
0.0
  9
$USERR4
 40
0.0
  9
$USERR5
 40
0.0
  9
$WORLDVIEW
 70
     1
  9
$SHADEDGE
 70
     3
  9
$SHADEDIF
 70
    70
  9
$TILEMODE
 70
     1
  9
$MAXACTVP
 70
    16
  9
$PLIMCHECK
 70
     0
  9
$PEXTMIN
 10
1.0000000000000000E+020
 20
1.0000000000000000E+020
 30
1.0000000000000000E+020
  9
$PEXTMAX
 10
-1.0000000000000000E+020
 20
-1.0000000000000000E+020
 30
-1.0000000000000000E+020
  9
$PLIMMIN
 10
0.0
 20
0.0
  9
$PLIMMAX
 10
12.0
 20
9.0
  9
$UNITMODE
 70
     0
  9
$VISRETAIN
 70
     0
  9
$PLINEGEN
 70
     0
  9
$PSLTSCALE
 70
     0
  0
ENDSEC
  0
SECTION
  2
TABLES
  0
TABLE
  2
VPORT
 70
     1
  0
VPORT
  2
*ACTIVE
 70
     0
 10
0.0
 20
0.0
 11
1.0
 21
1.0
 12
39.050132874214071
 22
26.51042978375774
 13
0.0
 23
0.0
 14
2.0
 24
2.0
 15
2.0
 25
2.0
 16
0.0
 26
0.0
 36
1.0
 17
0.0
 27
0.0
 37
0.0
 40
56.486863740591382
 41
1.831871345029239
 42
50.0
 43
0.0
 44
0.0
 50
0.0
 51
0.0
 71
     0
 72
   500
 73
     1
 74
     0
 75
     0
 76
     0
 77
     0
 78
     2
  0
ENDTAB
  0
TABLE
  2
LTYPE
 70
     4
  0
LTYPE
  2
CONTINUOUS
 70
     0
  3
Solid Line
 72
    65
 73
     0
 40
0.0
  0
LTYPE
  2
CENTER
 70
     0
  3
____ _ ____ _ ____ _ ____ _ ____ _ ____ _ ____
 72
    65
 73
     4
 40
2.0
 49
1.25
 49
-0.25
 49
0.25
 49
-0.25
  0
LTYPE
  2
HIDDEN
 70
     0
  3
_ _ _ _ _ _ _ _ _ _ _ _ _ _ _ _ _ _ _ _ _ _ _
 72
    65
 73
     2
 40
0.375
 49
0.25
 49
-0.125
  0
LTYPE
  2
PHANTOM2
 70
     0
  3
___ _ _ ___ _ _ ___ _ _ ___ _ _
 72
    65
 73
     6
 40
1.25
 49
0.625
 49
-0.125
 49
0.125
 49
-0.125
 49
0.125
 49
-0.125
  0
ENDTAB
  0
TABLE
  2
LAYER
 70
     4
  0
LAYER
  2
0
 70
     0
 62
     7
  6
CONTINUOUS
  0
LAYER
  2
1
 70
     0
 62
     1
  6
CENTER
  0
LAYER
  2
2
 70
     0
 62
     2
  6
HIDDEN
  0
LAYER
  2
3
 70
     0
 62
     3
  6
CONTINUOUS
  0
ENDTAB
  0
TABLE
  2
STYLE
 70
     2
  0
STYLE
  2
STANDARD
 70
     0
 40
0.0
 41
1.0
 50
0.0
 71
     0
 42
1.0000000000000491
  3
TXT
  4
BIGFONT
  0
STYLE
  2
STANDARD1
 70
     0
 40
0.0
 41
1.0
 50
0.0
 71
     0
 42
3.0
  3
txt
  4

  0
ENDTAB
  0
TABLE
  2
VIEW
 70
     1
  0
VIEW
  2
ALL
 70
     0
 40
54.0
 10
44.198319327731092
 20
27.0
 41
0.0
 11
0.0
 21
0.0
 31
1.0
 12
0.0
 22
0.0
 32
0.0
 42
0.0
 43
0.0
 44
0.0
 50
0.0
 71
     0
  0
ENDTAB
  0
TABLE
  2
UCS
 70
     0
  0
ENDTAB
  0
TABLE
  2
APPID
 70
     3
  0
APPID
  2
ACAD
 70
     0
  0
APPID
  2
ACAD_MLEADERVER
 70
     0
  0
APPID
  2
ACAD_NAV_VCDISPLAY
 70
     0
  0
ENDTAB
  0
TABLE
  2
DIMSTYLE
 70
     1
  0
DIMSTYLE
  2
STANDARD
 70
     0
  3

  4

  5

  6

  7

 40
1.0
 41
0.18
 42
0.0625
 43
0.38
 44
0.18
 45
0.0
 46
0.0
 47
0.0
 48
0.0
140
0.18
141
0.09
142
0.0
143
25.399999999999999
144
1.0
145
0.0
146
1.0
147
0.09
 71
     0
 72
     0
 73
     1
 74
     1
 75
     0
 76
     0
 77
     0
 78
     0
170
     0
171
     2
172
     0
173
     0
174
     0
175
     0
176
     0
177
     0
178
     0
  0
ENDTAB
  0
ENDSEC
  0
SECTION
  2
BLOCKS
  0
BLOCK
  8
0
  2
$MODEL_SPACE
 70
     0
 10
0.0
 20
0.0
 30
0.0
  3
$MODEL_SPACE
  1

  0
ENDBLK
  5
C8
  8
0
  0
BLOCK
 67
     1
  8
0
  2
$PAPER_SPACE
 70
     0
 10
0.0
 20
0.0
 30
0.0
  3
$PAPER_SPACE
  1

  0
ENDBLK
  5
C6
 67
     1
  8
0
  0
ENDSEC
  0
SECTION
  2
ENTITIES
  0
LINE
  5
38
  8
0
 10
21.344426253283611
 20
33.604098008322438
 30
0.0
 11
21.344426253283611
 21
35.047473681296282
 31
0.0
  0
LINE
  5
39
  8
0
 10
21.344426253284521
 20
35.047473680122351
 30
0.0
 11
22.594426253283611
 21
35.769161516609387
 31
0.0
  0
LINE
  5
3A
  8
0
 10
22.59442625226589
 20
35.769161516021171
 30
0.0
 11
23.84442625226589
 21
35.04747367953437
 31
0.0
  0
LINE
  5
3B
  8
0
 10
23.844426251249079
 20
35.047473680121442
 30
0.0
 11
23.844426251249079
 21
33.604098007147599
 31
0.0
  0
LINE
  5
3C
  8
0
 10
23.844426251249079
 20
33.604098008322438
 30
0.0
 11
22.594426251249079
 21
32.88241017183541
 31
0.0
  0
LINE
  5
3D
  8
0
 10
22.59442625226589
 20
32.882410172423619
 30
0.0
 11
21.34442625226589
 21
33.604098008910427
 31
0.0
  0
CIRCLE
  5
3E
  8
3
 10
22.594426252266171
 20
34.325785844222509
 30
0.0
 40
2.0669999999999988
  0
CIRCLE
  5
3F
  8
0
 10
22.594426252266171
 20
34.325785844222509
 30
0.0
 40
2.5
  0
LINE
  5
40
  8
2
 10
40.796713680307469
 20
35.76916151602147
 30
0.0
 11
41.630047012962358
 21
34.325785844222523
 31
0.0
  0
LINE
  5
41
  8
2
 10
40.796713680307469
 20
32.882410172423519
 30
0.0
 11
41.630047012962358
 21
34.325785844222523
 31
0.0
  0
LINE
  5
42
  8
2
 10
40.796713680307469
 20
32.882410172423519
 30
0.0
 11
40.796713680307469
 21
35.769161516021533
 31
0.0
  0
LINE
  5
43
  8
2
 10
38.296713680307469
 20
35.769161516021533
 30
0.0
 11
40.796713680307469
 21
35.769161516021533
 31
0.0
  0
LINE
  5
44
  8
2
 10
38.296713680307469
 20
35.047473680121463
 30
0.0
 11
40.796713680307469
 21
35.047473680121463
 31
0.0
  0
LINE
  5
45
  8
2
 10
38.296713680307469
 20
33.60409800832246
 30
0.0
 11
40.796713680307469
 21
33.60409800832246
 31
0.0
  0
LINE
  5
46
  8
2
 10
38.296713680307469
 20
32.882410172423519
 30
0.0
 11
40.796713680307469
 21
32.882410172423519
 31
0.0
  0
LINE
  5
47
  8
0
 10
38.796713680307469
 20
36.825785844222132
 30
0.0
 11
38.296713680307469
 21
35.959760440437712
 31
0.0
  0
LINE
  5
48
  8
0
 10
38.796713680307469
 20
31.82578584422286
 30
0.0
 11
38.296713680307469
 21
32.691811248007284
 31
0.0
  0
LINE
  5
49
  8
0
 10
38.796713680307469
 20
31.82578584422286
 30
0.0
 11
38.796713680307469
 21
36.825785844222132
 31
0.0
  0
LINE
  5
4A
  8
0
 10
38.296713680307469
 20
32.691811248007284
 30
0.0
 11
38.296713680307469
 21
35.959760440437712
 31
0.0
  0
LINE
  5
4B
  8
0
 10
49.030688276523698
 20
36.825785844222111
 30
0.0
 11
38.796713680307469
 21
36.825785844222132
 31
0.0
  0
LINE
  5
4C
  8
3
 10
49.780666276200819
 20
36.392785844222232
 30
0.0
 11
38.546721013748417
 21
36.39278584422231
 31
0.0
  0
LINE
  5
4D
  8
0
 10
49.030688276523577
 20
31.82578584422286
 30
0.0
 11
38.796713680307441
 21
31.82578584422286
 31
0.0
  0
LINE
  5
4E
  8
3
 10
49.780666276200677
 20
32.258785844222729
 30
0.0
 11
38.546721013748417
 21
32.258785844222743
 31
0.0
  0
LINE
  5
4F
  8
1
 10
52.096713680307502
 20
34.325785844222523
 30
0.0
 11
37.296713680307469
 21
34.325785844222509
 31
0.0
  0
LINE
  5
50
  8
0
 10
49.896713680307442
 20
32.32578584422253
 30
0.0
 11
49.89671368030745
 21
36.325785844222523
 31
0.0
  0
LINE
  5
51
  8
1
 10
26.094426252266182
 20
34.325785844222509
 30
0.0
 11
19.094426252266171
 21
34.325785844222509
 31
0.0
  0
LINE
  5
52
  8
1
 10
22.594426252266171
 20
37.825785844222509
 30
0.0
 11
22.594426252266171
 21
30.825785844222509
 31
0.0
  0
LINE
  5
53
  8
0
 10
49.896713680307442
 20
36.325785844222523
 30
0.0
 11
49.030688276523698
 21
36.825785844222111
 31
0.0
  0
LINE
  5
54
  8
0
 10
49.896713680307442
 20
32.325785844222523
 30
0.0
 11
49.030688276523698
 21
31.825785844222931
 31
0.0
  0
LINE
  5
55
  8
0
 10
49.030688276523691
 20
36.825785844222111
 30
0.0
 11
49.030688276523577
 21
31.82578584422286
 31
0.0
  0
LINE
  5
56
  8
1
 10
49.396713680307492
 20
37.07578584422253
 30
0.0
 11
49.396713680307492
 21
31.575785844222519
 31
0.0
  0
LINE
  5
62
  8
1
 10
70.334977971946898
 20
37.825785844222509
 30
0.0
 11
70.334977971946898
 21
30.825785844222509
 31
0.0
  0
LINE
  5
63
  8
1
 10
73.834977971946898
 20
34.325785844222509
 30
0.0
 11
66.834977971946884
 21
34.325785844222509
 31
0.0
  0
CIRCLE
  5
64
  8
0
 10
70.334977971946898
 20
34.325785844222509
 30
0.0
 40
2.5
  0
CIRCLE
  5
65
  8
3
 10
70.334977971946898
 20
34.325785844222509
 30
0.0
 40
2.0669999999999988
  0
LINE
  5
6A
  8
0
 10
49.030688276523691
 20
54.251145556452329
 30
0.0
 11
49.030688276523577
 21
49.251145556453082
 31
0.0
  0
LINE
  5
6B
  8
0
 10
49.896713680307442
 20
49.751145556452741
 30
0.0
 11
49.030688276523698
 21
49.251145556453153
 31
0.0
  0
LINE
  5
6C
  8
0
 10
49.896713680307442
 20
53.751145556452741
 30
0.0
 11
49.030688276523698
 21
54.251145556452329
 31
0.0
  0
LINE
  5
6D
  8
0
 10
49.896713680307442
 20
49.751145556452762
 30
0.0
 11
49.89671368030745
 21
53.751145556452741
 31
0.0
  0
LINE
  5
6E
  8
1
 10
52.096713680307502
 20
51.751145556452741
 30
0.0
 11
37.296713680307469
 21
51.75114555645272
 31
0.0
  0
LINE
  5
6F
  8
3
 10
49.780666276200677
 20
49.684145556452947
 30
0.0
 11
38.546721013748417
 21
49.684145556452961
 31
0.0
  0
LINE
  5
70
  8
0
 10
49.030688276523577
 20
49.251145556453082
 30
0.0
 11
38.796713680307441
 21
49.251145556453082
 31
0.0
  0
LINE
  5
71
  8
3
 10
49.780666276200819
 20
53.81814555645245
 30
0.0
 11
38.546721013748417
 21
53.818145556452521
 31
0.0
  0
LINE
  5
72
  8
0
 10
49.030688276523698
 20
54.251145556452329
 30
0.0
 11
38.796713680307469
 21
54.251145556452343
 31
0.0
  0
LINE
  5
73
  8
0
 10
38.296713680307469
 20
50.117170960237502
 30
0.0
 11
38.296713680307469
 21
53.385120152667923
 31
0.0
  0
LINE
  5
74
  8
0
 10
38.796713680307469
 20
49.251145556453082
 30
0.0
 11
38.796713680307469
 21
54.251145556452343
 31
0.0
  0
LINE
  5
75
  8
0
 10
38.796713680307469
 20
49.251145556453082
 30
0.0
 11
38.296713680307469
 21
50.117170960237502
 31
0.0
  0
LINE
  5
76
  8
0
 10
38.796713680307469
 20
54.251145556452343
 30
0.0
 11
38.296713680307469
 21
53.385120152667923
 31
0.0
  0
LINE
  5
77
  8
2
 10
40.796713680307462
 20
50.50114555747016
 30
0.0
 11
40.796713680307462
 21
53.00114555543562
 31
0.0
  0
LINE
  5
78
  8
2
 10
38.296713680307462
 20
50.501145557470167
 30
0.0
 11
40.796713680307462
 21
50.501145557470167
 31
0.0
  0
LINE
  5
79
  8
2
 10
38.296713680307462
 20
51.751145556452727
 30
0.0
 11
40.796713680307462
 21
51.75114555645272
 31
0.0
  0
LINE
  5
7A
  8
2
 10
38.296713680307462
 20
53.00114555543562
 30
0.0
 11
40.796713680307462
 21
53.00114555543562
 31
0.0
  0
LINE
  5
7B
  8
2
 10
40.796713680307469
 20
50.501145557470167
 30
0.0
 11
41.630047012962358
 21
51.75114555645272
 31
0.0
  0
LINE
  5
7C
  8
2
 10
40.796713680307469
 20
53.00114555543562
 30
0.0
 11
41.630047012962372
 21
51.751145556452741
 31
0.0
  0
LINE
  5
7D
  8
2
 10
40.796713680307469
 20
19.693591598601071
 30
0.0
 11
41.630047012962372
 21
18.443591599618198
 31
0.0
  0
LINE
  5
7E
  8
2
 10
40.796713680307469
 20
17.193591600635632
 30
0.0
 11
41.630047012962358
 21
18.443591599618181
 31
0.0
  0
LINE
  5
7F
  8
2
 10
38.296713680307462
 20
19.693591598601081
 30
0.0
 11
40.796713680307462
 21
19.693591598601081
 31
0.0
  0
LINE
  5
80
  8
2
 10
38.296713680307462
 20
18.443591599618191
 30
0.0
 11
40.796713680307462
 21
18.443591599618181
 31
0.0
  0
LINE
  5
81
  8
2
 10
38.296713680307462
 20
17.193591600635632
 30
0.0
 11
40.796713680307462
 21
17.193591600635632
 31
0.0
  0
LINE
  5
82
  8
2
 10
40.796713680307462
 20
17.193591600635621
 30
0.0
 11
40.796713680307462
 21
19.693591598601081
 31
0.0
  0
LINE
  5
83
  8
0
 10
38.796713680307469
 20
20.943591599617811
 30
0.0
 11
38.296713680307469
 21
20.077566195833381
 31
0.0
  0
LINE
  5
84
  8
0
 10
38.796713680307469
 20
15.943591599618539
 30
0.0
 11
38.296713680307469
 21
16.809617003402959
 31
0.0
  0
LINE
  5
85
  8
0
 10
38.796713680307469
 20
15.943591599618539
 30
0.0
 11
38.796713680307469
 21
20.943591599617811
 31
0.0
  0
LINE
  5
86
  8
0
 10
38.296713680307469
 20
16.809617003402959
 30
0.0
 11
38.296713680307469
 21
20.077566195833381
 31
0.0
  0
LINE
  5
87
  8
0
 10
49.030688276523698
 20
20.9435915996178
 30
0.0
 11
38.796713680307469
 21
20.943591599617811
 31
0.0
  0
LINE
  5
88
  8
3
 10
49.780666276200819
 20
20.510591599617911
 30
0.0
 11
38.546721013748417
 21
20.510591599617982
 31
0.0
  0
LINE
  5
89
  8
0
 10
49.030688276523577
 20
15.94359159961853
 30
0.0
 11
38.796713680307441
 21
15.943591599618539
 31
0.0
  0
LINE
  5
8A
  8
3
 10
49.780666276200677
 20
16.376591599618411
 30
0.0
 11
38.546721013748417
 21
16.376591599618418
 31
0.0
  0
LINE
  5
8B
  8
1
 10
52.096713680307502
 20
18.443591599618198
 30
0.0
 11
37.296713680307469
 21
18.443591599618181
 31
0.0
  0
LINE
  5
8C
  8
0
 10
49.896713680307442
 20
16.443591599618209
 30
0.0
 11
49.89671368030745
 21
20.443591599618198
 31
0.0
  0
LINE
  5
8D
  8
0
 10
49.896713680307442
 20
20.443591599618198
 30
0.0
 11
49.030688276523698
 21
20.94359159961779
 31
0.0
  0
LINE
  5
8E
  8
0
 10
49.896713680307442
 20
16.443591599618198
 30
0.0
 11
49.030688276523698
 21
15.94359159961861
 31
0.0
  0
LINE
  5
8F
  8
0
 10
49.030688276523691
 20
20.94359159961779
 30
0.0
 11
49.030688276523577
 21
15.94359159961853
 31
0.0
  0
ARC
  5
D8
  8
2
 10
49.396713680307478
 20
34.325785844222509
 30
0.0
 40
1.5
 50
70.528779365510474
 51
289.47122063448933
  0
ARC
  5
D9
  8
0
 10
49.396713680307478
 20
34.325785844222509
 30
0.0
 40
1.5
 50
289.47122063448933
 51
70.528779365510474
  0
ARC
  5
DA
  8
0
 10
49.396713680307471
 20
51.75114555645272
 30
0.0
 40
1.5
 50
289.47122063448933
 51
70.528779365510474
  0
ARC
  5
DB
  8
2
 10
49.396713680307471
 20
51.75114555645272
 30
0.0
 40
1.5
 50
70.528779365510474
 51
289.47122063448933
  0
LINE
  5
DC
  8
1
 10
49.396713680307478
 20
54.501145556452727
 30
0.0
 11
49.396713680307478
 21
49.001145556452727
 31
0.0
  0
ARC
  5
DD
  8
0
 10
49.396713680307478
 20
18.44359159961817
 30
0.0
 40
1.5
 50
289.47122063448933
 51
70.528779365510474
  0
ARC
  5
DE
  8
2
 10
49.396713680307478
 20
18.44359159961817
 30
0.0
 40
1.5
 50
70.528779365510474
 51
289.47122063448933
  0
LINE
  5
DF
  8
1
 10
49.396713680307492
 20
21.193591599618181
 30
0.0
 11
49.396713680307492
 21
15.693591599618181
 31
0.0
  0
CIRCLE
  5
E1
  8
0
 10
70.334977971946898
 20
34.325785844222509
 30
0.0
 40
1.41421356237311
  0
TEXT
  5
1C0
  8
0
 62
     3
 10
0.0
 20
0.0
 30
0.0
 40
5.0
  1
BSR5X12-SUS
  7
STANDARD1
  0
ENDSEC
  0
EOF
