  0
SECTION
  2
HEADER
  9
$ACADVER
  1
AC1009
  9
$INSBASE
 10
0.0
 20
0.0
 30
0.0
  9
$EXTMIN
 10
-0.0005
 20
-1.4802182810368341
 30
0.0
  9
$EXTMAX
 10
75.557782841309717
 20
55.527986730638197
 30
0.0
  9
$LIMMIN
 10
0.0
 20
0.0
  9
$LIMMAX
 10
75.0
 20
54.0
  9
$ORTHOMODE
 70
     0
  9
$REGENMODE
 70
     1
  9
$FILLMODE
 70
     1
  9
$QTEXTMODE
 70
     0
  9
$MIRRTEXT
 70
     0
  9
$DRAGMODE
 70
     2
  9
$LTSCALE
 40
2.0
  9
$OSMODE
 70
  3071
  9
$ATTMODE
 70
     1
  9
$TEXTSIZE
 40
1.0000000000000491
  9
$TRACEWID
 40
0.05
  9
$TEXTSTYLE
  7
STANDARD
  9
$CLAYER
  8
0
  9
$CELTYPE
  6
BYLAYER
  9
$CECOLOR
 62
   256
  9
$DIMSCALE
 40
0.2
  9
$DIMASZ
 40
3.0
  9
$DIMEXO
 40
2.0
  9
$DIMDLI
 40
0.38
  9
$DIMRND
 40
0.0
  9
$DIMDLE
 40
0.0
  9
$DIMEXE
 40
2.0
  9
$DIMTP
 40
0.0
  9
$DIMTM
 40
0.0
  9
$DIMTXT
 40
3.0
  9
$DIMCEN
 40
0.0
  9
$DIMTSZ
 40
0.0
  9
$DIMTOL
 70
     0
  9
$DIMLIM
 70
     0
  9
$DIMTIH
 70
     0
  9
$DIMTOH
 70
     0
  9
$DIMSE1
 70
     0
  9
$DIMSE2
 70
     0
  9
$DIMTAD
 70
     1
  9
$DIMZIN
 70
     0
  9
$DIMBLK
  1

  9
$DIMASO
 70
     0
  9
$DIMSHO
 70
     0
  9
$DIMPOST
  1

  9
$DIMAPOST
  1

  9
$DIMALT
 70
     0
  9
$DIMALTD
 70
     2
  9
$DIMALTF
 40
25.399999999999999
  9
$DIMLFAC
 40
1.0
  9
$DIMTOFL
 70
     1
  9
$DIMTVP
 40
1.6000000000000001
  9
$DIMTIX
 70
     1
  9
$DIMSOXD
 70
     0
  9
$DIMSAH
 70
     0
  9
$DIMBLK1
  1

  9
$DIMBLK2
  1

  9
$DIMSTYLE
  2
STANDARD
  9
$DIMCLRD
 70
     0
  9
$DIMCLRE
 70
     0
  9
$DIMCLRT
 70
     0
  9
$DIMTFAC
 40
1.0
  9
$DIMGAP
 40
0.09
  9
$LUNITS
 70
     2
  9
$LUPREC
 70
     4
  9
$SKETCHINC
 40
0.1
  9
$FILLETRAD
 40
0.0
  9
$AUNITS
 70
     0
  9
$AUPREC
 70
     4
  9
$MENU
  1
E:\r13\win\SUPPORT\ACAD
  9
$ELEVATION
 40
0.0
  9
$PELEVATION
 40
0.0
  9
$THICKNESS
 40
0.0
  9
$LIMCHECK
 70
     0
  9
$BLIPMODE
 70
     0
  9
$CHAMFERA
 40
0.0
  9
$CHAMFERB
 40
0.0
  9
$SKPOLY
 70
     0
  9
$TDCREATE
 40
2449840.6212152778
  9
$TDUPDATE
 40
2456598.4010117012
  9
$TDINDWG
 40
0.0044290046
  9
$TDUSRTIMER
 40
0.0044290046
  9
$USRTIMER
 70
     1
  9
$ANGBASE
 50
0.0
  9
$ANGDIR
 70
     0
  9
$PDMODE
 70
     0
  9
$PDSIZE
 40
0.0
  9
$PLINEWID
 40
0.0
  9
$COORDS
 70
     1
  9
$SPLFRAME
 70
     0
  9
$SPLINETYPE
 70
     6
  9
$SPLINESEGS
 70
     8
  9
$ATTDIA
 70
     0
  9
$ATTREQ
 70
     1
  9
$HANDLING
 70
     1
  9
$HANDSEED
  5
24D
  9
$SURFTAB1
 70
     6
  9
$SURFTAB2
 70
     6
  9
$SURFTYPE
 70
     6
  9
$SURFU
 70
     6
  9
$SURFV
 70
     6
  9
$UCSNAME
  2

  9
$UCSORG
 10
0.0
 20
0.0
 30
0.0
  9
$UCSXDIR
 10
1.0
 20
0.0
 30
0.0
  9
$UCSYDIR
 10
0.0
 20
1.0
 30
0.0
  9
$PUCSNAME
  2

  9
$PUCSORG
 10
0.0
 20
0.0
 30
0.0
  9
$PUCSXDIR
 10
1.0
 20
0.0
 30
0.0
  9
$PUCSYDIR
 10
0.0
 20
1.0
 30
0.0
  9
$USERI1
 70
     0
  9
$USERI2
 70
     1
  9
$USERI3
 70
     1
  9
$USERI4
 70
     0
  9
$USERI5
 70
     0
  9
$USERR1
 40
0.0
  9
$USERR2
 40
0.0
  9
$USERR3
 40
0.0
  9
$USERR4
 40
0.0
  9
$USERR5
 40
0.0
  9
$WORLDVIEW
 70
     1
  9
$SHADEDGE
 70
     3
  9
$SHADEDIF
 70
    70
  9
$TILEMODE
 70
     1
  9
$MAXACTVP
 70
    16
  9
$PLIMCHECK
 70
     0
  9
$PEXTMIN
 10
1.0000000000000000E+020
 20
1.0000000000000000E+020
 30
1.0000000000000000E+020
  9
$PEXTMAX
 10
-1.0000000000000000E+020
 20
-1.0000000000000000E+020
 30
-1.0000000000000000E+020
  9
$PLIMMIN
 10
0.0
 20
0.0
  9
$PLIMMAX
 10
12.0
 20
9.0
  9
$UNITMODE
 70
     0
  9
$VISRETAIN
 70
     0
  9
$PLINEGEN
 70
     0
  9
$PSLTSCALE
 70
     0
  0
ENDSEC
  0
SECTION
  2
TABLES
  0
TABLE
  2
VPORT
 70
     1
  0
VPORT
  2
*ACTIVE
 70
     0
 10
0.0
 20
0.0
 11
1.0
 21
1.0
 12
39.358338494125128
 22
27.024476454675948
 13
0.0
 23
0.0
 14
2.0
 24
2.0
 15
2.0
 25
2.0
 16
0.0
 26
0.0
 36
1.0
 17
0.0
 27
0.0
 37
0.0
 40
57.521714125930849
 41
1.831871345029239
 42
50.0
 43
0.0
 44
0.0
 50
0.0
 51
0.0
 71
     0
 72
   500
 73
     1
 74
     0
 75
     0
 76
     0
 77
     0
 78
     2
  0
ENDTAB
  0
TABLE
  2
LTYPE
 70
     4
  0
LTYPE
  2
CONTINUOUS
 70
     0
  3
Solid Line
 72
    65
 73
     0
 40
0.0
  0
LTYPE
  2
CENTER
 70
     0
  3
____ _ ____ _ ____ _ ____ _ ____ _ ____ _ ____
 72
    65
 73
     4
 40
2.0
 49
1.25
 49
-0.25
 49
0.25
 49
-0.25
  0
LTYPE
  2
HIDDEN
 70
     0
  3
_ _ _ _ _ _ _ _ _ _ _ _ _ _ _ _ _ _ _ _ _ _ _
 72
    65
 73
     2
 40
0.375
 49
0.25
 49
-0.125
  0
LTYPE
  2
PHANTOM2
 70
     0
  3
___ _ _ ___ _ _ ___ _ _ ___ _ _
 72
    65
 73
     6
 40
1.25
 49
0.625
 49
-0.125
 49
0.125
 49
-0.125
 49
0.125
 49
-0.125
  0
ENDTAB
  0
TABLE
  2
LAYER
 70
     5
  0
LAYER
  2
0
 70
     0
 62
     7
  6
CONTINUOUS
  0
LAYER
  2
1
 70
     0
 62
     1
  6
CENTER
  0
LAYER
  2
2
 70
     0
 62
     2
  6
HIDDEN
  0
LAYER
  2
3
 70
     0
 62
     3
  6
CONTINUOUS
  0
LAYER
  2
ITTEN
 70
     0
 62
     1
  6
CENTER
  0
ENDTAB
  0
TABLE
  2
STYLE
 70
     2
  0
STYLE
  2
STANDARD
 70
     0
 40
0.0
 41
1.0
 50
0.0
 71
     0
 42
1.0000000000000491
  3
TXT
  4
BIGFONT
  0
STYLE
  2
STANDARD1
 70
     0
 40
0.0
 41
1.0
 50
0.0
 71
     0
 42
3.0
  3
txt
  4

  0
ENDTAB
  0
TABLE
  2
VIEW
 70
     1
  0
VIEW
  2
ALL
 70
     0
 40
54.0
 10
44.198319327731092
 20
27.0
 41
0.0
 11
0.0
 21
0.0
 31
1.0
 12
0.0
 22
0.0
 32
0.0
 42
0.0
 43
0.0
 44
0.0
 50
0.0
 71
     0
  0
ENDTAB
  0
TABLE
  2
UCS
 70
     0
  0
ENDTAB
  0
TABLE
  2
APPID
 70
     3
  0
APPID
  2
ACAD
 70
     0
  0
APPID
  2
ACAD_MLEADERVER
 70
     0
  0
APPID
  2
ACAD_NAV_VCDISPLAY
 70
     0
  0
ENDTAB
  0
TABLE
  2
DIMSTYLE
 70
     1
  0
DIMSTYLE
  2
STANDARD
 70
     0
  3

  4

  5

  6

  7

 40
1.0
 41
0.18
 42
0.0625
 43
0.38
 44
0.18
 45
0.0
 46
0.0
 47
0.0
 48
0.0
140
0.18
141
0.09
142
0.0
143
25.399999999999999
144
1.0
145
0.0
146
1.0
147
0.09
 71
     0
 72
     0
 73
     1
 74
     1
 75
     0
 76
     0
 77
     0
 78
     0
170
     0
171
     2
172
     0
173
     0
174
     0
175
     0
176
     0
177
     0
178
     0
  0
ENDTAB
  0
ENDSEC
  0
SECTION
  2
BLOCKS
  0
BLOCK
  8
0
  2
$MODEL_SPACE
 70
     0
 10
0.0
 20
0.0
 30
0.0
  3
$MODEL_SPACE
  1

  0
ENDBLK
  5
C4
  8
0
  0
BLOCK
 67
     1
  8
0
  2
$PAPER_SPACE
 70
     0
 10
0.0
 20
0.0
 30
0.0
  3
$PAPER_SPACE
  1

  0
ENDBLK
  5
C2
 67
     1
  8
0
  0
BLOCK
  8
0
  2
BATU
 70
     0
 10
0.0
 20
0.0
 30
0.0
  3
BATU
  1

  0
LINE
  5
CF
  8
ITTEN
 10
0.5
 20
0.0
 30
0.0
 11
-0.5
 21
0.0
 31
0.0
  0
LINE
  5
D0
  8
ITTEN
 10
0.0
 20
0.5
 30
0.0
 11
0.0
 21
-0.5
 31
0.0
  0
ENDBLK
  5
D2
  8
0
  0
ENDSEC
  0
SECTION
  2
ENTITIES
  0
LINE
  5
36
  8
0
 10
19.53039436267234
 20
34.08327731200432
 30
0.0
 11
19.53039436267234
 21
35.526652984978163
 31
0.0
  0
LINE
  5
37
  8
0
 10
19.530394362673249
 20
35.526652983804233
 30
0.0
 11
20.78039436267234
 21
36.248340820291261
 31
0.0
  0
LINE
  5
38
  8
0
 10
20.780394361654619
 20
36.248340819703053
 30
0.0
 11
22.030394361654619
 21
35.526652983216238
 31
0.0
  0
LINE
  5
39
  8
0
 10
22.030394360637811
 20
35.526652983803316
 30
0.0
 11
22.030394360637811
 21
34.083277310829473
 31
0.0
  0
LINE
  5
3A
  8
0
 10
22.030394360637811
 20
34.08327731200432
 30
0.0
 11
20.780394360637811
 21
33.361589475517277
 31
0.0
  0
LINE
  5
3B
  8
0
 10
20.780394361654619
 20
33.361589476105493
 30
0.0
 11
19.530394361654611
 21
34.083277312592301
 31
0.0
  0
CIRCLE
  5
3C
  8
3
 10
20.780394361654899
 20
34.804965147904383
 30
0.0
 40
2.0669999999999988
  0
CIRCLE
  5
3D
  8
0
 10
20.780394361654899
 20
34.804965147904383
 30
0.0
 40
2.5
  0
LINE
  5
3E
  8
2
 10
38.929344065666832
 20
36.248340819703337
 30
0.0
 11
39.762677398321721
 21
34.804965147904397
 31
0.0
  0
LINE
  5
3F
  8
2
 10
38.929344065666832
 20
33.361589476105387
 30
0.0
 11
39.762677398321721
 21
34.804965147904397
 31
0.0
  0
LINE
  5
40
  8
2
 10
38.929344065666832
 20
33.361589476105387
 30
0.0
 11
38.929344065666832
 21
36.248340819703401
 31
0.0
  0
LINE
  5
41
  8
2
 10
36.429344065666832
 20
36.248340819703401
 30
0.0
 11
38.929344065666832
 21
36.248340819703401
 31
0.0
  0
LINE
  5
42
  8
2
 10
36.429344065666832
 20
35.526652983803331
 30
0.0
 11
38.929344065666832
 21
35.526652983803331
 31
0.0
  0
LINE
  5
43
  8
2
 10
36.429344065666832
 20
34.083277312004327
 30
0.0
 11
38.929344065666832
 21
34.083277312004327
 31
0.0
  0
LINE
  5
44
  8
2
 10
36.429344065666832
 20
33.361589476105387
 30
0.0
 11
38.929344065666832
 21
33.361589476105387
 31
0.0
  0
LINE
  5
45
  8
0
 10
36.929344065666839
 20
37.304965147903999
 30
0.0
 11
36.429344065666832
 21
36.43893974411958
 31
0.0
  0
LINE
  5
46
  8
0
 10
36.929344065666839
 20
32.304965147904738
 30
0.0
 11
36.429344065666832
 21
33.170990551689158
 31
0.0
  0
LINE
  5
47
  8
0
 10
36.929344065666839
 20
32.304965147904738
 30
0.0
 11
36.929344065666839
 21
37.304965147903999
 31
0.0
  0
LINE
  5
48
  8
0
 10
36.429344065666832
 20
33.170990551689158
 30
0.0
 11
36.429344065666832
 21
36.43893974411958
 31
0.0
  0
LINE
  5
49
  8
0
 10
55.163318661883061
 20
37.304965147903992
 30
0.0
 11
36.929344065666839
 21
37.304965147903999
 31
0.0
  0
LINE
  5
4A
  8
3
 10
55.913296661560182
 20
36.871965147904113
 30
0.0
 11
36.67935139910778
 21
36.871965147904177
 31
0.0
  0
LINE
  5
4B
  8
0
 10
55.16331866188294
 20
32.304965147904717
 30
0.0
 11
36.929344065666797
 21
32.304965147904738
 31
0.0
  0
LINE
  5
4C
  8
3
 10
55.913296661560047
 20
32.737965147904603
 30
0.0
 11
36.67935139910778
 21
32.737965147904617
 31
0.0
  0
LINE
  5
4D
  8
1
 10
58.229344065666858
 20
34.804965147904397
 30
0.0
 11
35.429344065666832
 21
34.804965147904383
 31
0.0
  0
LINE
  5
4E
  8
0
 10
56.029344065666812
 20
32.804965147904412
 30
0.0
 11
56.029344065666812
 21
36.804965147904397
 31
0.0
  0
LINE
  5
4F
  8
1
 10
24.280394361654899
 20
34.804965147904383
 30
0.0
 11
17.280394361654899
 21
34.804965147904383
 31
0.0
  0
LINE
  5
50
  8
1
 10
20.780394361654899
 20
38.304965147904383
 30
0.0
 11
20.780394361654899
 21
31.30496514790438
 31
0.0
  0
LINE
  5
51
  8
0
 10
56.029344065666798
 20
36.804965147904397
 30
0.0
 11
55.163318661883061
 21
37.304965147903992
 31
0.0
  0
LINE
  5
52
  8
0
 10
56.029344065666798
 20
32.804965147904397
 30
0.0
 11
55.163318661883061
 21
32.304965147904802
 31
0.0
  0
LINE
  5
53
  8
0
 10
55.163318661883061
 20
37.304965147903992
 30
0.0
 11
55.16331866188294
 21
32.304965147904717
 31
0.0
  0
LINE
  5
54
  8
1
 10
55.529344065666848
 20
37.554965147904397
 30
0.0
 11
55.529344065666848
 21
32.054965147904397
 31
0.0
  0
LINE
  5
60
  8
1
 10
72.057782841309717
 20
38.304965147904383
 30
0.0
 11
72.057782841309717
 21
31.30496514790438
 31
0.0
  0
LINE
  5
61
  8
1
 10
75.557782841309717
 20
34.804965147904383
 30
0.0
 11
68.557782841309717
 21
34.804965147904383
 31
0.0
  0
CIRCLE
  5
62
  8
0
 10
72.057782841309717
 20
34.804965147904383
 30
0.0
 40
2.5
  0
CIRCLE
  5
63
  8
3
 10
72.057782841309717
 20
34.804965147904383
 30
0.0
 40
2.0669999999999988
  0
LINE
  5
68
  8
0
 10
55.163318661883061
 20
55.277986730637799
 30
0.0
 11
55.16331866188294
 21
50.277986730638538
 31
0.0
  0
LINE
  5
69
  8
0
 10
56.029344065666798
 20
50.777986730638212
 30
0.0
 11
55.163318661883061
 21
50.277986730638617
 31
0.0
  0
LINE
  5
6A
  8
0
 10
56.029344065666798
 20
54.777986730638212
 30
0.0
 11
55.163318661883061
 21
55.277986730637799
 31
0.0
  0
LINE
  5
6B
  8
0
 10
56.029344065666812
 20
50.777986730638219
 30
0.0
 11
56.029344065666812
 21
54.777986730638212
 31
0.0
  0
LINE
  5
6C
  8
1
 10
58.229344065666858
 20
52.777986730638212
 30
0.0
 11
35.429344065666832
 21
52.777986730638197
 31
0.0
  0
LINE
  5
6D
  8
3
 10
55.913296661560047
 20
50.710986730638417
 30
0.0
 11
36.67935139910778
 21
50.710986730638432
 31
0.0
  0
LINE
  5
6E
  8
0
 10
55.16331866188294
 20
50.277986730638538
 30
0.0
 11
36.929344065666797
 21
50.277986730638553
 31
0.0
  0
LINE
  5
6F
  8
3
 10
55.913296661560182
 20
54.84498673063792
 30
0.0
 11
36.67935139910778
 21
54.844986730637991
 31
0.0
  0
LINE
  5
70
  8
0
 10
55.163318661883061
 20
55.277986730637799
 30
0.0
 11
36.929344065666839
 21
55.277986730637807
 31
0.0
  0
LINE
  5
71
  8
0
 10
36.429344065666832
 20
51.144012134422972
 30
0.0
 11
36.429344065666832
 21
54.411961326853387
 31
0.0
  0
LINE
  5
72
  8
0
 10
36.929344065666839
 20
50.277986730638553
 30
0.0
 11
36.929344065666839
 21
55.277986730637807
 31
0.0
  0
LINE
  5
73
  8
0
 10
36.929344065666839
 20
50.277986730638553
 30
0.0
 11
36.429344065666832
 21
51.144012134422972
 31
0.0
  0
LINE
  5
74
  8
0
 10
36.929344065666839
 20
55.277986730637807
 30
0.0
 11
36.429344065666832
 21
54.411961326853387
 31
0.0
  0
LINE
  5
75
  8
2
 10
38.929344065666832
 20
51.527986731655631
 30
0.0
 11
38.929344065666832
 21
54.027986729621077
 31
0.0
  0
LINE
  5
76
  8
2
 10
36.429344065666832
 20
51.527986731655631
 30
0.0
 11
38.929344065666832
 21
51.527986731655631
 31
0.0
  0
LINE
  5
77
  8
2
 10
36.429344065666832
 20
52.777986730638197
 30
0.0
 11
38.929344065666832
 21
52.77798673063819
 31
0.0
  0
LINE
  5
78
  8
2
 10
36.429344065666832
 20
54.027986729621077
 30
0.0
 11
38.929344065666832
 21
54.027986729621077
 31
0.0
  0
LINE
  5
79
  8
2
 10
38.929344065666832
 20
51.527986731655631
 30
0.0
 11
39.762677398321721
 21
52.777986730638183
 31
0.0
  0
LINE
  5
7A
  8
2
 10
38.929344065666832
 20
54.027986729621077
 30
0.0
 11
39.762677398321742
 21
52.777986730638197
 31
0.0
  0
LINE
  5
7B
  8
2
 10
38.929344065666832
 20
19.085540686455609
 30
0.0
 11
39.762677398321742
 21
17.83554068747274
 31
0.0
  0
LINE
  5
7C
  8
2
 10
38.929344065666832
 20
16.585540688490159
 30
0.0
 11
39.762677398321721
 21
17.835540687472712
 31
0.0
  0
LINE
  5
7D
  8
2
 10
36.429344065666832
 20
19.085540686455609
 30
0.0
 11
38.929344065666832
 21
19.085540686455609
 31
0.0
  0
LINE
  5
7E
  8
2
 10
36.429344065666832
 20
17.835540687472729
 30
0.0
 11
38.929344065666832
 21
17.835540687472719
 31
0.0
  0
LINE
  5
7F
  8
2
 10
36.429344065666832
 20
16.585540688490159
 30
0.0
 11
38.929344065666832
 21
16.585540688490159
 31
0.0
  0
LINE
  5
80
  8
2
 10
38.929344065666832
 20
16.585540688490148
 30
0.0
 11
38.929344065666832
 21
19.085540686455609
 31
0.0
  0
LINE
  5
81
  8
0
 10
36.929344065666839
 20
20.335540687472349
 30
0.0
 11
36.429344065666832
 21
19.469515283687919
 31
0.0
  0
LINE
  5
82
  8
0
 10
36.929344065666839
 20
15.335540687473079
 30
0.0
 11
36.429344065666832
 21
16.201566091257501
 31
0.0
  0
LINE
  5
83
  8
0
 10
36.929344065666839
 20
15.335540687473079
 30
0.0
 11
36.929344065666839
 21
20.335540687472349
 31
0.0
  0
LINE
  5
84
  8
0
 10
36.429344065666832
 20
16.201566091257501
 30
0.0
 11
36.429344065666832
 21
19.469515283687919
 31
0.0
  0
LINE
  5
85
  8
0
 10
55.163318661883061
 20
20.335540687472331
 30
0.0
 11
36.929344065666839
 21
20.335540687472349
 31
0.0
  0
LINE
  5
86
  8
3
 10
55.913296661560182
 20
19.902540687472449
 30
0.0
 11
36.67935139910778
 21
19.90254068747252
 31
0.0
  0
LINE
  5
87
  8
0
 10
55.16331866188294
 20
15.33554068747307
 30
0.0
 11
36.929344065666797
 21
15.335540687473079
 31
0.0
  0
LINE
  5
88
  8
3
 10
55.913296661560047
 20
15.768540687472949
 30
0.0
 11
36.67935139910778
 21
15.76854068747296
 31
0.0
  0
LINE
  5
89
  8
1
 10
58.229344065666858
 20
17.83554068747274
 30
0.0
 11
35.429344065666832
 21
17.835540687472729
 31
0.0
  0
LINE
  5
8A
  8
0
 10
56.029344065666812
 20
15.835540687472751
 30
0.0
 11
56.029344065666812
 21
19.83554068747274
 31
0.0
  0
LINE
  5
8B
  8
0
 10
56.029344065666798
 20
19.83554068747274
 30
0.0
 11
55.163318661883061
 21
20.335540687472331
 31
0.0
  0
LINE
  5
8C
  8
0
 10
56.029344065666798
 20
15.83554068747274
 30
0.0
 11
55.163318661883061
 21
15.33554068747315
 31
0.0
  0
LINE
  5
8D
  8
0
 10
55.163318661883061
 20
20.335540687472331
 30
0.0
 11
55.16331866188294
 21
15.33554068747307
 31
0.0
  0
INSERT
  5
D3
  8
0
  2
BATU
 10
0.0
 20
0.0
 30
0.0
 41
0.001
 42
0.001
 43
0.001
  0
ARC
  5
D4
  8
2
 10
55.529344065666848
 20
34.804965147904397
 30
0.0
 40
1.5
 50
70.528779365510772
 51
289.47122063448887
  0
ARC
  5
D5
  8
0
 10
55.529344065666848
 20
34.804965147904397
 30
0.0
 40
1.5
 50
289.47122063448887
 51
70.528779365510772
  0
ARC
  5
D6
  8
0
 10
55.529344065666869
 20
52.777986730638197
 30
0.0
 40
1.5
 50
289.47122063448887
 51
70.528779365510772
  0
ARC
  5
D7
  8
2
 10
55.529344065666869
 20
52.777986730638197
 30
0.0
 40
1.5
 50
70.528779365510772
 51
289.47122063448887
  0
LINE
  5
D8
  8
1
 10
55.529344065666869
 20
55.527986730638197
 30
0.0
 11
55.529344065666869
 21
50.027986730638197
 31
0.0
  0
ARC
  5
DC
  8
0
 10
55.529344065666848
 20
17.835540687472712
 30
0.0
 40
1.5
 50
289.47122063448887
 51
70.528779365510772
  0
ARC
  5
DD
  8
2
 10
55.529344065666848
 20
17.835540687472712
 30
0.0
 40
1.5
 50
70.528779365510772
 51
289.47122063448887
  0
LINE
  5
DE
  8
1
 10
55.529344065666848
 20
20.585540687472712
 30
0.0
 11
55.529344065666848
 21
15.08554068747271
 31
0.0
  0
CIRCLE
  5
E0
  8
0
 10
72.057782841309717
 20
34.804965147904383
 30
0.0
 40
1.41421356237312
  0
TEXT
  5
1BC
  8
0
 62
     3
 10
0.0
 20
0.0
 30
0.0
 40
5.0
  1
BSR5X20-SUS
  7
STANDARD1
  0
ENDSEC
  0
EOF
