  0
SECTION
  2
HEADER
  9
$ACADVER
  1
AC1009
  9
$INSBASE
 10
0.0
 20
0.0
 30
0.0
  9
$EXTMIN
 10
0.0
 20
-1.4802182810368341
 30
0.0
  9
$EXTMAX
 10
68.151373297900008
 20
58.127647881694656
 30
0.0
  9
$LIMMIN
 10
0.0
 20
0.0
  9
$LIMMAX
 10
75.0
 20
54.0
  9
$ORTHOMODE
 70
     1
  9
$REGENMODE
 70
     1
  9
$FILLMODE
 70
     1
  9
$QTEXTMODE
 70
     0
  9
$MIRRTEXT
 70
     0
  9
$DRAGMODE
 70
     2
  9
$LTSCALE
 40
2.0
  9
$OSMODE
 70
  3071
  9
$ATTMODE
 70
     1
  9
$TEXTSIZE
 40
2.5000000000000488
  9
$TRACEWID
 40
0.05
  9
$TEXTSTYLE
  7
STANDARD
  9
$CLAYER
  8
0
  9
$CELTYPE
  6
BYLAYER
  9
$CECOLOR
 62
   256
  9
$DIMSCALE
 40
0.2
  9
$DIMASZ
 40
3.0
  9
$DIMEXO
 40
2.0
  9
$DIMDLI
 40
0.38
  9
$DIMRND
 40
0.0
  9
$DIMDLE
 40
0.0
  9
$DIMEXE
 40
2.0
  9
$DIMTP
 40
0.0
  9
$DIMTM
 40
0.0
  9
$DIMTXT
 40
3.2000000000000002
  9
$DIMCEN
 40
0.0
  9
$DIMTSZ
 40
0.0
  9
$DIMTOL
 70
     0
  9
$DIMLIM
 70
     0
  9
$DIMTIH
 70
     0
  9
$DIMTOH
 70
     0
  9
$DIMSE1
 70
     0
  9
$DIMSE2
 70
     0
  9
$DIMTAD
 70
     1
  9
$DIMZIN
 70
     0
  9
$DIMBLK
  1

  9
$DIMASO
 70
     0
  9
$DIMSHO
 70
     0
  9
$DIMPOST
  1

  9
$DIMAPOST
  1

  9
$DIMALT
 70
     0
  9
$DIMALTD
 70
     2
  9
$DIMALTF
 40
25.399999999999999
  9
$DIMLFAC
 40
1.0
  9
$DIMTOFL
 70
     1
  9
$DIMTVP
 40
1.6000000000000001
  9
$DIMTIX
 70
     1
  9
$DIMSOXD
 70
     0
  9
$DIMSAH
 70
     0
  9
$DIMBLK1
  1

  9
$DIMBLK2
  1

  9
$DIMSTYLE
  2
STANDARD
  9
$DIMCLRD
 70
     0
  9
$DIMCLRE
 70
     0
  9
$DIMCLRT
 70
     0
  9
$DIMTFAC
 40
1.0
  9
$DIMGAP
 40
0.09
  9
$LUNITS
 70
     2
  9
$LUPREC
 70
     4
  9
$SKETCHINC
 40
0.1
  9
$FILLETRAD
 40
0.0
  9
$AUNITS
 70
     0
  9
$AUPREC
 70
     4
  9
$MENU
  1
E:\r13\win\SUPPORT\ACAD
  9
$ELEVATION
 40
0.0
  9
$PELEVATION
 40
0.0
  9
$THICKNESS
 40
0.0
  9
$LIMCHECK
 70
     0
  9
$BLIPMODE
 70
     0
  9
$CHAMFERA
 40
0.0
  9
$CHAMFERB
 40
0.0
  9
$SKPOLY
 70
     0
  9
$TDCREATE
 40
2449840.6212499999
  9
$TDUPDATE
 40
2456602.6157353818
  9
$TDINDWG
 40
0.0015529167
  9
$TDUSRTIMER
 40
2456598.4170084381
  9
$USRTIMER
 70
     1
  9
$ANGBASE
 50
0.0
  9
$ANGDIR
 70
     0
  9
$PDMODE
 70
     0
  9
$PDSIZE
 40
0.0
  9
$PLINEWID
 40
0.0
  9
$COORDS
 70
     1
  9
$SPLFRAME
 70
     0
  9
$SPLINETYPE
 70
     6
  9
$SPLINESEGS
 70
     8
  9
$ATTDIA
 70
     0
  9
$ATTREQ
 70
     1
  9
$HANDLING
 70
     1
  9
$HANDSEED
  5
224
  9
$SURFTAB1
 70
     6
  9
$SURFTAB2
 70
     6
  9
$SURFTYPE
 70
     6
  9
$SURFU
 70
     6
  9
$SURFV
 70
     6
  9
$UCSNAME
  2

  9
$UCSORG
 10
0.0
 20
0.0
 30
0.0
  9
$UCSXDIR
 10
1.0
 20
0.0
 30
0.0
  9
$UCSYDIR
 10
0.0
 20
1.0
 30
0.0
  9
$PUCSNAME
  2

  9
$PUCSORG
 10
0.0
 20
0.0
 30
0.0
  9
$PUCSXDIR
 10
1.0
 20
0.0
 30
0.0
  9
$PUCSYDIR
 10
0.0
 20
1.0
 30
0.0
  9
$USERI1
 70
     0
  9
$USERI2
 70
     1
  9
$USERI3
 70
     0
  9
$USERI4
 70
     0
  9
$USERI5
 70
     0
  9
$USERR1
 40
0.0
  9
$USERR2
 40
0.0
  9
$USERR3
 40
0.0
  9
$USERR4
 40
0.0
  9
$USERR5
 40
0.0
  9
$WORLDVIEW
 70
     1
  9
$SHADEDGE
 70
     3
  9
$SHADEDIF
 70
    70
  9
$TILEMODE
 70
     1
  9
$MAXACTVP
 70
    16
  9
$PLIMCHECK
 70
     0
  9
$PEXTMIN
 10
1.0000000000000000E+020
 20
1.0000000000000000E+020
 30
1.0000000000000000E+020
  9
$PEXTMAX
 10
-1.0000000000000000E+020
 20
-1.0000000000000000E+020
 30
-1.0000000000000000E+020
  9
$PLIMMIN
 10
0.0
 20
0.0
  9
$PLIMMAX
 10
12.0
 20
9.0
  9
$UNITMODE
 70
     0
  9
$VISRETAIN
 70
     0
  9
$PLINEGEN
 70
     0
  9
$PSLTSCALE
 70
     0
  0
ENDSEC
  0
SECTION
  2
TABLES
  0
TABLE
  2
VPORT
 70
     1
  0
VPORT
  2
*ACTIVE
 70
     0
 10
0.0
 20
0.0
 11
1.0
 21
1.0
 12
39.036165471588582
 22
26.259658875478959
 13
0.0
 23
0.0
 14
2.0
 24
2.0
 15
2.0
 25
2.0
 16
0.0
 26
0.0
 36
1.0
 17
0.0
 27
0.0
 37
0.0
 40
55.978266843203883
 41
1.831871345029239
 42
50.0
 43
0.0
 44
0.0
 50
0.0
 51
0.0
 71
     0
 72
   500
 73
     1
 74
     0
 75
     0
 76
     0
 77
     0
 78
     2
  0
ENDTAB
  0
TABLE
  2
LTYPE
 70
     4
  0
LTYPE
  2
CONTINUOUS
 70
     0
  3
Solid Line
 72
    65
 73
     0
 40
0.0
  0
LTYPE
  2
CENTER
 70
     0
  3
____ _ ____ _ ____ _ ____ _ ____ _ ____ _ ____
 72
    65
 73
     4
 40
2.0
 49
1.25
 49
-0.25
 49
0.25
 49
-0.25
  0
LTYPE
  2
HIDDEN
 70
     0
  3
_ _ _ _ _ _ _ _ _ _ _ _ _ _ _ _ _ _ _ _ _ _ _
 72
    65
 73
     2
 40
0.375
 49
0.25
 49
-0.125
  0
LTYPE
  2
PHANTOM2
 70
     0
  3
___ _ _ ___ _ _ ___ _ _ ___ _ _
 72
    65
 73
     6
 40
1.25
 49
0.625
 49
-0.125
 49
0.125
 49
-0.125
 49
0.125
 49
-0.125
  0
ENDTAB
  0
TABLE
  2
LAYER
 70
     4
  0
LAYER
  2
0
 70
     0
 62
     7
  6
CONTINUOUS
  0
LAYER
  2
1
 70
     0
 62
     1
  6
CENTER
  0
LAYER
  2
2
 70
     0
 62
     2
  6
HIDDEN
  0
LAYER
  2
3
 70
     0
 62
     3
  6
CONTINUOUS
  0
ENDTAB
  0
TABLE
  2
STYLE
 70
     2
  0
STYLE
  2
STANDARD
 70
     0
 40
0.0
 41
1.0
 50
0.0
 71
     0
 42
2.5000000000000488
  3
TXT
  4
BIGFONT
  0
STYLE
  2
STANDARD1
 70
     0
 40
0.0
 41
1.0
 50
0.0
 71
     0
 42
3.0
  3
txt
  4

  0
ENDTAB
  0
TABLE
  2
VIEW
 70
     1
  0
VIEW
  2
ALL
 70
     0
 40
87.5
 10
71.617647058823522
 20
43.75
 41
0.0
 11
0.0
 21
0.0
 31
1.0
 12
0.0
 22
0.0
 32
0.0
 42
0.0
 43
0.0
 44
0.0
 50
0.0
 71
     0
  0
ENDTAB
  0
TABLE
  2
UCS
 70
     0
  0
ENDTAB
  0
TABLE
  2
APPID
 70
     3
  0
APPID
  2
ACAD
 70
     0
  0
APPID
  2
ACAD_MLEADERVER
 70
     0
  0
APPID
  2
ACAD_NAV_VCDISPLAY
 70
     0
  0
ENDTAB
  0
TABLE
  2
DIMSTYLE
 70
     1
  0
DIMSTYLE
  2
STANDARD
 70
     0
  3

  4

  5

  6

  7

 40
1.0
 41
0.18
 42
0.0625
 43
0.38
 44
0.18
 45
0.0
 46
0.0
 47
0.0
 48
0.0
140
0.18
141
0.09
142
0.0
143
25.399999999999999
144
1.0
145
0.0
146
1.0
147
0.09
 71
     0
 72
     0
 73
     1
 74
     1
 75
     0
 76
     0
 77
     0
 78
     0
170
     0
171
     2
172
     0
173
     0
174
     0
175
     0
176
     0
177
     0
178
     0
  0
ENDTAB
  0
ENDSEC
  0
SECTION
  2
BLOCKS
  0
BLOCK
  8
0
  2
$MODEL_SPACE
 70
     0
 10
0.0
 20
0.0
 30
0.0
  3
$MODEL_SPACE
  1

  0
ENDBLK
  5
C4
  8
0
  0
BLOCK
 67
     1
  8
0
  2
$PAPER_SPACE
 70
     0
 10
0.0
 20
0.0
 30
0.0
  3
$PAPER_SPACE
  1

  0
ENDBLK
  5
C2
 67
     1
  8
0
  0
ENDSEC
  0
SECTION
  2
ENTITIES
  0
CIRCLE
  5
36
  8
3
 10
11.425257632809579
 20
37.249050759392482
 30
0.0
 40
2.458499999999999
  0
CIRCLE
  5
37
  8
0
 10
11.425257632809579
 20
37.249050759392482
 30
0.0
 40
3.0
  0
LINE
  5
38
  8
0
 10
12.9252576315887
 20
38.115076162472562
 30
0.0
 11
12.9252576315887
 21
36.383025354903708
 31
0.0
  0
LINE
  5
39
  8
0
 10
12.925257631586881
 20
36.38302535631253
 30
0.0
 11
11.4252576315887
 21
35.516999952527989
 31
0.0
  0
LINE
  5
3A
  8
0
 10
11.42525763280924
 20
35.516999953233977
 30
0.0
 11
9.9252576328092417
 21
36.383025357018063
 31
0.0
  0
LINE
  5
3B
  8
0
 10
9.9252576340306931
 20
36.383025356313432
 30
0.0
 11
9.9252576340306931
 21
38.115076163882271
 31
0.0
  0
LINE
  5
3C
  8
0
 10
9.9252576340306931
 20
38.115076162472327
 30
0.0
 11
11.42525763403069
 21
38.981101566256861
 31
0.0
  0
LINE
  5
3D
  8
0
 10
11.42525763280924
 20
38.981101565550873
 30
0.0
 11
12.92525763280924
 21
38.115076161766787
 31
0.0
  0
LINE
  5
3E
  8
0
 10
29.010519102348852
 20
39.383025355606812
 30
0.0
 11
29.010519102348852
 21
35.115076163178038
 31
0.0
  0
LINE
  5
3F
  8
0
 10
29.510519102348841
 20
34.249050759393732
 30
0.0
 11
43.211480996674368
 21
34.249050759393732
 31
0.0
  0
LINE
  5
40
  8
3
 10
29.197883931582169
 20
34.790550759394343
 30
0.0
 11
44.149386508973961
 21
34.790550759394343
 31
0.0
  0
LINE
  5
41
  8
3
 10
29.19788393158235
 20
39.707550759390848
 30
0.0
 11
44.149386508973578
 21
39.707550759390841
 31
0.0
  0
LINE
  5
42
  8
0
 10
29.510519102348841
 20
40.249050759391338
 30
0.0
 11
43.21148099667414
 21
40.249050759391338
 31
0.0
  0
LINE
  5
43
  8
0
 10
44.510519102348837
 20
39.499050759392482
 30
0.0
 11
44.510519102348837
 21
34.999050759392482
 31
0.0
  0
LINE
  5
44
  8
0
 10
29.510519102348841
 20
40.249050759391338
 30
0.0
 11
29.510519102348841
 21
34.249050759393732
 31
0.0
  0
LINE
  5
45
  8
0
 10
29.510519102348791
 20
34.249050759393668
 30
0.0
 11
29.010519102348852
 21
35.115076163178152
 31
0.0
  0
LINE
  5
46
  8
0
 10
29.510519102348791
 20
40.249050759391288
 30
0.0
 11
29.010519102348852
 21
39.383025355606812
 31
0.0
  0
LINE
  5
47
  8
2
 10
29.010519102348852
 20
35.516999953233423
 30
0.0
 11
32.010519102348837
 21
35.516999953233423
 31
0.0
  0
LINE
  5
48
  8
2
 10
29.010519102348852
 20
36.383025356313723
 30
0.0
 11
32.010519102348837
 21
36.383025356313723
 31
0.0
  0
LINE
  5
49
  8
2
 10
29.010519102348852
 20
38.115076162471588
 30
0.0
 11
32.010519102348837
 21
38.115076162471588
 31
0.0
  0
LINE
  5
4A
  8
2
 10
29.010519102348901
 20
38.981101565550873
 30
0.0
 11
32.010519102348837
 21
38.981101565550873
 31
0.0
  0
LINE
  5
4B
  8
2
 10
32.010519102348837
 20
38.981101565550873
 30
0.0
 11
32.010519102348837
 21
35.516999953233423
 31
0.0
  0
LINE
  5
4C
  8
2
 10
32.010519102348837
 20
35.516999953233423
 30
0.0
 11
33.010519101535017
 21
37.249050759392539
 31
0.0
  0
LINE
  5
4D
  8
2
 10
32.010519102348837
 20
38.981101565551718
 30
0.0
 11
33.010519101535017
 21
37.249050759392539
 31
0.0
  0
LINE
  5
4E
  8
1
 10
28.010519102348852
 20
37.249050759392482
 30
0.0
 11
46.910519102348957
 21
37.249050759392489
 31
0.0
  0
LINE
  5
4F
  8
1
 10
43.910519102348957
 20
40.249050759392503
 30
0.0
 11
43.910519102348957
 21
34.24905075939246
 31
0.0
  0
LINE
  5
50
  8
0
 10
44.510519102348837
 20
39.499050759392482
 30
0.0
 11
43.211480996674169
 21
40.249050759391338
 31
0.0
  0
LINE
  5
51
  8
0
 10
44.510519102348837
 20
34.999050759392482
 30
0.0
 11
43.211480996674169
 21
34.249050759393619
 31
0.0
  0
LINE
  5
52
  8
0
 10
43.211480996674169
 20
40.249050759391338
 30
0.0
 11
43.211480996674361
 21
34.249050759393732
 31
0.0
  0
ARC
  5
53
  8
0
 10
43.910519102348957
 20
37.249050759392482
 30
0.0
 40
2.0
 50
287.45760312371618
 51
72.542396876283803
  0
ARC
  5
54
  8
2
 10
43.910519102348957
 20
37.249050759392482
 30
0.0
 40
2.0
 50
72.542396876283803
 51
287.45760312371618
  0
LINE
  5
5E
  8
1
 10
15.425257632809579
 20
37.249050759392482
 30
0.0
 11
7.425257632809581
 21
37.249050759392482
 31
0.0
  0
LINE
  5
5F
  8
1
 10
11.425257632809579
 20
41.249050759392482
 30
0.0
 11
11.425257632809579
 21
33.249050759392482
 31
0.0
  0
LINE
  5
60
  8
1
 10
64.151373297900008
 20
41.249050759392482
 30
0.0
 11
64.151373297900008
 21
33.249050759392482
 31
0.0
  0
LINE
  5
61
  8
1
 10
68.151373297900008
 20
37.249050759392482
 30
0.0
 11
60.151373297900001
 21
37.249050759392482
 31
0.0
  0
CIRCLE
  5
62
  8
0
 10
64.151373297900008
 20
37.249050759392482
 30
0.0
 40
3.0
  0
CIRCLE
  5
63
  8
3
 10
64.151373297900008
 20
37.249050759392482
 30
0.0
 40
2.458499999999999
  0
CIRCLE
  5
64
  8
0
 10
64.151373297900008
 20
37.249050759392482
 30
0.0
 40
1.907878402833826
  0
ARC
  5
65
  8
2
 10
43.910519102348957
 20
55.127647881694642
 30
0.0
 40
2.0
 50
72.542396876283803
 51
287.45760312371618
  0
ARC
  5
66
  8
0
 10
43.910519102348957
 20
55.127647881694642
 30
0.0
 40
2.0
 50
287.45760312371618
 51
72.542396876283803
  0
LINE
  5
67
  8
0
 10
43.211480996674169
 20
58.127647881693498
 30
0.0
 11
43.211480996674361
 21
52.127647881695893
 31
0.0
  0
LINE
  5
68
  8
0
 10
44.510519102348837
 20
52.877647881694642
 30
0.0
 11
43.211480996674169
 21
52.127647881695779
 31
0.0
  0
LINE
  5
69
  8
0
 10
44.510519102348837
 20
57.377647881694642
 30
0.0
 11
43.211480996674169
 21
58.127647881693498
 31
0.0
  0
LINE
  5
6A
  8
1
 10
43.910519102348957
 20
58.127647881694656
 30
0.0
 11
43.910519102348957
 21
52.127647881694621
 31
0.0
  0
LINE
  5
6B
  8
1
 10
28.010519102348852
 20
55.127647881694642
 30
0.0
 11
46.910519102348957
 21
55.127647881694642
 31
0.0
  0
LINE
  5
6C
  8
0
 10
29.510519102348791
 20
58.127647881693449
 30
0.0
 11
29.010519102348852
 21
57.261622477908972
 31
0.0
  0
LINE
  5
6D
  8
0
 10
29.510519102348791
 20
52.127647881695829
 30
0.0
 11
29.010519102348852
 21
52.993673285480313
 31
0.0
  0
LINE
  5
6E
  8
0
 10
29.510519102348841
 20
58.127647881693498
 30
0.0
 11
29.510519102348841
 21
52.127647881695893
 31
0.0
  0
LINE
  5
6F
  8
0
 10
44.510519102348837
 20
57.377647881694642
 30
0.0
 11
44.510519102348837
 21
52.877647881694628
 31
0.0
  0
LINE
  5
70
  8
0
 10
29.510519102348841
 20
58.127647881693498
 30
0.0
 11
43.21148099667414
 21
58.127647881693498
 31
0.0
  0
LINE
  5
71
  8
3
 10
29.19788393158235
 20
57.586147881693009
 30
0.0
 11
44.149386508973578
 21
57.586147881693002
 31
0.0
  0
LINE
  5
72
  8
3
 10
29.197883931582169
 20
52.669147881696503
 30
0.0
 11
44.149386508973961
 21
52.669147881696503
 31
0.0
  0
LINE
  5
73
  8
0
 10
29.510519102348841
 20
52.127647881695893
 30
0.0
 11
43.211480996674368
 21
52.127647881695893
 31
0.0
  0
LINE
  5
74
  8
0
 10
29.010519102348852
 20
57.261622477908972
 30
0.0
 11
29.010519102348852
 21
52.993673285480199
 31
0.0
  0
LINE
  5
75
  8
2
 10
32.010519102348852
 20
56.627647880472949
 30
0.0
 11
32.010519102348852
 21
53.627647882914957
 31
0.0
  0
LINE
  5
76
  8
2
 10
29.010519102348852
 20
56.627647880472963
 30
0.0
 11
32.010519102348852
 21
56.627647880472963
 31
0.0
  0
LINE
  5
77
  8
2
 10
29.010519102348852
 20
55.127647881694642
 30
0.0
 11
32.010519102348852
 21
55.127647881694642
 31
0.0
  0
LINE
  5
78
  8
2
 10
29.010519102348841
 20
53.627647882914957
 30
0.0
 11
32.010519102348852
 21
53.627647882914957
 31
0.0
  0
LINE
  5
79
  8
2
 10
33.010519101534982
 20
55.127647881693839
 30
0.0
 11
32.010519102348852
 21
56.627647880472949
 31
0.0
  0
LINE
  5
7A
  8
2
 10
32.010519102348852
 20
53.62764788291495
 30
0.0
 11
33.010519101534982
 21
55.127647881693839
 31
0.0
  0
LINE
  5
7B
  8
2
 10
32.010519102348852
 20
19.049410472843011
 30
0.0
 11
33.010519101534982
 21
20.549410471621901
 31
0.0
  0
LINE
  5
7C
  8
2
 10
33.010519101534982
 20
20.549410471621901
 30
0.0
 11
32.010519102348852
 21
22.049410470401011
 31
0.0
  0
LINE
  5
7D
  8
2
 10
29.010519102348841
 20
19.049410472843022
 30
0.0
 11
32.010519102348852
 21
19.049410472843011
 31
0.0
  0
LINE
  5
7E
  8
2
 10
29.010519102348852
 20
20.5494104716227
 30
0.0
 11
32.010519102348852
 21
20.5494104716227
 31
0.0
  0
LINE
  5
7F
  8
2
 10
29.010519102348852
 20
22.049410470401021
 30
0.0
 11
32.010519102348852
 21
22.049410470401021
 31
0.0
  0
LINE
  5
80
  8
2
 10
32.010519102348852
 20
22.049410470401011
 30
0.0
 11
32.010519102348852
 21
19.049410472843011
 31
0.0
  0
LINE
  5
81
  8
0
 10
29.010519102348852
 20
22.68338506783703
 30
0.0
 11
29.010519102348852
 21
18.41543587540826
 31
0.0
  0
LINE
  5
82
  8
0
 10
29.510519102348841
 20
17.549410471623951
 30
0.0
 11
43.211480996674368
 21
17.549410471623951
 31
0.0
  0
LINE
  5
83
  8
3
 10
29.197883931582169
 20
18.090910471624561
 30
0.0
 11
44.149386508973961
 21
18.090910471624561
 31
0.0
  0
LINE
  5
84
  8
3
 10
29.19788393158235
 20
23.00791047162107
 30
0.0
 11
44.149386508973578
 21
23.007910471621049
 31
0.0
  0
LINE
  5
85
  8
0
 10
29.510519102348841
 20
23.54941047162157
 30
0.0
 11
43.21148099667414
 21
23.54941047162157
 31
0.0
  0
LINE
  5
86
  8
0
 10
44.510519102348837
 20
22.7994104716227
 30
0.0
 11
44.510519102348837
 21
18.299410471622679
 31
0.0
  0
LINE
  5
87
  8
0
 10
29.510519102348841
 20
23.54941047162157
 30
0.0
 11
29.510519102348841
 21
17.549410471623951
 31
0.0
  0
LINE
  5
88
  8
0
 10
29.510519102348791
 20
17.54941047162389
 30
0.0
 11
29.010519102348852
 21
18.41543587540837
 31
0.0
  0
LINE
  5
89
  8
0
 10
29.510519102348791
 20
23.54941047162151
 30
0.0
 11
29.010519102348852
 21
22.68338506783703
 31
0.0
  0
LINE
  5
8A
  8
1
 10
28.010519102348852
 20
20.5494104716227
 30
0.0
 11
46.910519102348957
 21
20.5494104716227
 31
0.0
  0
LINE
  5
8B
  8
1
 10
43.910519102348957
 20
23.549410471622721
 30
0.0
 11
43.910519102348957
 21
17.549410471622672
 31
0.0
  0
LINE
  5
8C
  8
0
 10
44.510519102348837
 20
22.7994104716227
 30
0.0
 11
43.211480996674169
 21
23.54941047162157
 31
0.0
  0
LINE
  5
8D
  8
0
 10
44.510519102348837
 20
18.2994104716227
 30
0.0
 11
43.211480996674169
 21
17.54941047162384
 31
0.0
  0
LINE
  5
8E
  8
0
 10
43.211480996674169
 20
23.54941047162157
 30
0.0
 11
43.211480996674361
 21
17.549410471623951
 31
0.0
  0
ARC
  5
8F
  8
0
 10
43.910519102348957
 20
20.5494104716227
 30
0.0
 40
2.0
 50
287.45760312371613
 51
72.54239687628386
  0
ARC
  5
90
  8
2
 10
43.910519102348957
 20
20.5494104716227
 30
0.0
 40
2.0
 50
72.54239687628386
 51
287.45760312371613
  0
TEXT
  5
184
  8
0
 62
     3
 10
0.0
 20
0.0
 30
0.0
 40
5.0
  1
BSR6X16
  7
STANDARD1
  0
ENDSEC
  0
EOF
