  0
SECTION
  2
HEADER
  9
$ACADVER
  1
AC1009
  9
$INSBASE
 10
0.0
 20
0.0
 30
0.0
  9
$EXTMIN
 10
0.0
 20
-2.960436562073669
 30
0.0
  9
$EXTMAX
 10
522.74273212985372
 20
426.57567298692823
 30
0.0
  9
$LIMMIN
 10
0.0
 20
0.0
  9
$LIMMAX
 10
375.0
 20
270.0
  9
$ORTHOMODE
 70
     1
  9
$REGENMODE
 70
     1
  9
$FILLMODE
 70
     1
  9
$QTEXTMODE
 70
     0
  9
$MIRRTEXT
 70
     1
  9
$DRAGMODE
 70
     2
  9
$LTSCALE
 40
10.0
  9
$OSMODE
 70
  3071
  9
$ATTMODE
 70
     1
  9
$TEXTSIZE
 40
5.0
  9
$TRACEWID
 40
0.05
  9
$TEXTSTYLE
  7
STANDARD
  9
$CLAYER
  8
0
  9
$CELTYPE
  6
BYLAYER
  9
$CECOLOR
 62
     6
  9
$DIMSCALE
 40
2.0
  9
$DIMASZ
 40
3.0
  9
$DIMEXO
 40
2.0
  9
$DIMDLI
 40
0.38
  9
$DIMRND
 40
0.0
  9
$DIMDLE
 40
0.0
  9
$DIMEXE
 40
2.0
  9
$DIMTP
 40
0.0
  9
$DIMTM
 40
0.0
  9
$DIMTXT
 40
3.2000000000000002
  9
$DIMCEN
 40
0.0
  9
$DIMTSZ
 40
0.0
  9
$DIMTOL
 70
     0
  9
$DIMLIM
 70
     0
  9
$DIMTIH
 70
     0
  9
$DIMTOH
 70
     0
  9
$DIMSE1
 70
     0
  9
$DIMSE2
 70
     0
  9
$DIMTAD
 70
     1
  9
$DIMZIN
 70
     8
  9
$DIMBLK
  1

  9
$DIMASO
 70
     0
  9
$DIMSHO
 70
     0
  9
$DIMPOST
  1

  9
$DIMAPOST
  1

  9
$DIMALT
 70
     0
  9
$DIMALTD
 70
     2
  9
$DIMALTF
 40
25.399999999999999
  9
$DIMLFAC
 40
1.0
  9
$DIMTOFL
 70
     0
  9
$DIMTVP
 40
1.6000000000000001
  9
$DIMTIX
 70
     1
  9
$DIMSOXD
 70
     0
  9
$DIMSAH
 70
     0
  9
$DIMBLK1
  1

  9
$DIMBLK2
  1

  9
$DIMSTYLE
  2
STANDARD
  9
$DIMCLRD
 70
     0
  9
$DIMCLRE
 70
     0
  9
$DIMCLRT
 70
     0
  9
$DIMTFAC
 40
1.0
  9
$DIMGAP
 40
1.1999999999999991
  9
$LUNITS
 70
     2
  9
$LUPREC
 70
     4
  9
$SKETCHINC
 40
0.1
  9
$FILLETRAD
 40
0.0
  9
$AUNITS
 70
     0
  9
$AUPREC
 70
     4
  9
$MENU
  1
ACAD
  9
$ELEVATION
 40
0.0
  9
$PELEVATION
 40
0.0
  9
$THICKNESS
 40
0.0
  9
$LIMCHECK
 70
     0
  9
$BLIPMODE
 70
     0
  9
$CHAMFERA
 40
0.0
  9
$CHAMFERB
 40
0.0
  9
$SKPOLY
 70
     0
  9
$TDCREATE
 40
2448055.7149187499
  9
$TDUPDATE
 40
2456598.5581987039
  9
$TDINDWG
 40
2.7185057523
  9
$TDUSRTIMER
 40
2.7185057523
  9
$USRTIMER
 70
     1
  9
$ANGBASE
 50
0.0
  9
$ANGDIR
 70
     0
  9
$PDMODE
 70
     0
  9
$PDSIZE
 40
0.0
  9
$PLINEWID
 40
0.0
  9
$COORDS
 70
     1
  9
$SPLFRAME
 70
     0
  9
$SPLINETYPE
 70
     6
  9
$SPLINESEGS
 70
     8
  9
$ATTDIA
 70
     0
  9
$ATTREQ
 70
     1
  9
$HANDLING
 70
     1
  9
$HANDSEED
  5
2735C
  9
$SURFTAB1
 70
     6
  9
$SURFTAB2
 70
     6
  9
$SURFTYPE
 70
     6
  9
$SURFU
 70
     6
  9
$SURFV
 70
     6
  9
$UCSNAME
  2

  9
$UCSORG
 10
0.0
 20
0.0
 30
0.0
  9
$UCSXDIR
 10
1.0
 20
0.0
 30
0.0
  9
$UCSYDIR
 10
0.0
 20
1.0
 30
0.0
  9
$PUCSNAME
  2

  9
$PUCSORG
 10
0.0
 20
0.0
 30
0.0
  9
$PUCSXDIR
 10
1.0
 20
0.0
 30
0.0
  9
$PUCSYDIR
 10
0.0
 20
1.0
 30
0.0
  9
$USERI1
 70
     0
  9
$USERI2
 70
     0
  9
$USERI3
 70
     0
  9
$USERI4
 70
     0
  9
$USERI5
 70
     0
  9
$USERR1
 40
0.0
  9
$USERR2
 40
0.0
  9
$USERR3
 40
0.0
  9
$USERR4
 40
0.0
  9
$USERR5
 40
0.0
  9
$WORLDVIEW
 70
     1
  9
$SHADEDGE
 70
     3
  9
$SHADEDIF
 70
    70
  9
$TILEMODE
 70
     1
  9
$MAXACTVP
 70
    16
  9
$PLIMCHECK
 70
     0
  9
$PEXTMIN
 10
1.0000000000000000E+020
 20
1.0000000000000000E+020
 30
1.0000000000000000E+020
  9
$PEXTMAX
 10
-1.0000000000000000E+020
 20
-1.0000000000000000E+020
 30
-1.0000000000000000E+020
  9
$PLIMMIN
 10
0.0
 20
0.0
  9
$PLIMMAX
 10
12.0
 20
9.0
  9
$UNITMODE
 70
     0
  9
$VISRETAIN
 70
     0
  9
$PLINEGEN
 70
     1
  9
$PSLTSCALE
 70
     0
  0
ENDSEC
  0
SECTION
  2
TABLES
  0
TABLE
  2
VPORT
 70
     1
  0
VPORT
  2
*ACTIVE
 70
     0
 10
0.0
 20
0.0
 11
1.0
 21
1.0
 12
273.2741029239337
 22
211.80703356641311
 13
0.0
 23
0.0
 14
5.0
 24
5.0
 15
10.0
 25
10.0
 16
0.0
 26
0.0
 36
1.0
 17
0.0
 27
0.0
 37
0.0
 40
433.41590274246698
 41
1.8318713450292401
 42
50.0
 43
0.0
 44
0.0
 50
0.0
 51
0.0
 71
     0
 72
   500
 73
     1
 74
     1
 75
     0
 76
     0
 77
     0
 78
     2
  0
ENDTAB
  0
TABLE
  2
LTYPE
 70
     3
  0
LTYPE
  2
CONTINUOUS
 70
     0
  3
実線
 72
    65
 73
     0
 40
0.0
  0
LTYPE
  2
CENTER
 70
     0
  3
____ _ ____ _ ____ _ ____ _ ____ _ ____ _ ____
 72
    65
 73
     4
 40
2.0
 49
1.25
 49
-0.25
 49
0.25
 49
-0.25
  0
LTYPE
  2
PHANTOM2
 70
     0
  3
___ _ _ ___ _ _ ___ _ _ ___ _ _
 72
    65
 73
     6
 40
1.25
 49
0.625
 49
-0.125
 49
0.125
 49
-0.125
 49
0.125
 49
-0.125
  0
ENDTAB
  0
TABLE
  2
LAYER
 70
     4
  0
LAYER
  2
0
 70
     0
 62
     7
  6
CONTINUOUS
  0
LAYER
  2
1
 70
     0
 62
     1
  6
CENTER
  0
LAYER
  2
DEFPOINTS
 70
     0
 62
     7
  6
CONTINUOUS
  0
LAYER
  2
3
 70
     0
 62
     3
  6
CONTINUOUS
  0
ENDTAB
  0
TABLE
  2
STYLE
 70
     3
  0
STYLE
  2
STANDARD
 70
     0
 40
0.0
 41
1.0
 50
0.0
 71
     0
 42
5.0
  3
simplex.shx
  4
bigfont.shx
  0
STYLE
  2
07500
 70
     0
 40
0.0
 41
0.75
 50
0.0
 71
     0
 42
0.2
  3
simplex.shx
  4
bigfont.shx
  0
STYLE
  2
STANDARD1
 70
     0
 40
0.0
 41
1.0
 50
0.0
 71
     0
 42
3.0
  3
txt
  4

  0
ENDTAB
  0
TABLE
  2
VIEW
 70
     2
  0
VIEW
  2
ALL
 70
     0
 40
270.0
 10
220.99159663865549
 20
135.0
 41
0.0
 11
0.0
 21
0.0
 31
1.0
 12
0.0
 22
0.0
 32
0.0
 42
0.0
 43
0.0
 44
0.0
 50
0.0
 71
     0
  0
VIEW
  2
OLE1
 70
     0
 40
168.2487151179721
 10
2892.3009567448912
 20
702.51600084347126
 41
162.5749581879237
 11
0.0
 21
0.0
 31
1.0
 12
0.0
 22
0.0
 32
0.0
 42
50.0
 43
0.0
 44
0.0
 50
0.0
 71
     0
  0
ENDTAB
  0
TABLE
  2
UCS
 70
     0
  0
ENDTAB
  0
TABLE
  2
APPID
 70
    48
  0
APPID
  2
ACAD
 70
     0
  0
APPID
  2
DCO15
 70
     0
  0
APPID
  2
GENIUS_GENOREF_13
 70
     0
  0
APPID
  2
GENIUS_GENOENT_13
 70
     0
  0
APPID
  2
GENIUS_GENBH_13
 70
     0
  0
APPID
  2
GENIUS_GENOBJ_13
 70
     0
  0
APPID
  2
GENIUS_GENODEF_13
 70
     0
  0
APPID
  2
GENIUS_GENOLIS_13
 70
     0
  0
APPID
  2
GENIUS_GENOBJ-NBEHI-BHF_13
 70
     0
  0
APPID
  2
GENIUS_GENOBJ-NBEHI-BHB_13
 70
     0
  0
APPID
  2
GENIUS_GENOBJ-F-PART_13
 70
     0
  0
APPID
  2
GENIUS_GEFSTDP_13
 70
     0
  0
APPID
  2
GENIUS_GENOBJ-N-RSSYM_13
 70
     0
  0
APPID
  2
GENIUS_GENSYMENT_13
 70
     0
  0
APPID
  2
GENIUS_GENOBJ-N-TIT_13
 70
     0
  0
APPID
  2
GENIUS_GENTITLE_13
 70
     0
  0
APPID
  2
GENIUS_GENZVEED_13
 70
     0
  0
APPID
  2
GENIUS_GENOBJ-N-LEADER_13
 70
     0
  0
APPID
  2
GENIUS_GENOBJ-N-FIL_13
 70
     0
  0
APPID
  2
GENIUS_GENOBJ-N-SEC_13
 70
     0
  0
APPID
  2
GENIUS_GENOBJ-N-CRS_13
 70
     0
  0
APPID
  2
GENIUS_GENOBJ-N-ZOO_13
 70
     0
  0
APPID
  2
GENIUS_GENZOO_13
 70
     0
  0
APPID
  2
GENIUS_GENOBJ-F-TOL_13
 70
     0
  0
APPID
  2
GENIUS_GENFIL_13
 70
     0
  0
APPID
  2
GENIUS_GENOBJ-N-CHA_13
 70
     0
  0
APPID
  2
_CALL_MAC$
 70
     0
  0
APPID
  2
ASM_BASE
 70
     0
  0
APPID
  2
ASM_EXPLO_VER_2_00
 70
     0
  0
APPID
  2
ASM_CADM_VER_12_00
 70
     0
  0
APPID
  2
ASM_BASEFORO
 70
     0
  0
APPID
  2
ASM_BASETRAVI
 70
     0
  0
APPID
  2
ASM_BASETRAVI1
 70
     0
  0
APPID
  2
ASM_GRUPPI
 70
     0
  0
APPID
  2
ASM_CADM_ALBERO
 70
     0
  0
APPID
  2
ASM_GOLE
 70
     0
  0
APPID
  2
ACAD_MLEADERVER
 70
     0
  0
APPID
  2
ACAD_DSTYLE_DIMJAG
 70
     0
  0
APPID
  2
ACAD_DSTYLE_DIMTALN
 70
     0
  0
APPID
  2
ACAD_EXEMPT_FROM_CAD_STANDARDS
 70
     0
  0
APPID
  2
ACAD_DSTYLE_DIMRADIAL_EXTENSION
 70
     0
  0
APPID
  2
ACAD_PSEXT
 70
     0
  0
APPID
  2
ACAD_DSTYLE_DIMBREAK
 70
     0
  0
APPID
  2
ACAECLAYERSTANDARD
 70
     0
  0
APPID
  2
ACCMTRANSPARENCY
 70
     0
  0
APPID
  2
GRADIENTCOLOR1ACI
 70
     0
  0
APPID
  2
GRADIENTCOLOR2ACI
 70
     0
  0
APPID
  2
ACAD_NAV_VCDISPLAY
 70
     0
  0
ENDTAB
  0
TABLE
  2
DIMSTYLE
 70
     1
  0
DIMSTYLE
  2
STANDARD
 70
     0
  3

  4

  5

  6

  7

 40
1.0
 41
0.18
 42
0.0625
 43
0.38
 44
0.18
 45
0.0
 46
0.0
 47
0.0
 48
0.0
140
0.18
141
0.09
142
0.0
143
25.399999999999999
144
1.0
145
0.0
146
1.0
147
0.09
 71
     0
 72
     0
 73
     1
 74
     1
 75
     0
 76
     0
 77
     0
 78
     0
170
     0
171
     2
172
     0
173
     0
174
     0
175
     0
176
     0
177
     0
178
     0
  0
ENDTAB
  0
ENDSEC
  0
SECTION
  2
BLOCKS
  0
BLOCK
  8
0
  2
$MODEL_SPACE
 70
     0
 10
0.0
 20
0.0
 30
0.0
  3
$MODEL_SPACE
  1

  0
ENDBLK
  5
36
  8
0
  0
BLOCK
 67
     1
  8
0
  2
$PAPER_SPACE
 70
     0
 10
0.0
 20
0.0
 30
0.0
  3
$PAPER_SPACE
  1

  0
ENDBLK
  5
34
 67
     1
  8
0
  0
ENDSEC
  0
SECTION
  2
ENTITIES
  0
LINE
  5
19FC8
  8
1
 10
310.95048305371608
 20
341.63361388665629
 30
0.0
 11
310.95048305371608
 21
426.51773208719982
 31
0.0
  0
LINE
  5
19FC9
  8
0
 10
305.13548305371597
 20
359.57567298692811
 30
0.0
 11
305.13548305371597
 21
358.97567298692871
 31
0.0
  0
LINE
  5
19FCA
  8
0
 10
316.76548305371603
 20
358.97567298692871
 30
0.0
 11
316.76548305371603
 21
359.57567298692811
 31
0.0
  0
LINE
  5
19FCB
  8
0
 10
306.95048305371608
 20
418.30867298692817
 30
0.0
 11
306.95048305371608
 21
416.57567298692811
 31
0.0
  0
LINE
  5
19FCC
  8
0
 10
314.95048305371608
 20
416.57567298692811
 30
0.0
 11
314.95048305371608
 21
418.30867298692817
 31
0.0
  0
LINE
  5
19FCD
  8
0
 10
307.71748305371608
 20
419.075672986928
 30
0.0
 11
306.95048305371608
 21
418.30867298692817
 31
0.0
  0
LINE
  5
19FCE
  8
0
 10
314.95048305371608
 20
418.30867298692817
 30
0.0
 11
314.18348305371597
 21
419.075672986928
 31
0.0
  0
LINE
  5
19FCF
  8
0
 10
305.13548305371597
 20
416.57567298692811
 30
0.0
 11
305.13548305371597
 21
414.07567298692811
 31
0.0
  0
LINE
  5
19FD0
  8
0
 10
316.76548305371603
 20
414.07567298692811
 30
0.0
 11
316.76548305371603
 21
416.57567298692811
 31
0.0
  0
LINE
  5
19FD1
  8
0
 10
314.95048305371608
 20
418.30867298692817
 30
0.0
 11
306.95048305371608
 21
418.30867298692817
 31
0.0
  0
LINE
  5
19FD2
  8
0
 10
314.18348305371597
 20
419.075672986928
 30
0.0
 11
307.71748305371608
 21
419.075672986928
 31
0.0
  0
LINE
  5
19FD3
  8
0
 10
317.20881638704941
 20
353.77567298692878
 30
0.0
 11
304.6921497203827
 21
353.77567298692878
 31
0.0
  0
LINE
  5
19FD4
  8
0
 10
317.20881638704941
 20
358.97567298692871
 30
0.0
 11
304.6921497203827
 21
358.97567298692871
 31
0.0
  0
LINE
  5
19FD5
  8
0
 10
317.20881638704941
 20
353.77567298692878
 30
0.0
 11
317.20881638704941
 21
358.97567298692871
 31
0.0
  0
POLYLINE
  5
19FD6
  8
0
 66
     1
 10
0.0
 20
0.0
 30
0.0
  0
VERTEX
  5
26C7A
  8
0
 10
307.82131638704942
 20
358.97567298692871
 30
0.0
  0
VERTEX
  5
26C7B
  8
0
 10
308.323754138965
 20
358.96848285330913
 30
0.0
  0
VERTEX
  5
26C7C
  8
0
 10
309.33251468287727
 20
358.91170826952379
 30
0.0
  0
VERTEX
  5
26C7D
  8
0
 10
310.38830457560118
 20
358.79709793077109
 30
0.0
  0
VERTEX
  5
26C7E
  8
0
 10
310.95048305371608
 20
358.71625327751281
 30
0.0
  0
SEQEND
  5
26C7F
  8
0
  0
POLYLINE
  5
19FD7
  8
0
 66
     1
 10
0.0
 20
0.0
 30
0.0
  0
VERTEX
  5
26C80
  8
0
 10
310.95048305371608
 20
354.03509269634378
 30
0.0
  0
VERTEX
  5
26C81
  8
0
 10
310.38830457560118
 20
353.9542480430855
 30
0.0
  0
VERTEX
  5
26C82
  8
0
 10
309.33251468287727
 20
353.83963770433269
 30
0.0
  0
VERTEX
  5
26C83
  8
0
 10
308.323754138965
 20
353.78286312054843
 30
0.0
  0
VERTEX
  5
26C84
  8
0
 10
307.82131638704942
 20
353.77567298692878
 30
0.0
  0
SEQEND
  5
26C85
  8
0
  0
POLYLINE
  5
19FD8
  8
0
 66
     1
 10
0.0
 20
0.0
 30
0.0
  0
VERTEX
  5
26C86
  8
0
 10
307.82131638704942
 20
353.77567298692878
 30
0.0
  0
VERTEX
  5
26C87
  8
0
 10
307.31887863513379
 20
353.78286312054843
 30
0.0
  0
VERTEX
  5
26C88
  8
0
 10
306.31011809122151
 20
353.83963770433269
 30
0.0
  0
VERTEX
  5
26C89
  8
0
 10
305.25432819849749
 20
353.9542480430855
 30
0.0
  0
VERTEX
  5
26C8A
  8
0
 10
304.6921497203827
 20
354.03509269634378
 30
0.0
  0
SEQEND
  5
26C8B
  8
0
  0
POLYLINE
  5
19FD9
  8
0
 66
     1
 10
0.0
 20
0.0
 30
0.0
  0
VERTEX
  5
26C8C
  8
0
 10
304.6921497203827
 20
358.71625327751281
 30
0.0
  0
VERTEX
  5
26C8D
  8
0
 10
305.25432819849749
 20
358.79709793077109
 30
0.0
  0
VERTEX
  5
26C8E
  8
0
 10
306.31011809122151
 20
358.91170826952379
 30
0.0
  0
VERTEX
  5
26C8F
  8
0
 10
307.31887863513379
 20
358.96848285330913
 30
0.0
  0
VERTEX
  5
26C90
  8
0
 10
307.82131638704942
 20
358.97567298692871
 30
0.0
  0
SEQEND
  5
26C91
  8
0
  0
POLYLINE
  5
19FDA
  8
0
 66
     1
 10
0.0
 20
0.0
 30
0.0
  0
VERTEX
  5
26C92
  8
0
 10
314.07964972038269
 20
358.97567298692871
 30
0.0
  0
VERTEX
  5
26C93
  8
0
 10
314.58208747229821
 20
358.96848285330913
 30
0.0
  0
VERTEX
  5
26C94
  8
0
 10
315.5908480162106
 20
358.91170826952379
 30
0.0
  0
VERTEX
  5
26C95
  8
0
 10
316.64663790893462
 20
358.79709793077109
 30
0.0
  0
VERTEX
  5
26C96
  8
0
 10
317.20881638704941
 20
358.71625327751281
 30
0.0
  0
SEQEND
  5
26C97
  8
0
  0
POLYLINE
  5
19FDB
  8
0
 66
     1
 10
0.0
 20
0.0
 30
0.0
  0
VERTEX
  5
26C98
  8
0
 10
317.20881638704941
 20
354.03509269634378
 30
0.0
  0
VERTEX
  5
26C99
  8
0
 10
316.64663790893462
 20
353.9542480430855
 30
0.0
  0
VERTEX
  5
26C9A
  8
0
 10
315.5908480162106
 20
353.83963770433269
 30
0.0
  0
VERTEX
  5
26C9B
  8
0
 10
314.58208747229821
 20
353.78286312054843
 30
0.0
  0
VERTEX
  5
26C9C
  8
0
 10
314.07964972038269
 20
353.77567298692878
 30
0.0
  0
SEQEND
  5
26C9D
  8
0
  0
POLYLINE
  5
19FDC
  8
0
 66
     1
 10
0.0
 20
0.0
 30
0.0
  0
VERTEX
  5
26C9E
  8
0
 10
314.07964972038269
 20
353.77567298692878
 30
0.0
  0
VERTEX
  5
26C9F
  8
0
 10
313.57721196846722
 20
353.78286312054843
 30
0.0
  0
VERTEX
  5
26CA0
  8
0
 10
312.56845142455478
 20
353.83963770433269
 30
0.0
  0
VERTEX
  5
26CA1
  8
0
 10
311.51266153183087
 20
353.9542480430855
 30
0.0
  0
VERTEX
  5
26CA2
  8
0
 10
310.95048305371608
 20
354.03509269634378
 30
0.0
  0
SEQEND
  5
26CA3
  8
0
  0
LINE
  5
19FDD
  8
0
 10
310.95048305371608
 20
354.03509269634378
 30
0.0
 11
310.95048305371608
 21
358.71625327751281
 31
0.0
  0
POLYLINE
  5
19FDE
  8
0
 66
     1
 10
0.0
 20
0.0
 30
0.0
  0
VERTEX
  5
26CA4
  8
0
 10
310.95048305371608
 20
358.71625327751281
 30
0.0
  0
VERTEX
  5
26CA5
  8
0
 10
311.51266153183087
 20
358.79709793077109
 30
0.0
  0
VERTEX
  5
26CA6
  8
0
 10
312.56845142455478
 20
358.91170826952379
 30
0.0
  0
VERTEX
  5
26CA7
  8
0
 10
313.57721196846722
 20
358.96848285330913
 30
0.0
  0
VERTEX
  5
26CA8
  8
0
 10
314.07964972038269
 20
358.97567298692871
 30
0.0
  0
SEQEND
  5
26CA9
  8
0
  0
LINE
  5
19FDF
  8
0
 10
304.6921497203827
 20
358.97567298692871
 30
0.0
 11
304.6921497203827
 21
353.77567298692878
 31
0.0
  0
LINE
  5
19FE0
  8
0
 10
316.76548305371603
 20
416.57567298692811
 30
0.0
 11
305.13548305371597
 21
416.57567298692811
 31
0.0
  0
LINE
  5
19FE1
  8
0
 10
317.20881638704941
 20
414.07567298692811
 30
0.0
 11
304.6921497203827
 21
414.07567298692811
 31
0.0
  0
LINE
  5
19FE2
  8
0
 10
317.20881638704941
 20
408.57567298692811
 30
0.0
 11
317.20881638704941
 21
414.07567298692811
 31
0.0
  0
POLYLINE
  5
19FE3
  8
0
 66
     1
 10
0.0
 20
0.0
 30
0.0
  0
VERTEX
  5
26CAA
  8
0
 10
307.82131638704942
 20
414.07567298692811
 30
0.0
  0
VERTEX
  5
26CAB
  8
0
 10
308.323754138965
 20
414.06848285330852
 30
0.0
  0
VERTEX
  5
26CAC
  8
0
 10
309.33251468287727
 20
414.01170826952409
 30
0.0
  0
VERTEX
  5
26CAD
  8
0
 10
310.38830457560118
 20
413.89709793077139
 30
0.0
  0
VERTEX
  5
26CAE
  8
0
 10
310.95048305371608
 20
413.81625327751311
 30
0.0
  0
SEQEND
  5
26CAF
  8
0
  0
POLYLINE
  5
19FE4
  8
0
 66
     1
 10
0.0
 20
0.0
 30
0.0
  0
VERTEX
  5
26CB0
  8
0
 10
310.95048305371608
 20
408.83509269634391
 30
0.0
  0
VERTEX
  5
26CB1
  8
0
 10
310.38830457561039
 20
408.75424804308739
 30
0.0
  0
VERTEX
  5
26CB2
  8
0
 10
309.33251468290302
 20
408.63963770433469
 30
0.0
  0
VERTEX
  5
26CB3
  8
0
 10
308.32375413900678
 20
408.58286312054952
 30
0.0
  0
VERTEX
  5
26CB4
  8
0
 10
307.82131638710013
 20
408.57567298692811
 30
0.0
  0
SEQEND
  5
26CB5
  8
0
  0
POLYLINE
  5
19FE5
  8
0
 66
     1
 10
0.0
 20
0.0
 30
0.0
  0
VERTEX
  5
26CB6
  8
0
 10
307.82131638704942
 20
408.57567298692811
 30
0.0
  0
VERTEX
  5
26CB7
  8
0
 10
307.31887863513379
 20
408.58286312054861
 30
0.0
  0
VERTEX
  5
26CB8
  8
0
 10
306.31011809122151
 20
408.63963770433293
 30
0.0
  0
VERTEX
  5
26CB9
  8
0
 10
305.25432819849749
 20
408.75424804308562
 30
0.0
  0
VERTEX
  5
26CBA
  8
0
 10
304.6921497203827
 20
408.83509269634391
 30
0.0
  0
SEQEND
  5
26CBB
  8
0
  0
POLYLINE
  5
19FE6
  8
0
 66
     1
 10
0.0
 20
0.0
 30
0.0
  0
VERTEX
  5
26CBC
  8
0
 10
304.6921497203827
 20
413.81625327751311
 30
0.0
  0
VERTEX
  5
26CBD
  8
0
 10
305.25432819849749
 20
413.89709793077139
 30
0.0
  0
VERTEX
  5
26CBE
  8
0
 10
306.31011809122151
 20
414.01170826952409
 30
0.0
  0
VERTEX
  5
26CBF
  8
0
 10
307.31887863513379
 20
414.06848285330852
 30
0.0
  0
VERTEX
  5
26CC0
  8
0
 10
307.82131638704942
 20
414.07567298692811
 30
0.0
  0
SEQEND
  5
26CC1
  8
0
  0
POLYLINE
  5
19FE7
  8
0
 66
     1
 10
0.0
 20
0.0
 30
0.0
  0
VERTEX
  5
26CC2
  8
0
 10
314.07964972038269
 20
414.07567298692811
 30
0.0
  0
VERTEX
  5
26CC3
  8
0
 10
314.58208747229821
 20
414.06848285330852
 30
0.0
  0
VERTEX
  5
26CC4
  8
0
 10
315.5908480162106
 20
414.01170826952409
 30
0.0
  0
VERTEX
  5
26CC5
  8
0
 10
316.64663790893462
 20
413.89709793077139
 30
0.0
  0
VERTEX
  5
26CC6
  8
0
 10
317.20881638704941
 20
413.81625327751311
 30
0.0
  0
SEQEND
  5
26CC7
  8
0
  0
POLYLINE
  5
19FE8
  8
0
 66
     1
 10
0.0
 20
0.0
 30
0.0
  0
VERTEX
  5
26CC8
  8
0
 10
317.20881638704941
 20
408.83509269634391
 30
0.0
  0
VERTEX
  5
26CC9
  8
0
 10
316.64663790894519
 20
408.75424804308739
 30
0.0
  0
VERTEX
  5
26CCA
  8
0
 10
315.5908480162405
 20
408.6396377043356
 30
0.0
  0
VERTEX
  5
26CCB
  8
0
 10
314.5820874723471
 20
408.58286312054952
 30
0.0
  0
VERTEX
  5
26CCC
  8
0
 10
314.07964972044181
 20
408.57567298692811
 30
0.0
  0
SEQEND
  5
26CCD
  8
0
  0
POLYLINE
  5
19FE9
  8
0
 66
     1
 10
0.0
 20
0.0
 30
0.0
  0
VERTEX
  5
26CCE
  8
0
 10
314.07964972038269
 20
408.57567298692811
 30
0.0
  0
VERTEX
  5
26CCF
  8
0
 10
313.57721196846722
 20
408.58286312054861
 30
0.0
  0
VERTEX
  5
26CD0
  8
0
 10
312.56845142455478
 20
408.63963770433293
 30
0.0
  0
VERTEX
  5
26CD1
  8
0
 10
311.51266153183087
 20
408.75424804308562
 30
0.0
  0
VERTEX
  5
26CD2
  8
0
 10
310.95048305371608
 20
408.83509269634391
 30
0.0
  0
SEQEND
  5
26CD3
  8
0
  0
LINE
  5
19FEA
  8
0
 10
310.95048305371608
 20
408.83509269634391
 30
0.0
 11
310.95048305371608
 21
413.81625327751311
 31
0.0
  0
POLYLINE
  5
19FEB
  8
0
 66
     1
 10
0.0
 20
0.0
 30
0.0
  0
VERTEX
  5
26CD4
  8
0
 10
310.95048305371608
 20
413.81625327751311
 30
0.0
  0
VERTEX
  5
26CD5
  8
0
 10
311.51266153183087
 20
413.89709793077139
 30
0.0
  0
VERTEX
  5
26CD6
  8
0
 10
312.56845142455478
 20
414.01170826952409
 30
0.0
  0
VERTEX
  5
26CD7
  8
0
 10
313.57721196846722
 20
414.06848285330852
 30
0.0
  0
VERTEX
  5
26CD8
  8
0
 10
314.07964972038269
 20
414.07567298692811
 30
0.0
  0
SEQEND
  5
26CD9
  8
0
  0
LINE
  5
19FEC
  8
0
 10
304.6921497203827
 20
414.07567298692811
 30
0.0
 11
304.6921497203827
 21
408.57567298692811
 31
0.0
  0
LINE
  5
19FF2
  8
1
 10
346.225483053716
 20
354.07567298692811
 30
0.0
 11
355.67548305371611
 21
354.07567298692811
 31
0.0
  0
LINE
  5
19FF3
  8
1
 10
350.95048305371608
 20
349.35067298692871
 30
0.0
 11
350.95048305371608
 21
358.80067298692848
 31
0.0
  0
LINE
  5
19FF4
  8
1
 10
343.72548305371612
 20
361.57567298692811
 30
0.0
 11
353.17548305371611
 21
361.57567298692811
 31
0.0
  0
LINE
  5
19FF5
  8
1
 10
348.45048305371608
 20
356.8506729869286
 30
0.0
 11
348.45048305371608
 21
366.30067298692848
 31
0.0
  0
LINE
  5
19FF6
  8
1
 10
346.225483053716
 20
414.07567298692811
 30
0.0
 11
355.67548305371611
 21
414.07567298692811
 31
0.0
  0
LINE
  5
19FF7
  8
1
 10
350.95048305371608
 20
409.3506729869286
 30
0.0
 11
350.95048305371608
 21
418.80067298692842
 31
0.0
  0
LINE
  5
19FF8
  8
1
 10
343.72548305371612
 20
406.575672986928
 30
0.0
 11
353.17548305371611
 21
406.575672986928
 31
0.0
  0
LINE
  5
19FF9
  8
1
 10
348.45048305371608
 20
401.8506729869286
 30
0.0
 11
348.45048305371608
 21
411.30067298692842
 31
0.0
  0
LINE
  5
19FFA
  8
1
 10
268.72548305371612
 20
361.57567298692811
 30
0.0
 11
278.17548305371611
 21
361.57567298692811
 31
0.0
  0
LINE
  5
19FFB
  8
1
 10
273.45048305371608
 20
356.8506729869286
 30
0.0
 11
273.45048305371608
 21
366.30067298692848
 31
0.0
  0
LINE
  5
19FFC
  8
1
 10
266.22548305371612
 20
354.07567298692811
 30
0.0
 11
275.67548305371611
 21
354.07567298692811
 31
0.0
  0
LINE
  5
19FFD
  8
1
 10
270.95048305371608
 20
349.35067298692871
 30
0.0
 11
270.95048305371608
 21
358.80067298692848
 31
0.0
  0
LINE
  5
19FFE
  8
1
 10
268.72548305371612
 20
406.575672986928
 30
0.0
 11
278.17548305371611
 21
406.575672986928
 31
0.0
  0
LINE
  5
19FFF
  8
1
 10
273.45048305371608
 20
401.8506729869286
 30
0.0
 11
273.45048305371608
 21
411.30067298692842
 31
0.0
  0
LINE
  5
1A000
  8
1
 10
266.22548305371612
 20
414.07567298692811
 30
0.0
 11
275.67548305371599
 21
414.07567298692811
 31
0.0
  0
LINE
  5
1A001
  8
1
 10
270.95048305371603
 20
409.3506729869286
 30
0.0
 11
270.95048305371603
 21
418.80067298692842
 31
0.0
  0
LINE
  5
1A003
  8
0
 10
285.95048305371608
 20
375.43597030466941
 30
0.0
 11
335.95048305371608
 21
375.43597030466941
 31
0.0
  0
LINE
  5
1A004
  8
0
 10
285.95048305371608
 20
392.71537566918693
 30
0.0
 11
335.95048305371608
 21
392.71537566918693
 31
0.0
  0
LINE
  5
1A007
  8
0
 10
284.31078037145733
 20
391.07567298692811
 30
0.0
 11
284.31078037145733
 21
377.07567298692811
 31
0.0
  0
LINE
  5
1A008
  8
0
 10
337.59018573597479
 20
391.07567298692811
 30
0.0
 11
337.59018573597479
 21
377.07567298692811
 31
0.0
  0
ARC
  5
1A00B
  8
0
 10
335.95048305371608
 20
377.07567298692811
 30
0.0
 40
1.6397026822587439
 50
270.0
 51
0.0
  0
LINE
  5
1A00E
  8
0
 10
279.53467551640648
 20
426.57567298692811
 30
0.0
 11
265.63959392126071
 21
426.57567298692811
 31
0.0
  0
ARC
  5
1A00F
  8
0
 10
279.53467551640648
 20
416.57567298692811
 30
0.0
 40
10.00000000000003
 50
30.000000000000231
 51
90.0
  0
LINE
  5
1A010
  8
0
 10
291.22601846749649
 20
416.32567298692811
 30
0.0
 11
288.1949295542509
 21
421.57567298692811
 31
0.0
  0
ARC
  5
1A011
  8
0
 10
304.64941222615528
 20
424.075672986928
 30
0.0
 40
15.5
 50
210.0000000000002
 51
270.0
  0
LINE
  5
1A012
  8
0
 10
317.25155388127678
 20
408.57567298692811
 30
0.0
 11
304.64941222615528
 21
408.57567298692811
 31
0.0
  0
ARC
  5
1A013
  8
0
 10
317.25155388127689
 20
424.075672986928
 30
0.0
 40
15.49999999999998
 50
270.0
 51
329.99999999999977
  0
LINE
  5
1A014
  8
0
 10
333.70603655318121
 20
421.57567298692811
 30
0.0
 11
330.67494763993568
 21
416.32567298692811
 31
0.0
  0
ARC
  5
1A015
  8
0
 10
342.36629059102557
 20
416.57567298692811
 30
0.0
 40
10.000000000000011
 50
90.0
 51
149.9999999999998
  0
LINE
  5
1A016
  8
0
 10
356.2613721861714
 20
426.57567298692811
 30
0.0
 11
342.36629059102557
 21
426.57567298692811
 31
0.0
  0
LINE
  5
1A017
  8
0
 10
360.95048305371608
 20
409.07567298692811
 30
0.0
 11
356.2613721861714
 21
426.57567298692811
 31
0.0
  0
LINE
  5
1A018
  8
0
 10
360.95048305371608
 20
359.07567298692811
 30
0.0
 11
360.95048305371608
 21
409.07567298692811
 31
0.0
  0
LINE
  5
1A019
  8
0
 10
356.2613721861714
 20
341.57567298692811
 30
0.0
 11
360.95048305371608
 21
359.07567298692811
 31
0.0
  0
LINE
  5
1A01A
  8
0
 10
342.36629059102557
 20
341.57567298692811
 30
0.0
 11
356.2613721861714
 21
341.57567298692811
 31
0.0
  0
ARC
  5
1A01B
  8
0
 10
342.36629059102557
 20
351.57567298692902
 30
0.0
 40
10.00000000000005
 50
210.0000000000002
 51
270.0
  0
LINE
  5
1A01C
  8
0
 10
330.67494763993568
 20
351.82567298692811
 30
0.0
 11
333.70603655318121
 21
346.57567298692811
 31
0.0
  0
ARC
  5
1A01D
  8
0
 10
317.25155388127689
 20
344.07567298692811
 30
0.0
 40
15.49999999999998
 50
30.000000000000231
 51
90.0
  0
LINE
  5
1A01E
  8
0
 10
304.64941222615528
 20
359.57567298692811
 30
0.0
 11
317.25155388127678
 21
359.57567298692811
 31
0.0
  0
ARC
  5
1A01F
  8
0
 10
304.64941222615528
 20
344.07567298692811
 30
0.0
 40
15.49999999999998
 50
90.0
 51
149.9999999999998
  0
LINE
  5
1A020
  8
0
 10
288.1949295542509
 20
346.57567298692811
 30
0.0
 11
291.22601846749649
 21
351.82567298692811
 31
0.0
  0
ARC
  5
1A021
  8
0
 10
279.53467551640648
 20
351.57567298692811
 30
0.0
 40
10.000000000000011
 50
270.0
 51
329.99999999999977
  0
LINE
  5
1A022
  8
0
 10
265.63959392126071
 20
341.57567298692811
 30
0.0
 11
279.53467551640648
 21
341.57567298692811
 31
0.0
  0
LINE
  5
1A023
  8
0
 10
260.95048305371608
 20
359.07567298692811
 30
0.0
 11
265.63959392126071
 21
341.57567298692811
 31
0.0
  0
LINE
  5
1A024
  8
0
 10
260.95048305371608
 20
409.07567298692811
 30
0.0
 11
260.95048305371608
 21
359.07567298692811
 31
0.0
  0
LINE
  5
1A025
  8
0
 10
265.63959392126071
 20
426.57567298692811
 30
0.0
 11
260.95048305371608
 21
409.07567298692811
 31
0.0
  0
ARC
  5
1A026
  8
0
 10
350.95048305371608
 20
354.07567298692811
 30
0.0
 40
4.4999999999999876
 50
198.43494882291429
 51
18.434948822914318
  0
LINE
  5
1A027
  8
0
 10
355.21955789494331
 20
355.49869793400472
 30
0.0
 11
352.71955789494342
 21
362.99869793400461
 31
0.0
  0
ARC
  5
1A028
  8
0
 10
348.45048305371608
 20
361.57567298692811
 30
0.0
 40
4.4999999999999938
 50
18.434948822914318
 51
198.43494882291429
  0
LINE
  5
1A029
  8
0
 10
344.1814082124888
 20
360.15264803985252
 30
0.0
 11
346.6814082124888
 21
352.65264803985252
 31
0.0
  0
ARC
  5
1A02A
  8
0
 10
350.95048305371608
 20
414.07567298692811
 30
0.0
 40
4.5000000000000018
 50
341.56505117708571
 51
161.56505117708571
  0
LINE
  5
1A02B
  8
0
 10
346.6814082124888
 20
415.49869793400461
 30
0.0
 11
344.1814082124888
 21
407.99869793400472
 31
0.0
  0
ARC
  5
1A02C
  8
0
 10
348.45048305371608
 20
406.575672986928
 30
0.0
 40
4.5000000000000018
 50
161.56505117708571
 51
341.56505117708571
  0
LINE
  5
1A02D
  8
0
 10
352.71955789494342
 20
405.15264803985241
 30
0.0
 11
355.21955789494331
 21
412.65264803985241
 31
0.0
  0
ARC
  5
1A02E
  8
0
 10
273.45048305371608
 20
361.57567298692811
 30
0.0
 40
4.4999999999999956
 50
341.56505117708571
 51
161.56505117708571
  0
LINE
  5
1A02F
  8
0
 10
269.1814082124888
 20
362.99869793400461
 30
0.0
 11
266.68140821248869
 21
355.49869793400472
 31
0.0
  0
ARC
  5
1A030
  8
0
 10
270.95048305371608
 20
354.07567298692811
 30
0.0
 40
4.4999999999999938
 50
161.56505117708571
 51
341.56505117708571
  0
LINE
  5
1A031
  8
0
 10
275.21955789494342
 20
352.65264803985252
 30
0.0
 11
277.71955789494342
 21
360.15264803985252
 31
0.0
  0
ARC
  5
1A032
  8
0
 10
273.45048305371608
 20
406.575672986928
 30
0.0
 40
4.5000000000000018
 50
198.43494882291429
 51
18.434948822914318
  0
LINE
  5
1A033
  8
0
 10
277.71955789494342
 20
407.99869793400472
 30
0.0
 11
275.21955789494342
 21
415.49869793400461
 31
0.0
  0
ARC
  5
1A034
  8
0
 10
270.95048305371608
 20
414.07567298692811
 30
0.0
 40
4.5000000000000027
 50
18.434948822914318
 51
198.43494882291429
  0
LINE
  5
1A035
  8
0
 10
266.68140821248869
 20
412.65264803985241
 30
0.0
 11
269.1814082124888
 21
405.15264803985241
 31
0.0
  0
LINE
  5
1A036
  8
0
 10
279.22073714088981
 20
377.07567298692811
 30
0.0
 11
279.22073714088981
 21
391.07567298692811
 31
0.0
  0
LINE
  5
1A037
  8
0
 10
335.95048305371608
 20
370.34592707410229
 30
0.0
 11
285.95048305371608
 21
370.34592707410229
 31
0.0
  0
ARC
  5
1A038
  8
0
 10
335.95048305371603
 20
377.07567298692811
 30
0.0
 40
6.7297459128262194
 50
270.0
 51
0.0000008537736463
  0
LINE
  5
1A039
  8
0
 10
342.6802289665423
 20
377.07567298692811
 30
0.0
 11
342.6802289665423
 21
391.07567298692811
 31
0.0
  0
LINE
  5
1A03A
  8
0
 10
335.95048305371608
 20
397.80541889975478
 30
0.0
 11
285.95048305371608
 21
397.80541889975478
 31
0.0
  0
ARC
  5
1A03B
  8
0
 10
335.95048305371608
 20
391.07567298692811
 30
0.0
 40
1.6397026822587499
 50
0.0
 51
90.0
  0
ARC
  5
1A03E
  8
0
 10
335.95048305371608
 20
391.07567298692811
 30
0.0
 40
6.7297459128262238
 50
0.0
 51
90.0
  0
ARC
  5
1A046
  8
0
 10
285.95048305371608
 20
377.07567298692811
 30
0.0
 40
6.7297459128262238
 50
180.0
 51
270.0
  0
ARC
  5
1A048
  8
0
 10
285.95048305371608
 20
377.07567298692811
 30
0.0
 40
1.639702682258743
 50
180.0
 51
270.0
  0
ARC
  5
1A04E
  8
0
 10
285.95048305371608
 20
391.07567298692811
 30
0.0
 40
1.639702682258747
 50
90.0
 51
180.0
  0
ARC
  5
1A050
  8
0
 10
285.95048305371608
 20
391.07567298692811
 30
0.0
 40
6.729745912826214
 50
90.0
 51
180.0
  0
LINE
  5
1A064
  8
0
 10
504.63637808470429
 20
175.7436887314206
 30
0.0
 11
506.36937808470441
 21
175.7436887314206
 31
0.0
  0
LINE
  5
1A065
  8
0
 10
507.13637808470429
 20
182.97668873142081
 30
0.0
 11
506.92034632997382
 21
183.1927204861513
 31
0.0
  0
LINE
  5
1A066
  8
0
 10
506.36937808470441
 20
175.7436887314206
 30
0.0
 11
507.13637808470429
 21
176.5106887314214
 31
0.0
  0
LINE
  5
1A067
  8
0
 10
441.83637808470439
 20
173.48535539808739
 30
0.0
 11
442.09579779411979
 21
172.51718786206399
 31
0.0
  0
LINE
  5
1A069
  8
0
 10
502.13637808470429
 20
173.928688731421
 30
0.0
 11
504.63637808470429
 21
173.928688731421
 31
0.0
  0
LINE
  5
1A06A
  8
0
 10
501.87695837528878
 20
172.51718786206399
 30
0.0
 11
502.13637808470429
 21
173.48535539808739
 31
0.0
  0
LINE
  5
1A06B
  8
0
 10
494.63637808470429
 20
185.7436887314206
 30
0.0
 11
484.63637808470429
 21
185.7436887314206
 31
0.0
  0
LINE
  5
1A06C
  8
0
 10
459.63637808470429
 20
185.7436887314206
 30
0.0
 11
449.63637808470429
 21
185.7436887314206
 31
0.0
  0
LINE
  5
1A06D
  8
0
 10
449.63637808470429
 20
173.7436887314206
 30
0.0
 11
459.63637808470429
 21
173.7436887314206
 31
0.0
  0
LINE
  5
1A06E
  8
0
 10
484.63637808470429
 20
173.7436887314206
 30
0.0
 11
494.63637808470429
 21
173.7436887314206
 31
0.0
  0
LINE
  5
1A06F
  8
0
 10
506.36937808470441
 20
175.7436887314206
 30
0.0
 11
506.36937808470441
 21
182.64450846169709
 31
0.0
  0
LINE
  5
1A070
  8
0
 10
507.13637808470429
 20
176.5106887314214
 30
0.0
 11
507.13637808470429
 21
182.97668873142081
 31
0.0
  0
LINE
  5
1A071
  8
0
 10
441.83637808470439
 20
173.48535539808739
 30
0.0
 11
441.83637808470439
 21
178.35980614146769
 31
0.0
  0
LINE
  5
1A072
  8
0
 10
442.09579779411979
 20
172.51718786206399
 30
0.0
 11
445.63911916318489
 21
172.51718786206399
 31
0.0
  0
POLYLINE
  5
1A073
  8
0
 66
     1
 10
0.0
 20
0.0
 30
0.0
  0
VERTEX
  5
26CDA
  8
0
 10
442.09579779411979
 20
172.51718786206399
 30
0.0
  0
VERTEX
  5
26CDB
  8
0
 10
442.01495314086168
 20
172.84176175773609
 30
0.0
  0
VERTEX
  5
26CDC
  8
0
 10
441.9003428021087
 20
173.45132233650841
 30
0.0
  0
VERTEX
  5
26CDD
  8
0
 10
441.84356821832421
 20
174.03373050808381
 30
0.0
  0
VERTEX
  5
26CDE
  8
0
 10
441.83637808470439
 20
174.32381307940341
 30
0.0
  0
SEQEND
  5
26CDF
  8
0
  0
POLYLINE
  5
1A074
  8
0
 66
     1
 10
0.0
 20
0.0
 30
0.0
  0
VERTEX
  5
26CE0
  8
0
 10
441.83637808470439
 20
174.32381307940341
 30
0.0
  0
VERTEX
  5
26CE1
  8
0
 10
441.84356821832421
 20
174.6138956507229
 30
0.0
  0
VERTEX
  5
26CE2
  8
0
 10
441.9003428021087
 20
175.1963038222984
 30
0.0
  0
VERTEX
  5
26CE3
  8
0
 10
442.01495314086168
 20
175.80586440107069
 30
0.0
  0
VERTEX
  5
26CE4
  8
0
 10
442.09579779411979
 20
176.1304382967428
 30
0.0
  0
SEQEND
  5
26CE5
  8
0
  0
LINE
  5
1A075
  8
0
 10
442.09579779411979
 20
176.1304382967428
 30
0.0
 11
443.24591615459008
 21
176.1304382967428
 31
0.0
  0
POLYLINE
  5
1A076
  8
0
 66
     1
 10
0.0
 20
0.0
 30
0.0
  0
VERTEX
  5
26CE6
  8
0
 10
442.09579779411979
 20
176.1304382967428
 30
0.0
  0
VERTEX
  5
26CE7
  8
0
 10
442.04670880269509
 20
176.51238647723861
 30
0.0
  0
VERTEX
  5
26CE8
  8
0
 10
441.96511758444632
 20
177.24476272126859
 30
0.0
  0
VERTEX
  5
26CE9
  8
0
 10
441.9041917311643
 20
177.94596260111479
 30
0.0
  0
VERTEX
  5
26CEA
  8
0
 10
441.88110442115538
 20
178.2886435005739
 30
0.0
  0
SEQEND
  5
26CEB
  8
0
  0
LINE
  5
1A077
  8
0
 10
504.63637808470429
 20
173.928688731421
 30
0.0
 11
504.63637808470429
 21
180.909087189204
 31
0.0
  0
LINE
  5
1A078
  8
0
 10
502.13637808470429
 20
173.48535539808739
 30
0.0
 11
502.13637808470429
 21
177.9205536434711
 31
0.0
  0
LINE
  5
1A079
  8
0
 10
498.63363700622369
 20
172.51718786206399
 30
0.0
 11
501.87695837528878
 21
172.51718786206399
 31
0.0
  0
POLYLINE
  5
1A07A
  8
0
 66
     1
 10
0.0
 20
0.0
 30
0.0
  0
VERTEX
  5
26CEC
  8
0
 10
501.87695837528878
 20
176.1304382967428
 30
0.0
  0
VERTEX
  5
26CED
  8
0
 10
501.957803028547
 20
175.80586440107069
 30
0.0
  0
VERTEX
  5
26CEE
  8
0
 10
502.0724133673001
 20
175.1963038222984
 30
0.0
  0
VERTEX
  5
26CEF
  8
0
 10
502.12918795108448
 20
174.6138956507229
 30
0.0
  0
VERTEX
  5
26CF0
  8
0
 10
502.13637808470429
 20
174.32381307940341
 30
0.0
  0
SEQEND
  5
26CF1
  8
0
  0
POLYLINE
  5
1A07B
  8
0
 66
     1
 10
0.0
 20
0.0
 30
0.0
  0
VERTEX
  5
26CF2
  8
0
 10
502.13637808470429
 20
174.32381307940341
 30
0.0
  0
VERTEX
  5
26CF3
  8
0
 10
502.12918795108448
 20
174.03373050808381
 30
0.0
  0
VERTEX
  5
26CF4
  8
0
 10
502.0724133673001
 20
173.45132233650841
 30
0.0
  0
VERTEX
  5
26CF5
  8
0
 10
501.957803028547
 20
172.84176175773609
 30
0.0
  0
VERTEX
  5
26CF6
  8
0
 10
501.87695837528878
 20
172.51718786206399
 30
0.0
  0
SEQEND
  5
26CF7
  8
0
  0
LINE
  5
1A07C
  8
0
 10
501.0268400148185
 20
176.1304382967428
 30
0.0
 11
501.87695837528878
 21
176.1304382967428
 31
0.0
  0
POLYLINE
  5
1A07D
  8
0
 66
     1
 10
0.0
 20
0.0
 30
0.0
  0
VERTEX
  5
26CF8
  8
0
 10
502.0580936459923
 20
177.80920004290689
 30
0.0
  0
VERTEX
  5
26CF9
  8
0
 10
502.03557436504428
 20
177.54133600709341
 30
0.0
  0
VERTEX
  5
26CFA
  8
0
 10
501.98159885321201
 20
176.99344339916291
 30
0.0
  0
VERTEX
  5
26CFB
  8
0
 10
501.91514161777178
 20
176.42460652542559
 30
0.0
  0
VERTEX
  5
26CFC
  8
0
 10
501.87695837528878
 20
176.1304382967428
 30
0.0
  0
SEQEND
  5
26CFD
  8
0
  0
LINE
  5
1A087
  8
0
 10
431.63637808470429
 20
244.74368873142069
 30
0.0
 11
512.63637808470435
 21
244.74368873142069
 31
0.0
  0
LINE
  5
1A088
  8
0
 10
512.63637808470435
 20
244.74368873142069
 30
0.0
 11
512.63637808470435
 21
195.54817315835859
 31
0.0
  0
LINE
  5
1A08B
  8
0
 10
494.63637808470429
 20
244.74368873142069
 30
0.0
 11
494.63637808470429
 21
170.7436887314206
 31
0.0
  0
LINE
  5
1A08C
  8
0
 10
449.63637808470429
 20
244.74368873142069
 30
0.0
 11
449.63637808470429
 21
170.7436887314206
 31
0.0
  0
LINE
  5
1A092
  8
0
 10
431.63637808470429
 20
244.74368873142069
 30
0.0
 11
431.63637808470429
 21
195.54817315835859
 31
0.0
  0
POLYLINE
  5
1A093
  8
0
 66
     1
 10
0.0
 20
0.0
 30
0.0
  0
VERTEX
  5
26CFE
  8
0
 10
431.63637808470429
 20
195.54817315835859
 30
0.0
  0
VERTEX
  5
26CFF
  8
0
 10
431.63648933846451
 20
195.4613235125189
 30
0.0
  0
VERTEX
  5
26D00
  8
0
 10
431.63741771184448
 20
195.28907744047589
 30
0.0
  0
VERTEX
  5
26D01
  8
0
 10
431.63937280869231
 20
195.11886450240129
 30
0.0
  0
VERTEX
  5
26D02
  8
0
 10
431.64076755552242
 20
195.03455571035281
 30
0.0
  0
VERTEX
  5
26D03
  8
0
 10
431.64245759707751
 20
194.95079715114019
 30
0.0
  0
VERTEX
  5
26D04
  8
0
 10
431.6467748993303
 20
194.78498484175179
 30
0.0
  0
VERTEX
  5
26D05
  8
0
 10
431.65242687570912
 20
194.6215334494955
 30
0.0
  0
VERTEX
  5
26D06
  8
0
 10
431.65951459694622
 20
194.46054321356311
 30
0.0
  0
VERTEX
  5
26D07
  8
0
 10
431.66813763173758
 20
194.30210847091891
 30
0.0
  0
VERTEX
  5
26D08
  8
0
 10
431.67839328014969
 20
194.1463228229195
 30
0.0
  0
VERTEX
  5
26D09
  8
0
 10
431.68416297725707
 20
194.0694520768657
 30
0.0
  0
VERTEX
  5
26D0A
  8
0
 10
431.69037599049892
 20
193.99327766109761
 30
0.0
  0
VERTEX
  5
26D0B
  8
0
 10
431.7041767674292
 20
193.84306139832549
 30
0.0
  0
VERTEX
  5
26D0C
  8
0
 10
431.71988260097822
 20
193.69575872436499
 30
0.0
  0
VERTEX
  5
26D0D
  8
0
 10
431.73757592924352
 20
193.55144986686261
 30
0.0
  0
VERTEX
  5
26D0E
  8
0
 10
431.75733414830438
 20
193.4102098569883
 30
0.0
  0
VERTEX
  5
26D0F
  8
0
 10
431.77922918491902
 20
193.27210780005311
 30
0.0
  0
VERTEX
  5
26D10
  8
0
 10
431.79099890404558
 20
193.20425330093261
 30
0.0
  0
VERTEX
  5
26D11
  8
0
 10
431.80334092157841
 20
193.13713337221901
 30
0.0
  0
VERTEX
  5
26D12
  8
0
 10
431.83019131949521
 20
193.00318438778501
 30
0.0
  0
VERTEX
  5
26D13
  8
0
 10
431.86015246883221
 20
192.86965882274851
 30
0.0
  0
VERTEX
  5
26D14
  8
0
 10
431.8763531233862
 20
192.80321381140669
 30
0.0
  0
SEQEND
  5
26D15
  8
0
  0
POLYLINE
  5
1A094
  8
0
 66
     1
 10
0.0
 20
0.0
 30
0.0
  0
VERTEX
  5
26D16
  8
0
 10
429.82730129836608
 20
192.80321381140669
 30
0.0
  0
VERTEX
  5
26D17
  8
0
 10
429.81490848104789
 20
192.8673780372765
 30
0.0
  0
VERTEX
  5
26D18
  8
0
 10
429.79160627021417
 20
192.9980540033493
 30
0.0
  0
VERTEX
  5
26D19
  8
0
 10
429.7702400147295
 20
193.13181860711569
 30
0.0
  0
VERTEX
  5
26D1A
  8
0
 10
429.76026603376039
 20
193.1998422354481
 30
0.0
  0
VERTEX
  5
26D1B
  8
0
 10
429.75075526480919
 20
193.26861703083429
 30
0.0
  0
VERTEX
  5
26D1C
  8
0
 10
429.73309306219647
 20
193.4083890440088
 30
0.0
  0
VERTEX
  5
26D1D
  8
0
 10
429.7171902165295
 20
193.55106955875269
 30
0.0
  0
VERTEX
  5
26D1E
  8
0
 10
429.70297963270423
 20
193.69658920147319
 30
0.0
  0
VERTEX
  5
26D1F
  8
0
 10
429.69039067877111
 20
193.84487489909861
 30
0.0
  0
VERTEX
  5
26D20
  8
0
 10
429.6793495848633
 20
193.99585047878099
 30
0.0
  0
VERTEX
  5
26D21
  8
0
 10
429.67438567767738
 20
194.07232247330191
 30
0.0
  0
VERTEX
  5
26D22
  8
0
 10
429.66977986458193
 20
194.14943728061189
 30
0.0
  0
VERTEX
  5
26D23
  8
0
 10
429.66160273879581
 20
194.30555504232501
 30
0.0
  0
VERTEX
  5
26D24
  8
0
 10
429.65473756613738
 20
194.46412317331209
 30
0.0
  0
VERTEX
  5
26D25
  8
0
 10
429.64910253207057
 20
194.62505466348921
 30
0.0
  0
VERTEX
  5
26D26
  8
0
 10
429.64461484489118
 20
194.7882579356683
 30
0.0
  0
VERTEX
  5
26D27
  8
0
 10
429.64119104479778
 20
194.9536379567144
 30
0.0
  0
VERTEX
  5
26D28
  8
0
 10
429.6398519273792
 20
195.0371137182301
 30
0.0
  0
VERTEX
  5
26D29
  8
0
 10
429.63874736576912
 20
195.1210966975768
 30
0.0
  0
VERTEX
  5
26D2A
  8
0
 10
429.63720010671489
 20
195.29053360376469
 30
0.0
  0
VERTEX
  5
26D2B
  8
0
 10
429.63646600663549
 20
195.46184607910439
 30
0.0
  0
VERTEX
  5
26D2C
  8
0
 10
429.63637808470429
 20
195.54817315835859
 30
0.0
  0
SEQEND
  5
26D2D
  8
0
  0
LINE
  5
1A095
  8
0
 10
429.63637808470429
 20
195.54817315835859
 30
0.0
 11
429.63637808470429
 21
246.74368873142069
 31
0.0
  0
POLYLINE
  5
1A097
  8
0
 66
     1
 10
0.0
 20
0.0
 30
0.0
  0
VERTEX
  5
26D2E
  8
0
 10
431.8763531233862
 20
192.80321381140669
 30
0.0
  0
VERTEX
  5
26D2F
  8
0
 10
431.92157870292669
 20
192.63091067027381
 30
0.0
  0
VERTEX
  5
26D30
  8
0
 10
432.02348144654098
 20
192.28953844239641
 30
0.0
  0
VERTEX
  5
26D31
  8
0
 10
432.14048141672868
 20
191.9530415269592
 30
0.0
  0
VERTEX
  5
26D32
  8
0
 10
432.20457151160588
 20
191.78683026011089
 30
0.0
  0
VERTEX
  5
26D33
  8
0
 10
432.27234658944678
 20
191.62208723503039
 30
0.0
  0
VERTEX
  5
26D34
  8
0
 10
432.41881546129048
 20
191.29733188603129
 30
0.0
  0
VERTEX
  5
26D35
  8
0
 10
432.5795975680843
 20
190.97941950618949
 30
0.0
  0
VERTEX
  5
26D36
  8
0
 10
432.75437406090538
 20
190.66898055135329
 30
0.0
  0
VERTEX
  5
26D37
  8
0
 10
432.94279833839568
 20
190.3666306567365
 30
0.0
  0
VERTEX
  5
26D38
  8
0
 10
433.14449673411201
 20
190.07296941604
 30
0.0
  0
VERTEX
  5
26D39
  8
0
 10
433.25019973621579
 20
189.9295797342802
 30
0.0
  0
VERTEX
  5
26D3A
  8
0
 10
433.3590692575483
 20
189.78857919238811
 30
0.0
  0
VERTEX
  5
26D3B
  8
0
 10
433.58609038736142
 20
189.5140239634438
 30
0.0
  0
VERTEX
  5
26D3C
  8
0
 10
433.82510991522742
 20
189.24984820297141
 30
0.0
  0
VERTEX
  5
26D3D
  8
0
 10
434.07565383865602
 20
188.99657580108939
 30
0.0
  0
VERTEX
  5
26D3E
  8
0
 10
434.3372253009893
 20
188.75470902533201
 30
0.0
  0
VERTEX
  5
26D3F
  8
0
 10
434.60930557672509
 20
188.52472752460289
 30
0.0
  0
VERTEX
  5
26D40
  8
0
 10
434.7491186904349
 20
188.41433722283821
 30
0.0
  0
VERTEX
  5
26D41
  8
0
 10
434.89135510020742
 20
188.30708737797161
 30
0.0
  0
VERTEX
  5
26D42
  8
0
 10
435.1828145356456
 20
188.10222019022149
 30
0.0
  0
VERTEX
  5
26D43
  8
0
 10
435.48310588633939
 20
187.91053223592911
 30
0.0
  0
VERTEX
  5
26D44
  8
0
 10
435.63637808470429
 20
187.8197503065748
 30
0.0
  0
SEQEND
  5
26D45
  8
0
  0
LINE
  5
1A098
  8
0
 10
435.63637808470429
 20
187.8197503065748
 30
0.0
 11
436.60057711378488
 21
187.2630697375825
 31
0.0
  0
POLYLINE
  5
1A099
  8
0
 66
     1
 10
0.0
 20
0.0
 30
0.0
  0
VERTEX
  5
26D46
  8
0
 10
433.00489902559082
 20
187.2630697375825
 30
0.0
  0
VERTEX
  5
26D47
  8
0
 10
432.87083157454629
 20
187.38402928283449
 30
0.0
  0
VERTEX
  5
26D48
  8
0
 10
432.60935744508521
 20
187.63311123850229
 30
0.0
  0
VERTEX
  5
26D49
  8
0
 10
432.35704729125757
 20
187.89147169850361
 30
0.0
  0
VERTEX
  5
26D4A
  8
0
 10
432.23443200857542
 20
188.0240265379843
 30
0.0
  0
VERTEX
  5
26D4B
  8
0
 10
432.11423015210022
 20
188.15877373356579
 30
0.0
  0
VERTEX
  5
26D4C
  8
0
 10
431.88122268675789
 20
188.43466875365721
 30
0.0
  0
VERTEX
  5
26D4D
  8
0
 10
431.6583287615266
 20
188.7187969625902
 30
0.0
  0
VERTEX
  5
26D4E
  8
0
 10
431.44583905358019
 20
189.01078782723101
 30
0.0
  0
VERTEX
  5
26D4F
  8
0
 10
431.2440306718965
 20
189.31026056071281
 30
0.0
  0
VERTEX
  5
26D50
  8
0
 10
431.05316679587793
 20
189.61682461902359
 30
0.0
  0
VERTEX
  5
26D51
  8
0
 10
430.96191739734542
 20
189.7726413071041
 30
0.0
  0
VERTEX
  5
26D52
  8
0
 10
430.87349633213768
 20
189.93008021031619
 30
0.0
  0
VERTEX
  5
26D53
  8
0
 10
430.70525358989948
 20
190.2496188162786
 30
0.0
  0
VERTEX
  5
26D54
  8
0
 10
430.54865797543403
 20
190.5750237248885
 30
0.0
  0
VERTEX
  5
26D55
  8
0
 10
430.40391370592909
 20
190.9058705738407
 30
0.0
  0
VERTEX
  5
26D56
  8
0
 10
430.27120954316968
 20
191.2417279039727
 30
0.0
  0
VERTEX
  5
26D57
  8
0
 10
430.15071854737238
 20
191.58215772192119
 30
0.0
  0
VERTEX
  5
26D58
  8
0
 10
430.09510271903929
 20
191.75394879461049
 30
0.0
  0
VERTEX
  5
26D59
  8
0
 10
430.04259785149679
 20
191.92671607131979
 30
0.0
  0
VERTEX
  5
26D5A
  8
0
 10
429.94698845632718
 20
192.2749536117598
 30
0.0
  0
VERTEX
  5
26D5B
  8
0
 10
429.86401504659318
 20
192.62641620478189
 30
0.0
  0
VERTEX
  5
26D5C
  8
0
 10
429.82730129836608
 20
192.80321381140669
 30
0.0
  0
SEQEND
  5
26D5D
  8
0
  0
POLYLINE
  5
1A09B
  8
0
 66
     1
 10
0.0
 20
0.0
 30
0.0
  0
VERTEX
  5
26D5E
  8
0
 10
436.60057711378488
 20
187.2630697375825
 30
0.0
  0
VERTEX
  5
26D5F
  8
0
 10
436.68931843762931
 20
187.21146095882071
 30
0.0
  0
VERTEX
  5
26D60
  8
0
 10
436.86483923831162
 20
187.1071324835402
 30
0.0
  0
VERTEX
  5
26D61
  8
0
 10
437.03771335990581
 20
187.00134120819351
 30
0.0
  0
VERTEX
  5
26D62
  8
0
 10
437.12314646611122
 20
186.94790400187409
 30
0.0
  0
VERTEX
  5
26D63
  8
0
 10
437.2079042332868
 20
186.89410951145959
 30
0.0
  0
VERTEX
  5
26D64
  8
0
 10
437.37537585693298
 20
186.7854600767177
 30
0.0
  0
VERTEX
  5
26D65
  8
0
 10
437.54009280454272
 20
186.6754158872518
 30
0.0
  0
VERTEX
  5
26D66
  8
0
 10
437.70202023252762
 20
186.5640002213849
 30
0.0
  0
VERTEX
  5
26D67
  8
0
 10
437.86112388738371
 20
186.45123664755829
 30
0.0
  0
VERTEX
  5
26D68
  8
0
 10
438.0173701129371
 20
186.33714901934209
 30
0.0
  0
VERTEX
  5
26D69
  8
0
 10
438.09441133725812
 20
186.27961621580471
 30
0.0
  0
VERTEX
  5
26D6A
  8
0
 10
438.17072585746348
 20
186.22176147039499
 30
0.0
  0
VERTEX
  5
26D6B
  8
0
 10
438.32115868067967
 20
186.1050984093535
 30
0.0
  0
VERTEX
  5
26D6C
  8
0
 10
438.46863676060599
 20
185.9871845146717
 30
0.0
  0
VERTEX
  5
26D6D
  8
0
 10
438.61312890029791
 20
185.86804472940179
 30
0.0
  0
VERTEX
  5
26D6E
  8
0
 10
438.75460453444509
 20
185.74770425591299
 30
0.0
  0
VERTEX
  5
26D6F
  8
0
 10
438.89303373583721
 20
185.62618855056729
 30
0.0
  0
VERTEX
  5
26D70
  8
0
 10
438.96109674803802
 20
185.5649980091857
 30
0.0
  0
VERTEX
  5
26D71
  8
0
 10
439.0283872216944
 20
185.5035233183271
 30
0.0
  0
VERTEX
  5
26D72
  8
0
 10
439.160636359862
 20
185.37973450732261
 30
0.0
  0
VERTEX
  5
26D73
  8
0
 10
439.2897531748672
 20
185.25484830336239
 30
0.0
  0
VERTEX
  5
26D74
  8
0
 10
439.35312839986898
 20
185.1920019257177
 30
0.0
  0
SEQEND
  5
26D75
  8
0
  0
POLYLINE
  5
1A09C
  8
0
 66
     1
 10
0.0
 20
0.0
 30
0.0
  0
VERTEX
  5
26D76
  8
0
 10
435.35312839986898
 20
185.1920019257177
 30
0.0
  0
VERTEX
  5
26D77
  8
0
 10
435.23983365234761
 20
185.30362289255481
 30
0.0
  0
VERTEX
  5
26D78
  8
0
 10
435.00578841350682
 20
185.52427956679909
 30
0.0
  0
VERTEX
  5
26D79
  8
0
 10
434.7619334494446
 20
185.74136636510229
 30
0.0
  0
VERTEX
  5
26D7A
  8
0
 10
434.63637808470429
 20
185.84852554718509
 30
0.0
  0
SEQEND
  5
26D7B
  8
0
  0
LINE
  5
1A09D
  8
0
 10
434.63637808470429
 20
185.84852554718509
 30
0.0
 11
433.00489902559082
 21
187.2630697375825
 31
0.0
  0
LINE
  5
1A09F
  8
0
 10
439.35312839986898
 20
185.1920019257177
 30
0.0
 11
440.88637808470429
 21
183.65875224088171
 31
0.0
  0
POLYLINE
  5
1A0A0
  8
0
 66
     1
 10
0.0
 20
0.0
 30
0.0
  0
VERTEX
  5
26D7C
  8
0
 10
440.88637808470429
 20
183.65875224088171
 30
0.0
  0
VERTEX
  5
26D7D
  8
0
 10
441.05320870416551
 20
183.48978740269101
 30
0.0
  0
VERTEX
  5
26D7E
  8
0
 10
441.3835873640636
 20
183.14233655459969
 30
0.0
  0
VERTEX
  5
26D7F
  8
0
 10
441.70945517469829
 20
182.78233269550219
 30
0.0
  0
VERTEX
  5
26D80
  8
0
 10
441.87064774831862
 20
182.59767802877741
 30
0.0
  0
VERTEX
  5
26D81
  8
0
 10
442.03065317561681
 20
182.40995143764121
 30
0.0
  0
VERTEX
  5
26D82
  8
0
 10
442.34702468433011
 20
182.0253744310339
 30
0.0
  0
VERTEX
  5
26D83
  8
0
 10
442.65841537274372
 20
181.62878927486139
 30
0.0
  0
VERTEX
  5
26D84
  8
0
 10
442.96467334243999
 20
181.22038942596279
 30
0.0
  0
VERTEX
  5
26D85
  8
0
 10
443.26564919877512
 20
180.80037410445851
 30
0.0
  0
VERTEX
  5
26D86
  8
0
 10
443.5611961237546
 20
180.36894819657391
 30
0.0
  0
VERTEX
  5
26D87
  8
0
 10
443.70688857856669
 20
180.14902182447071
 30
0.0
  0
VERTEX
  5
26D88
  8
0
 10
443.85116994765241
 20
179.92632215469439
 30
0.0
  0
VERTEX
  5
26D89
  8
0
 10
444.13542921933782
 20
179.47271189470121
 30
0.0
  0
VERTEX
  5
26D8A
  8
0
 10
444.4138352752758
 20
179.0083386906517
 30
0.0
  0
VERTEX
  5
26D8B
  8
0
 10
444.68625230716839
 20
178.53342906683611
 30
0.0
  0
VERTEX
  5
26D8C
  8
0
 10
444.9525474282031
 20
178.04821468727999
 30
0.0
  0
VERTEX
  5
26D8D
  8
0
 10
445.21259073787542
 20
177.5529322427374
 30
0.0
  0
VERTEX
  5
26D8E
  8
0
 10
445.3402282017359
 20
177.30159080808789
 30
0.0
  0
VERTEX
  5
26D8F
  8
0
 10
445.46625538535511
 20
177.04782333522871
 30
0.0
  0
VERTEX
  5
26D90
  8
0
 10
445.71341763136559
 20
176.53313436018649
 30
0.0
  0
VERTEX
  5
26D91
  8
0
 10
445.95395690854428
 20
176.0091163862671
 30
0.0
  0
VERTEX
  5
26D92
  8
0
 10
446.07170613834683
 20
175.7436887314206
 30
0.0
  0
SEQEND
  5
26D93
  8
0
  0
POLYLINE
  5
1A0A1
  8
0
 66
     1
 10
0.0
 20
0.0
 30
0.0
  0
VERTEX
  5
26D94
  8
0
 10
443.45862909599327
 20
175.7436887314206
 30
0.0
  0
VERTEX
  5
26D95
  8
0
 10
443.37138516778322
 20
175.90399075055029
 30
0.0
  0
VERTEX
  5
26D96
  8
0
 10
443.19463373048251
 20
176.22084798319241
 30
0.0
  0
VERTEX
  5
26D97
  8
0
 10
443.01490394066019
 20
176.53263849875111
 30
0.0
  0
VERTEX
  5
26D98
  8
0
 10
442.92393725980901
 20
176.6866074413665
 30
0.0
  0
VERTEX
  5
26D99
  8
0
 10
442.83224420546901
 20
176.8392783217696
 30
0.0
  0
VERTEX
  5
26D9A
  8
0
 10
442.64670372119281
 20
177.1406848640417
 30
0.0
  0
VERTEX
  5
26D9B
  8
0
 10
442.45833245999609
 20
177.43677694685809
 30
0.0
  0
VERTEX
  5
26D9C
  8
0
 10
442.26718115646452
 20
177.7274748228665
 30
0.0
  0
VERTEX
  5
26D9D
  8
0
 10
442.0733012939412
 20
178.0127001975525
 30
0.0
  0
VERTEX
  5
26D9E
  8
0
 10
441.8767450906596
 20
178.29237625032781
 30
0.0
  0
VERTEX
  5
26D9F
  8
0
 10
441.7774798769222
 20
178.43010968269121
 30
0.0
  0
VERTEX
  5
26DA0
  8
0
 10
441.67756548568042
 20
178.56642765521789
 30
0.0
  0
VERTEX
  5
26DA1
  8
0
 10
441.47581612463222
 20
178.8347806011507
 30
0.0
  0
VERTEX
  5
26DA2
  8
0
 10
441.27155134526419
 20
179.0973628118399
 30
0.0
  0
VERTEX
  5
26DA3
  8
0
 10
441.06482616281011
 20
179.35410356524511
 30
0.0
  0
VERTEX
  5
26DA4
  8
0
 10
440.85569625517132
 20
179.60493371262419
 30
0.0
  0
VERTEX
  5
26DA5
  8
0
 10
440.64421794792128
 20
179.84978569715531
 30
0.0
  0
VERTEX
  5
26DA6
  8
0
 10
440.5376159195514
 20
179.9699492066238
 30
0.0
  0
VERTEX
  5
26DA7
  8
0
 10
440.43044819913428
 20
180.08859357213441
 30
0.0
  0
VERTEX
  5
26DA8
  8
0
 10
440.21444458404579
 20
180.3212930187328
 30
0.0
  0
VERTEX
  5
26DA9
  8
0
 10
439.99626527954479
 20
180.54782136332409
 30
0.0
  0
VERTEX
  5
26DAA
  8
0
 10
439.88637808470429
 20
180.65875224088171
 30
0.0
  0
SEQEND
  5
26DAB
  8
0
  0
LINE
  5
1A0A2
  8
0
 10
439.8863780847044
 20
180.65875224088171
 30
0.0
 11
435.35312839986898
 21
185.1920019257177
 31
0.0
  0
POLYLINE
  5
1A0A4
  8
0
 66
     1
 10
0.0
 20
0.0
 30
0.0
  0
VERTEX
  5
26DAC
  8
0
 10
446.07170613834683
 20
175.7436887314206
 30
0.0
  0
VERTEX
  5
26DAD
  8
0
 10
446.1837900376641
 20
175.49374737076411
 30
0.0
  0
VERTEX
  5
26DAE
  8
0
 10
446.4139671116385
 20
175.01130185110651
 30
0.0
  0
VERTEX
  5
26DAF
  8
0
 10
446.64891541827473
 20
174.55374328828839
 30
0.0
  0
VERTEX
  5
26DB0
  8
0
 10
446.76699513776612
 20
174.33487412040719
 30
0.0
  0
VERTEX
  5
26DB1
  8
0
 10
446.8848685194319
 20
174.12289991024679
 30
0.0
  0
VERTEX
  5
26DB2
  8
0
 10
447.11825999555259
 20
173.72040751713209
 30
0.0
  0
VERTEX
  5
26DB3
  8
0
 10
447.35135629006311
 20
173.3387566406081
 30
0.0
  0
VERTEX
  5
26DB4
  8
0
 10
447.58599713908319
 20
172.97288859687339
 30
0.0
  0
VERTEX
  5
26DB5
  8
0
 10
447.81905570132392
 20
172.62623435240039
 30
0.0
  0
VERTEX
  5
26DB6
  8
0
 10
448.04748719031568
 20
172.3019084193019
 30
0.0
  0
VERTEX
  5
26DB7
  8
0
 10
448.15905518293738
 20
172.14900525851041
 30
0.0
  0
VERTEX
  5
26DB8
  8
0
 10
448.26838926173201
 20
172.00271595188769
 30
0.0
  0
VERTEX
  5
26DB9
  8
0
 10
448.47901934803258
 20
171.73119794542799
 30
0.0
  0
VERTEX
  5
26DBA
  8
0
 10
448.67686860564743
 20
171.48958133469841
 30
0.0
  0
VERTEX
  5
26DBB
  8
0
 10
448.85982554544552
 20
171.27962900835519
 30
0.0
  0
VERTEX
  5
26DBC
  8
0
 10
449.02595127049437
 20
171.10294123448961
 30
0.0
  0
VERTEX
  5
26DBD
  8
0
 10
449.17358352138172
 20
170.96081428589059
 30
0.0
  0
VERTEX
  5
26DBE
  8
0
 10
449.24005360645009
 20
170.9029958474402
 30
0.0
  0
VERTEX
  5
26DBF
  8
0
 10
449.3014597131841
 20
170.85410181597399
 30
0.0
  0
VERTEX
  5
26DC0
  8
0
 10
449.40872568221761
 20
170.7832041038036
 30
0.0
  0
VERTEX
  5
26DC1
  8
0
 10
449.49493760722169
 20
170.74804170972669
 30
0.0
  0
VERTEX
  5
26DC2
  8
0
 10
449.53013365582888
 20
170.7436887314206
 30
0.0
  0
SEQEND
  5
26DC3
  8
0
  0
POLYLINE
  5
1A0A5
  8
0
 66
     1
 10
0.0
 20
0.0
 30
0.0
  0
VERTEX
  5
26DC4
  8
0
 10
447.51632388656031
 20
170.7436887314206
 30
0.0
  0
VERTEX
  5
26DC5
  8
0
 10
447.50998157241719
 20
170.74381373982391
 30
0.0
  0
VERTEX
  5
26DC6
  8
0
 10
447.49678760690722
 20
170.74481532842759
 30
0.0
  0
VERTEX
  5
26DC7
  8
0
 10
447.4829130875986
 20
170.7468221737208
 30
0.0
  0
VERTEX
  5
26DC8
  8
0
 10
447.47572017569598
 20
170.7482036529581
 30
0.0
  0
VERTEX
  5
26DC9
  8
0
 10
447.46835664249608
 20
170.74983769484061
 30
0.0
  0
VERTEX
  5
26DCA
  8
0
 10
447.45311730528022
 20
170.75386487797269
 30
0.0
  0
VERTEX
  5
26DCB
  8
0
 10
447.43719451660598
 20
170.7589062719498
 30
0.0
  0
VERTEX
  5
26DCC
  8
0
 10
447.4205881241204
 20
170.76496398568901
 30
0.0
  0
VERTEX
  5
26DCD
  8
0
 10
447.40329838121409
 20
170.7720396874447
 30
0.0
  0
VERTEX
  5
26DCE
  8
0
 10
447.38532594453261
 20
170.7801346058049
 30
0.0
  0
VERTEX
  5
26DCF
  8
0
 10
447.37608403060511
 20
170.7845645355637
 30
0.0
  0
VERTEX
  5
26DD0
  8
0
 10
447.36667187026922
 20
170.78924953242949
 30
0.0
  0
VERTEX
  5
26DD1
  8
0
 10
447.34733760926798
 20
170.79938482645591
 30
0.0
  0
VERTEX
  5
26DD2
  8
0
 10
447.32732500096461
 20
170.81054042054799
 30
0.0
  0
VERTEX
  5
26DD3
  8
0
 10
447.30663626619707
 20
170.8227158285317
 30
0.0
  0
VERTEX
  5
26DD4
  8
0
 10
447.2852739989201
 20
170.83591015458481
 30
0.0
  0
VERTEX
  5
26DD5
  8
0
 10
447.26324115685668
 20
170.850122103926
 30
0.0
  0
VERTEX
  5
26DD6
  8
0
 10
447.25197429150421
 20
170.85760917657711
 30
0.0
  0
VERTEX
  5
26DD7
  8
0
 10
447.24054105112549
 20
170.86534999495319
 30
0.0
  0
VERTEX
  5
26DD8
  8
0
 10
447.21717733488151
 20
170.8815917728007
 30
0.0
  0
VERTEX
  5
26DD9
  8
0
 10
447.19315399101072
 20
170.898845024255
 30
0.0
  0
VERTEX
  5
26DDA
  8
0
 10
447.1808962902951
 20
170.90785010443679
 30
0.0
  0
VERTEX
  5
26DDB
  8
0
 10
447.10394248410711
 20
170.9671540983372
 30
0.0
  0
VERTEX
  5
26DDC
  8
0
 10
446.9329818353786
 20
171.11253980538271
 30
0.0
  0
VERTEX
  5
26DDD
  8
0
 10
446.74052653143531
 20
171.29265931335701
 30
0.0
  0
VERTEX
  5
26DDE
  8
0
 10
446.52844451111559
 20
171.5059708299332
 30
0.0
  0
VERTEX
  5
26DDF
  8
0
 10
446.29889459887482
 20
171.7506457037407
 30
0.0
  0
VERTEX
  5
26DE0
  8
0
 10
446.0542084711725
 20
172.02471678555861
 30
0.0
  0
VERTEX
  5
26DE1
  8
0
 10
445.92704641775077
 20
172.17203351368789
 30
0.0
  0
VERTEX
  5
26DE2
  8
0
 10
445.79716569061731
 20
172.3257691528633
 30
0.0
  0
VERTEX
  5
26DE3
  8
0
 10
445.53081095821398
 20
172.6510987512483
 30
0.0
  0
VERTEX
  5
26DE4
  8
0
 10
445.25837977803309
 20
172.99776518222191
 30
0.0
  0
VERTEX
  5
26DE5
  8
0
 10
444.9832896401
 20
173.36255098790389
 30
0.0
  0
VERTEX
  5
26DE6
  8
0
 10
444.70908294362812
 20
173.74195812431481
 30
0.0
  0
VERTEX
  5
26DE7
  8
0
 10
444.4332793949622
 20
174.1412058600435
 30
0.0
  0
VERTEX
  5
26DE8
  8
0
 10
444.2934191474925
 20
174.3511963359569
 30
0.0
  0
VERTEX
  5
26DE9
  8
0
 10
444.15289284117978
 20
174.56784595708541
 30
0.0
  0
VERTEX
  5
26DEA
  8
0
 10
443.8718882072439
 20
175.02030402096531
 30
0.0
  0
VERTEX
  5
26DEB
  8
0
 10
443.59453261141778
 20
175.496892198772
 30
0.0
  0
VERTEX
  5
26DEC
  8
0
 10
443.45862909599327
 20
175.7436887314206
 30
0.0
  0
SEQEND
  5
26DED
  8
0
  0
LINE
  5
1A0A6
  8
0
 10
449.63637808470429
 20
170.7436887314206
 30
0.0
 11
447.51632388656031
 21
170.7436887314206
 31
0.0
  0
POLYLINE
  5
1A0A7
  8
0
 66
     1
 10
0.0
 20
0.0
 30
0.0
  0
VERTEX
  5
26DEE
  8
0
 10
447.47450726117938
 20
170.7484579162055
 30
0.0
  0
VERTEX
  5
26DEF
  8
0
 10
447.48192732585142
 20
170.74699840397989
 30
0.0
  0
VERTEX
  5
26DF0
  8
0
 10
447.49622605163768
 20
170.7448785152892
 30
0.0
  0
VERTEX
  5
26DF1
  8
0
 10
447.50980430435521
 20
170.74382073064129
 30
0.0
  0
VERTEX
  5
26DF2
  8
0
 10
447.51632388656031
 20
170.7436887314206
 30
0.0
  0
SEQEND
  5
26DF3
  8
0
  0
POLYLINE
  5
1A0A8
  8
0
 66
     1
 10
0.0
 20
0.0
 30
0.0
  0
VERTEX
  5
26DF4
  8
0
 10
429.82730129836608
 20
192.80321381140669
 30
0.0
  0
VERTEX
  5
26DF5
  8
0
 10
429.86401504659318
 20
192.62641620478189
 30
0.0
  0
VERTEX
  5
26DF6
  8
0
 10
429.94698845632718
 20
192.2749536117598
 30
0.0
  0
VERTEX
  5
26DF7
  8
0
 10
430.04259785149679
 20
191.92671607131979
 30
0.0
  0
VERTEX
  5
26DF8
  8
0
 10
430.09510271903929
 20
191.75394879461049
 30
0.0
  0
VERTEX
  5
26DF9
  8
0
 10
430.15071854737238
 20
191.58215772192119
 30
0.0
  0
VERTEX
  5
26DFA
  8
0
 10
430.27120954316968
 20
191.2417279039727
 30
0.0
  0
VERTEX
  5
26DFB
  8
0
 10
430.40391370592909
 20
190.9058705738407
 30
0.0
  0
VERTEX
  5
26DFC
  8
0
 10
430.54865797543403
 20
190.5750237248885
 30
0.0
  0
VERTEX
  5
26DFD
  8
0
 10
430.70525358989948
 20
190.2496188162786
 30
0.0
  0
VERTEX
  5
26DFE
  8
0
 10
430.87349633213768
 20
189.93008021031619
 30
0.0
  0
VERTEX
  5
26DFF
  8
0
 10
430.96191739734542
 20
189.7726413071041
 30
0.0
  0
VERTEX
  5
26E00
  8
0
 10
431.05316679587793
 20
189.61682461902359
 30
0.0
  0
VERTEX
  5
26E01
  8
0
 10
431.2440306718965
 20
189.31026056071281
 30
0.0
  0
VERTEX
  5
26E02
  8
0
 10
431.44583905358019
 20
189.01078782723101
 30
0.0
  0
VERTEX
  5
26E03
  8
0
 10
431.6583287615266
 20
188.7187969625902
 30
0.0
  0
VERTEX
  5
26E04
  8
0
 10
431.88122268675789
 20
188.43466875365721
 30
0.0
  0
VERTEX
  5
26E05
  8
0
 10
432.11423015210022
 20
188.15877373356579
 30
0.0
  0
VERTEX
  5
26E06
  8
0
 10
432.23443200857542
 20
188.0240265379843
 30
0.0
  0
VERTEX
  5
26E07
  8
0
 10
432.35704729125757
 20
187.89147169850361
 30
0.0
  0
VERTEX
  5
26E08
  8
0
 10
432.60935744508521
 20
187.63311123850229
 30
0.0
  0
VERTEX
  5
26E09
  8
0
 10
432.87083157454629
 20
187.38402928283449
 30
0.0
  0
VERTEX
  5
26E0A
  8
0
 10
433.00489902559082
 20
187.2630697375825
 30
0.0
  0
SEQEND
  5
26E0B
  8
0
  0
POLYLINE
  5
1A0AB
  8
0
 66
     1
 10
0.0
 20
0.0
 30
0.0
  0
VERTEX
  5
26E0C
  8
0
 10
512.39640304602244
 20
192.80321381140669
 30
0.0
  0
VERTEX
  5
26E0D
  8
0
 10
512.41260370057648
 20
192.86965882274851
 30
0.0
  0
VERTEX
  5
26E0E
  8
0
 10
512.44256484991354
 20
193.00318438778501
 30
0.0
  0
VERTEX
  5
26E0F
  8
0
 10
512.46941524783017
 20
193.13713337221901
 30
0.0
  0
VERTEX
  5
26E10
  8
0
 10
512.48175726536294
 20
193.20425330093261
 30
0.0
  0
VERTEX
  5
26E11
  8
0
 10
512.49352698448979
 20
193.27210780005311
 30
0.0
  0
VERTEX
  5
26E12
  8
0
 10
512.51542202110431
 20
193.4102098569883
 30
0.0
  0
VERTEX
  5
26E13
  8
0
 10
512.53518024016523
 20
193.55144986686261
 30
0.0
  0
VERTEX
  5
26E14
  8
0
 10
512.55287356843053
 20
193.69575872436499
 30
0.0
  0
VERTEX
  5
26E15
  8
0
 10
512.56857940197938
 20
193.84306139832549
 30
0.0
  0
VERTEX
  5
26E16
  8
0
 10
512.58238017890983
 20
193.99327766109761
 30
0.0
  0
VERTEX
  5
26E17
  8
0
 10
512.58859319215162
 20
194.0694520768657
 30
0.0
  0
VERTEX
  5
26E18
  8
0
 10
512.59436288925895
 20
194.1463228229195
 30
0.0
  0
VERTEX
  5
26E19
  8
0
 10
512.60461853767094
 20
194.30210847091891
 30
0.0
  0
VERTEX
  5
26E1A
  8
0
 10
512.61324157246236
 20
194.46054321356311
 30
0.0
  0
VERTEX
  5
26E1B
  8
0
 10
512.62032929369946
 20
194.6215334494955
 30
0.0
  0
VERTEX
  5
26E1C
  8
0
 10
512.62598127007846
 20
194.78498484175179
 30
0.0
  0
VERTEX
  5
26E1D
  8
0
 10
512.63029857233107
 20
194.95079715114019
 30
0.0
  0
VERTEX
  5
26E1E
  8
0
 10
512.63198861388639
 20
195.03455571035281
 30
0.0
  0
VERTEX
  5
26E1F
  8
0
 10
512.63338336071627
 20
195.11886450240129
 30
0.0
  0
VERTEX
  5
26E20
  8
0
 10
512.63533845756422
 20
195.28907744047589
 30
0.0
  0
VERTEX
  5
26E21
  8
0
 10
512.63626683094424
 20
195.4613235125189
 30
0.0
  0
VERTEX
  5
26E22
  8
0
 10
512.63637808470435
 20
195.54817315835859
 30
0.0
  0
SEQEND
  5
26E23
  8
0
  0
POLYLINE
  5
1A0AD
  8
0
 66
     1
 10
0.0
 20
0.0
 30
0.0
  0
VERTEX
  5
26E24
  8
0
 10
508.63637808470429
 20
187.8197503065748
 30
0.0
  0
VERTEX
  5
26E25
  8
0
 10
508.78965028306919
 20
187.91053223592911
 30
0.0
  0
VERTEX
  5
26E26
  8
0
 10
509.08994163376309
 20
188.10222019022149
 30
0.0
  0
VERTEX
  5
26E27
  8
0
 10
509.38140106920122
 20
188.30708737797161
 30
0.0
  0
VERTEX
  5
26E28
  8
0
 10
509.52363747897368
 20
188.41433722283821
 30
0.0
  0
VERTEX
  5
26E29
  8
0
 10
509.6634505926836
 20
188.52472752460289
 30
0.0
  0
VERTEX
  5
26E2A
  8
0
 10
509.93553086841939
 20
188.75470902533201
 30
0.0
  0
VERTEX
  5
26E2B
  8
0
 10
510.19710233075273
 20
188.99657580108939
 30
0.0
  0
VERTEX
  5
26E2C
  8
0
 10
510.44764625418111
 20
189.24984820297141
 30
0.0
  0
VERTEX
  5
26E2D
  8
0
 10
510.68666578204733
 20
189.5140239634438
 30
0.0
  0
VERTEX
  5
26E2E
  8
0
 10
510.9136869118604
 20
189.78857919238811
 30
0.0
  0
VERTEX
  5
26E2F
  8
0
 10
511.02255643319279
 20
189.9295797342802
 30
0.0
  0
VERTEX
  5
26E30
  8
0
 10
511.12825943529663
 20
190.07296941604
 30
0.0
  0
VERTEX
  5
26E31
  8
0
 10
511.32995783101302
 20
190.3666306567365
 30
0.0
  0
VERTEX
  5
26E32
  8
0
 10
511.5183821085032
 20
190.66898055135329
 30
0.0
  0
VERTEX
  5
26E33
  8
0
 10
511.69315860132428
 20
190.97941950618949
 30
0.0
  0
VERTEX
  5
26E34
  8
0
 10
511.85394070811822
 20
191.29733188603129
 30
0.0
  0
VERTEX
  5
26E35
  8
0
 10
512.00040957996191
 20
191.62208723503039
 30
0.0
  0
VERTEX
  5
26E36
  8
0
 10
512.06818465780282
 20
191.78683026011089
 30
0.0
  0
VERTEX
  5
26E37
  8
0
 10
512.13227475267979
 20
191.9530415269592
 30
0.0
  0
VERTEX
  5
26E38
  8
0
 10
512.24927472286765
 20
192.28953844239641
 30
0.0
  0
VERTEX
  5
26E39
  8
0
 10
512.351177466482
 20
192.63091067027381
 30
0.0
  0
VERTEX
  5
26E3A
  8
0
 10
512.39640304602244
 20
192.80321381140669
 30
0.0
  0
SEQEND
  5
26E3B
  8
0
  0
POLYLINE
  5
1A0AF
  8
0
 66
     1
 10
0.0
 20
0.0
 30
0.0
  0
VERTEX
  5
26E3C
  8
0
 10
514.44545487104256
 20
192.80321381140669
 30
0.0
  0
VERTEX
  5
26E3D
  8
0
 10
514.4087411228154
 20
192.62641620478189
 30
0.0
  0
VERTEX
  5
26E3E
  8
0
 10
514.32576771308152
 20
192.2749536117598
 30
0.0
  0
VERTEX
  5
26E3F
  8
0
 10
514.2301583179119
 20
191.92671607131979
 30
0.0
  0
VERTEX
  5
26E40
  8
0
 10
514.17765345036935
 20
191.75394879461049
 30
0.0
  0
VERTEX
  5
26E41
  8
0
 10
514.12203762203615
 20
191.58215772192119
 30
0.0
  0
VERTEX
  5
26E42
  8
0
 10
514.00154662623902
 20
191.2417279039727
 30
0.0
  0
VERTEX
  5
26E43
  8
0
 10
513.8688424634795
 20
190.9058705738407
 30
0.0
  0
VERTEX
  5
26E44
  8
0
 10
513.72409819397456
 20
190.5750237248885
 30
0.0
  0
VERTEX
  5
26E45
  8
0
 10
513.5675025795091
 20
190.2496188162786
 30
0.0
  0
VERTEX
  5
26E46
  8
0
 10
513.39925983727096
 20
189.93008021031619
 30
0.0
  0
VERTEX
  5
26E47
  8
0
 10
513.31083877206333
 20
189.7726413071041
 30
0.0
  0
VERTEX
  5
26E48
  8
0
 10
513.21958937353065
 20
189.61682461902359
 30
0.0
  0
VERTEX
  5
26E49
  8
0
 10
513.02872549751214
 20
189.31026056071281
 30
0.0
  0
VERTEX
  5
26E4A
  8
0
 10
512.82691711582845
 20
189.01078782723101
 30
0.0
  0
VERTEX
  5
26E4B
  8
0
 10
512.61442740788209
 20
188.7187969625902
 30
0.0
  0
VERTEX
  5
26E4C
  8
0
 10
512.39153348265074
 20
188.43466875365721
 30
0.0
  0
VERTEX
  5
26E4D
  8
0
 10
512.15852601730842
 20
188.15877373356579
 30
0.0
  0
VERTEX
  5
26E4E
  8
0
 10
512.03832416083333
 20
188.0240265379843
 30
0.0
  0
VERTEX
  5
26E4F
  8
0
 10
511.91570887815101
 20
187.89147169850361
 30
0.0
  0
VERTEX
  5
26E50
  8
0
 10
511.66339872432337
 20
187.63311123850229
 30
0.0
  0
VERTEX
  5
26E51
  8
0
 10
511.40192459486241
 20
187.38402928283449
 30
0.0
  0
VERTEX
  5
26E52
  8
0
 10
511.26785714381788
 20
187.2630697375825
 30
0.0
  0
SEQEND
  5
26E53
  8
0
  0
LINE
  5
1A0B0
  8
0
 10
507.6721790556237
 20
187.2630697375825
 30
0.0
 11
508.63637808470429
 21
187.8197503065748
 31
0.0
  0
LINE
  5
1A0B3
  8
0
 10
511.26785714381788
 20
187.2630697375825
 30
0.0
 11
509.63637808470429
 21
185.84852554718509
 31
0.0
  0
POLYLINE
  5
1A0B4
  8
0
 66
     1
 10
0.0
 20
0.0
 30
0.0
  0
VERTEX
  5
26E54
  8
0
 10
509.63637808470429
 20
185.84852554718509
 30
0.0
  0
VERTEX
  5
26E55
  8
0
 10
509.51082271996398
 20
185.74136636510229
 30
0.0
  0
VERTEX
  5
26E56
  8
0
 10
509.26696775590182
 20
185.52427956679909
 30
0.0
  0
VERTEX
  5
26E57
  8
0
 10
509.03292251706102
 20
185.30362289255481
 30
0.0
  0
VERTEX
  5
26E58
  8
0
 10
508.91962776953949
 20
185.1920019257177
 30
0.0
  0
SEQEND
  5
26E59
  8
0
  0
POLYLINE
  5
1A0B5
  8
0
 66
     1
 10
0.0
 20
0.0
 30
0.0
  0
VERTEX
  5
26E5A
  8
0
 10
504.91962776953949
 20
185.1920019257177
 30
0.0
  0
VERTEX
  5
26E5B
  8
0
 10
504.98300299454149
 20
185.25484830336239
 30
0.0
  0
VERTEX
  5
26E5C
  8
0
 10
505.1121198095467
 20
185.37973450732261
 30
0.0
  0
VERTEX
  5
26E5D
  8
0
 10
505.24436894771429
 20
185.5035233183271
 30
0.0
  0
VERTEX
  5
26E5E
  8
0
 10
505.31165942137062
 20
185.5649980091857
 30
0.0
  0
VERTEX
  5
26E5F
  8
0
 10
505.37972243357137
 20
185.62618855056729
 30
0.0
  0
VERTEX
  5
26E60
  8
0
 10
505.5181516349636
 20
185.74770425591299
 30
0.0
  0
VERTEX
  5
26E61
  8
0
 10
505.65962726911067
 20
185.86804472940179
 30
0.0
  0
VERTEX
  5
26E62
  8
0
 10
505.80411940880259
 20
185.9871845146717
 30
0.0
  0
VERTEX
  5
26E63
  8
0
 10
505.95159748872902
 20
186.1050984093535
 30
0.0
  0
VERTEX
  5
26E64
  8
0
 10
506.10203031194521
 20
186.22176147039499
 30
0.0
  0
VERTEX
  5
26E65
  8
0
 10
506.17834483215057
 20
186.27961621580471
 30
0.0
  0
VERTEX
  5
26E66
  8
0
 10
506.25538605647148
 20
186.33714901934209
 30
0.0
  0
VERTEX
  5
26E67
  8
0
 10
506.41163228202498
 20
186.45123664755829
 30
0.0
  0
VERTEX
  5
26E68
  8
0
 10
506.57073593688102
 20
186.5640002213849
 30
0.0
  0
VERTEX
  5
26E69
  8
0
 10
506.73266336486603
 20
186.6754158872518
 30
0.0
  0
VERTEX
  5
26E6A
  8
0
 10
506.8973803124756
 20
186.7854600767177
 30
0.0
  0
VERTEX
  5
26E6B
  8
0
 10
507.0648519361219
 20
186.89410951145959
 30
0.0
  0
VERTEX
  5
26E6C
  8
0
 10
507.14960970329747
 20
186.94790400187409
 30
0.0
  0
VERTEX
  5
26E6D
  8
0
 10
507.23504280950277
 20
187.00134120819351
 30
0.0
  0
VERTEX
  5
26E6E
  8
0
 10
507.40791693109702
 20
187.1071324835402
 30
0.0
  0
VERTEX
  5
26E6F
  8
0
 10
507.58343773177933
 20
187.21146095882071
 30
0.0
  0
VERTEX
  5
26E70
  8
0
 10
507.6721790556237
 20
187.2630697375825
 30
0.0
  0
SEQEND
  5
26E71
  8
0
  0
LINE
  5
1A0B9
  8
0
 10
514.63637808470435
 20
246.74368873142069
 30
0.0
 11
514.6281413245174
 21
194.78825793566551
 31
0.0
  0
LINE
  5
1A0BB
  8
0
 10
503.38637808470429
 20
183.65875224088171
 30
0.0
 11
504.91962776953949
 21
185.1920019257177
 31
0.0
  0
LINE
  5
1A0BD
  8
0
 10
508.91962776953949
 20
185.1920019257177
 30
0.0
 11
504.38637808470429
 21
180.65875224088171
 31
0.0
  0
POLYLINE
  5
1A0BE
  8
0
 66
     1
 10
0.0
 20
0.0
 30
0.0
  0
VERTEX
  5
26E72
  8
0
 10
504.38637808470429
 20
180.65875224088171
 30
0.0
  0
VERTEX
  5
26E73
  8
0
 10
504.27649088986391
 20
180.54782136332409
 30
0.0
  0
VERTEX
  5
26E74
  8
0
 10
504.0583115853629
 20
180.3212930187328
 30
0.0
  0
VERTEX
  5
26E75
  8
0
 10
503.84230797027442
 20
180.08859357213441
 30
0.0
  0
VERTEX
  5
26E76
  8
0
 10
503.7351402498573
 20
179.9699492066238
 30
0.0
  0
VERTEX
  5
26E77
  8
0
 10
503.62853822148747
 20
179.84978569715531
 30
0.0
  0
VERTEX
  5
26E78
  8
0
 10
503.41705991423731
 20
179.60493371262419
 30
0.0
  0
VERTEX
  5
26E79
  8
0
 10
503.20793000659859
 20
179.35410356524511
 30
0.0
  0
VERTEX
  5
26E7A
  8
0
 10
503.00120482414439
 20
179.0973628118399
 30
0.0
  0
VERTEX
  5
26E7B
  8
0
 10
502.79694004477642
 20
178.8347806011507
 30
0.0
  0
VERTEX
  5
26E7C
  8
0
 10
502.59519068372828
 20
178.56642765521789
 30
0.0
  0
VERTEX
  5
26E7D
  8
0
 10
502.49527629248649
 20
178.43010968269121
 30
0.0
  0
VERTEX
  5
26E7E
  8
0
 10
502.39601107874898
 20
178.29237625032781
 30
0.0
  0
VERTEX
  5
26E7F
  8
0
 10
502.1994548754675
 20
178.0127001975525
 30
0.0
  0
VERTEX
  5
26E80
  8
0
 10
502.00557501294418
 20
177.7274748228665
 30
0.0
  0
VERTEX
  5
26E81
  8
0
 10
501.81442370941261
 20
177.43677694685809
 30
0.0
  0
VERTEX
  5
26E82
  8
0
 10
501.62605244821577
 20
177.1406848640417
 30
0.0
  0
VERTEX
  5
26E83
  8
0
 10
501.44051196393968
 20
176.8392783217696
 30
0.0
  0
VERTEX
  5
26E84
  8
0
 10
501.3488189095998
 20
176.6866074413665
 30
0.0
  0
VERTEX
  5
26E85
  8
0
 10
501.2578522287485
 20
176.53263849875111
 30
0.0
  0
VERTEX
  5
26E86
  8
0
 10
501.07812243892607
 20
176.22084798319241
 30
0.0
  0
VERTEX
  5
26E87
  8
0
 10
500.90137100162548
 20
175.90399075055029
 30
0.0
  0
VERTEX
  5
26E88
  8
0
 10
500.81412707341531
 20
175.7436887314206
 30
0.0
  0
SEQEND
  5
26E89
  8
0
  0
POLYLINE
  5
1A0BF
  8
0
 66
     1
 10
0.0
 20
0.0
 30
0.0
  0
VERTEX
  5
26E8A
  8
0
 10
498.20105003106181
 20
175.7436887314206
 30
0.0
  0
VERTEX
  5
26E8B
  8
0
 10
498.31879926086452
 20
176.0091163862671
 30
0.0
  0
VERTEX
  5
26E8C
  8
0
 10
498.55933853804311
 20
176.53313436018649
 30
0.0
  0
VERTEX
  5
26E8D
  8
0
 10
498.80650078405358
 20
177.04782333522871
 30
0.0
  0
VERTEX
  5
26E8E
  8
0
 10
498.93252796767268
 20
177.30159080808789
 30
0.0
  0
VERTEX
  5
26E8F
  8
0
 10
499.06016543153339
 20
177.5529322427374
 30
0.0
  0
VERTEX
  5
26E90
  8
0
 10
499.32020874120559
 20
178.04821468727999
 30
0.0
  0
VERTEX
  5
26E91
  8
0
 10
499.58650386224031
 20
178.53342906683611
 30
0.0
  0
VERTEX
  5
26E92
  8
0
 10
499.85892089413289
 20
179.0083386906517
 30
0.0
  0
VERTEX
  5
26E93
  8
0
 10
500.13732695007087
 20
179.47271189470121
 30
0.0
  0
VERTEX
  5
26E94
  8
0
 10
500.42158622175617
 20
179.92632215469439
 30
0.0
  0
VERTEX
  5
26E95
  8
0
 10
500.565867590842
 20
180.14902182447071
 30
0.0
  0
VERTEX
  5
26E96
  8
0
 10
500.7115600456541
 20
180.36894819657391
 30
0.0
  0
VERTEX
  5
26E97
  8
0
 10
501.00710697063352
 20
180.80037410445851
 30
0.0
  0
VERTEX
  5
26E98
  8
0
 10
501.3080828269687
 20
181.22038942596279
 30
0.0
  0
VERTEX
  5
26E99
  8
0
 10
501.61434079666498
 20
181.62878927486139
 30
0.0
  0
VERTEX
  5
26E9A
  8
0
 10
501.92573148507847
 20
182.0253744310339
 30
0.0
  0
VERTEX
  5
26E9B
  8
0
 10
502.24210299379178
 20
182.40995143764121
 30
0.0
  0
VERTEX
  5
26E9C
  8
0
 10
502.40210842108991
 20
182.59767802877741
 30
0.0
  0
VERTEX
  5
26E9D
  8
0
 10
502.56330099471018
 20
182.78233269550219
 30
0.0
  0
VERTEX
  5
26E9E
  8
0
 10
502.88916880534492
 20
183.14233655459969
 30
0.0
  0
VERTEX
  5
26E9F
  8
0
 10
503.21954746524312
 20
183.48978740269101
 30
0.0
  0
VERTEX
  5
26EA0
  8
0
 10
503.38637808470429
 20
183.65875224088171
 30
0.0
  0
SEQEND
  5
26EA1
  8
0
  0
POLYLINE
  5
1A0C1
  8
0
 66
     1
 10
0.0
 20
0.0
 30
0.0
  0
VERTEX
  5
26EA2
  8
0
 10
500.81412707341531
 20
175.7436887314206
 30
0.0
  0
VERTEX
  5
26EA3
  8
0
 10
500.67822355799069
 20
175.496892198772
 30
0.0
  0
VERTEX
  5
26EA4
  8
0
 10
500.4008679621648
 20
175.02030402096531
 30
0.0
  0
VERTEX
  5
26EA5
  8
0
 10
500.11986332822892
 20
174.56784595708541
 30
0.0
  0
VERTEX
  5
26EA6
  8
0
 10
499.97933702191619
 20
174.3511963359569
 30
0.0
  0
VERTEX
  5
26EA7
  8
0
 10
499.83947677444638
 20
174.1412058600435
 30
0.0
  0
VERTEX
  5
26EA8
  8
0
 10
499.56367322578052
 20
173.74195812431481
 30
0.0
  0
VERTEX
  5
26EA9
  8
0
 10
499.2894665293087
 20
173.36255098790389
 30
0.0
  0
VERTEX
  5
26EAA
  8
0
 10
499.01437639137561
 20
172.99776518222191
 30
0.0
  0
VERTEX
  5
26EAB
  8
0
 10
498.74194521119472
 20
172.6510987512483
 30
0.0
  0
VERTEX
  5
26EAC
  8
0
 10
498.47559047879139
 20
172.3257691528633
 30
0.0
  0
VERTEX
  5
26EAD
  8
0
 10
498.34570975165792
 20
172.17203351368789
 30
0.0
  0
VERTEX
  5
26EAE
  8
0
 10
498.21854769823602
 20
172.02471678555861
 30
0.0
  0
VERTEX
  5
26EAF
  8
0
 10
497.97386157053381
 20
171.7506457037407
 30
0.0
  0
VERTEX
  5
26EB0
  8
0
 10
497.74431165829299
 20
171.5059708299332
 30
0.0
  0
VERTEX
  5
26EB1
  8
0
 10
497.5322296379735
 20
171.29265931335701
 30
0.0
  0
VERTEX
  5
26EB2
  8
0
 10
497.33977433402998
 20
171.11253980538271
 30
0.0
  0
VERTEX
  5
26EB3
  8
0
 10
497.16881368530159
 20
170.9671540983372
 30
0.0
  0
VERTEX
  5
26EB4
  8
0
 10
497.0918598791136
 20
170.90785010443679
 30
0.0
  0
VERTEX
  5
26EB5
  8
0
 10
497.07960217839798
 20
170.898845024255
 30
0.0
  0
VERTEX
  5
26EB6
  8
0
 10
497.05557883452718
 20
170.8815917728007
 30
0.0
  0
VERTEX
  5
26EB7
  8
0
 10
497.03221511828309
 20
170.86534999495319
 30
0.0
  0
VERTEX
  5
26EB8
  8
0
 10
497.02078187790443
 20
170.85760917657711
 30
0.0
  0
VERTEX
  5
26EB9
  8
0
 10
497.00951501255179
 20
170.850122103926
 30
0.0
  0
VERTEX
  5
26EBA
  8
0
 10
496.98748217048848
 20
170.83591015458481
 30
0.0
  0
VERTEX
  5
26EBB
  8
0
 10
496.96611990321162
 20
170.8227158285317
 30
0.0
  0
VERTEX
  5
26EBC
  8
0
 10
496.94543116844397
 20
170.81054042054799
 30
0.0
  0
VERTEX
  5
26EBD
  8
0
 10
496.9254185601406
 20
170.79938482645591
 30
0.0
  0
VERTEX
  5
26EBE
  8
0
 10
496.90608429913942
 20
170.78924953242949
 30
0.0
  0
VERTEX
  5
26EBF
  8
0
 10
496.89667213880358
 20
170.7845645355637
 30
0.0
  0
VERTEX
  5
26EC0
  8
0
 10
496.88743022487603
 20
170.7801346058049
 30
0.0
  0
VERTEX
  5
26EC1
  8
0
 10
496.86945778819461
 20
170.7720396874447
 30
0.0
  0
VERTEX
  5
26EC2
  8
0
 10
496.85216804528829
 20
170.76496398568901
 30
0.0
  0
VERTEX
  5
26EC3
  8
0
 10
496.83556165280271
 20
170.7589062719498
 30
0.0
  0
VERTEX
  5
26EC4
  8
0
 10
496.81963886412859
 20
170.75386487797269
 30
0.0
  0
VERTEX
  5
26EC5
  8
0
 10
496.80439952691262
 20
170.74983769484061
 30
0.0
  0
VERTEX
  5
26EC6
  8
0
 10
496.7970359937126
 20
170.7482036529581
 30
0.0
  0
VERTEX
  5
26EC7
  8
0
 10
496.7898430818102
 20
170.7468221737208
 30
0.0
  0
VERTEX
  5
26EC8
  8
0
 10
496.77596856250142
 20
170.74481532842759
 30
0.0
  0
VERTEX
  5
26EC9
  8
0
 10
496.76277459699139
 20
170.74381373982391
 30
0.0
  0
VERTEX
  5
26ECA
  8
0
 10
496.75643228284861
 20
170.7436887314206
 30
0.0
  0
SEQEND
  5
26ECB
  8
0
  0
POLYLINE
  5
1A0C2
  8
0
 66
     1
 10
0.0
 20
0.0
 30
0.0
  0
VERTEX
  5
26ECC
  8
0
 10
494.74262251357982
 20
170.7436887314206
 30
0.0
  0
VERTEX
  5
26ECD
  8
0
 10
494.77781856218689
 20
170.74804170972669
 30
0.0
  0
VERTEX
  5
26ECE
  8
0
 10
494.86403048719109
 20
170.7832041038036
 30
0.0
  0
VERTEX
  5
26ECF
  8
0
 10
494.97129645622459
 20
170.85410181597399
 30
0.0
  0
VERTEX
  5
26ED0
  8
0
 10
495.03270256295872
 20
170.9029958474402
 30
0.0
  0
VERTEX
  5
26ED1
  8
0
 10
495.09917264802698
 20
170.96081428589059
 30
0.0
  0
VERTEX
  5
26ED2
  8
0
 10
495.24680489891432
 20
171.10294123448961
 30
0.0
  0
VERTEX
  5
26ED3
  8
0
 10
495.41293062396312
 20
171.27962900835519
 30
0.0
  0
VERTEX
  5
26ED4
  8
0
 10
495.59588756376132
 20
171.48958133469841
 30
0.0
  0
VERTEX
  5
26ED5
  8
0
 10
495.79373682137611
 20
171.73119794542799
 30
0.0
  0
VERTEX
  5
26ED6
  8
0
 10
496.00436690767668
 20
172.00271595188769
 30
0.0
  0
VERTEX
  5
26ED7
  8
0
 10
496.1137009864712
 20
172.14900525851041
 30
0.0
  0
VERTEX
  5
26ED8
  8
0
 10
496.2252689790929
 20
172.3019084193019
 30
0.0
  0
VERTEX
  5
26ED9
  8
0
 10
496.45370046808478
 20
172.62623435240039
 30
0.0
  0
VERTEX
  5
26EDA
  8
0
 10
496.6867590303255
 20
172.97288859687339
 30
0.0
  0
VERTEX
  5
26EDB
  8
0
 10
496.92139987934559
 20
173.3387566406081
 30
0.0
  0
VERTEX
  5
26EDC
  8
0
 10
497.15449617385599
 20
173.72040751713209
 30
0.0
  0
VERTEX
  5
26EDD
  8
0
 10
497.38788764997668
 20
174.12289991024679
 30
0.0
  0
VERTEX
  5
26EDE
  8
0
 10
497.50576103164252
 20
174.33487412040719
 30
0.0
  0
VERTEX
  5
26EDF
  8
0
 10
497.62384075113403
 20
174.55374328828839
 30
0.0
  0
VERTEX
  5
26EE0
  8
0
 10
497.8587890577702
 20
175.01130185110651
 30
0.0
  0
VERTEX
  5
26EE1
  8
0
 10
498.08896613174448
 20
175.49374737076411
 30
0.0
  0
VERTEX
  5
26EE2
  8
0
 10
498.20105003106181
 20
175.7436887314206
 30
0.0
  0
SEQEND
  5
26EE3
  8
0
  0
LINE
  5
1A0C3
  8
0
 10
494.63637808470429
 20
170.7436887314206
 30
0.0
 11
496.75643228284861
 21
170.7436887314206
 31
0.0
  0
POLYLINE
  5
1A0C6
  8
0
 66
     1
 10
0.0
 20
0.0
 30
0.0
  0
VERTEX
  5
26EE4
  8
0
 10
511.26785714381788
 20
187.2630697375825
 30
0.0
  0
VERTEX
  5
26EE5
  8
0
 10
511.40192459486241
 20
187.38402928283449
 30
0.0
  0
VERTEX
  5
26EE6
  8
0
 10
511.66339872432337
 20
187.63311123850229
 30
0.0
  0
VERTEX
  5
26EE7
  8
0
 10
511.91570887815101
 20
187.89147169850361
 30
0.0
  0
VERTEX
  5
26EE8
  8
0
 10
512.03832416083333
 20
188.0240265379843
 30
0.0
  0
VERTEX
  5
26EE9
  8
0
 10
512.15852601730842
 20
188.15877373356579
 30
0.0
  0
VERTEX
  5
26EEA
  8
0
 10
512.39153348265074
 20
188.43466875365721
 30
0.0
  0
VERTEX
  5
26EEB
  8
0
 10
512.61442740788209
 20
188.7187969625902
 30
0.0
  0
VERTEX
  5
26EEC
  8
0
 10
512.82691711582845
 20
189.01078782723101
 30
0.0
  0
VERTEX
  5
26EED
  8
0
 10
513.02872549751214
 20
189.31026056071281
 30
0.0
  0
VERTEX
  5
26EEE
  8
0
 10
513.21958937353065
 20
189.61682461902359
 30
0.0
  0
VERTEX
  5
26EEF
  8
0
 10
513.31083877206333
 20
189.7726413071041
 30
0.0
  0
VERTEX
  5
26EF0
  8
0
 10
513.39925983727096
 20
189.93008021031619
 30
0.0
  0
VERTEX
  5
26EF1
  8
0
 10
513.5675025795091
 20
190.2496188162786
 30
0.0
  0
VERTEX
  5
26EF2
  8
0
 10
513.72409819397456
 20
190.5750237248885
 30
0.0
  0
VERTEX
  5
26EF3
  8
0
 10
513.8688424634795
 20
190.9058705738407
 30
0.0
  0
VERTEX
  5
26EF4
  8
0
 10
514.00154662623902
 20
191.2417279039727
 30
0.0
  0
VERTEX
  5
26EF5
  8
0
 10
514.12203762203615
 20
191.58215772192119
 30
0.0
  0
VERTEX
  5
26EF6
  8
0
 10
514.17765345036935
 20
191.75394879461049
 30
0.0
  0
VERTEX
  5
26EF7
  8
0
 10
514.2301583179119
 20
191.92671607131979
 30
0.0
  0
VERTEX
  5
26EF8
  8
0
 10
514.32576771308152
 20
192.2749536117598
 30
0.0
  0
VERTEX
  5
26EF9
  8
0
 10
514.4087411228154
 20
192.62641620478189
 30
0.0
  0
VERTEX
  5
26EFA
  8
0
 10
514.44545487104256
 20
192.80321381140669
 30
0.0
  0
SEQEND
  5
26EFB
  8
0
  0
POLYLINE
  5
1A0C7
  8
0
 66
     1
 10
0.0
 20
0.0
 30
0.0
  0
VERTEX
  5
26EFC
  8
0
 10
514.44545487104256
 20
192.80321381140669
 30
0.0
  0
VERTEX
  5
26EFD
  8
0
 10
514.46385753865013
 20
192.89975468992449
 30
0.0
  0
VERTEX
  5
26EFE
  8
0
 10
514.4973531878336
 20
193.0980907975372
 30
0.0
  0
VERTEX
  5
26EFF
  8
0
 10
514.52658492066007
 20
193.30328372394521
 30
0.0
  0
VERTEX
  5
26F00
  8
0
 10
514.5396631072125
 20
193.40838904401241
 30
0.0
  0
SEQEND
  5
26F01
  8
0
  0
LINE
  5
1A0CE
  8
0
 10
465.13027760461551
 20
237.74368873142069
 30
0.0
 11
479.14247856479312
 21
237.74368873142069
 31
0.0
  0
POLYLINE
  5
1A0CF
  8
0
 66
     1
 10
0.0
 20
0.0
 30
0.0
  0
VERTEX
  5
26F02
  8
0
 10
461.95820034998729
 20
239.76452481532851
 30
0.0
  0
VERTEX
  5
26F03
  8
0
 10
461.96601285325892
 20
239.74788507340961
 30
0.0
  0
VERTEX
  5
26F04
  8
0
 10
461.98189950059151
 20
239.71472983265991
 30
0.0
  0
VERTEX
  5
26F05
  8
0
 10
461.99813353753621
 20
239.6817432960552
 30
0.0
  0
VERTEX
  5
26F06
  8
0
 10
462.00638026883883
 20
239.66531442995529
 30
0.0
  0
VERTEX
  5
26F07
  8
0
 10
462.01471317284148
 20
239.6489291033067
 30
0.0
  0
VERTEX
  5
26F08
  8
0
 10
462.03163657712361
 20
239.6162908751048
 30
0.0
  0
VERTEX
  5
26F09
  8
0
 10
462.04890188306678
 20
239.5838322127274
 30
0.0
  0
VERTEX
  5
26F0A
  8
0
 10
462.06650718563088
 20
239.55155669763829
 30
0.0
  0
VERTEX
  5
26F0B
  8
0
 10
462.08445054226007
 20
239.519467891093
 30
0.0
  0
VERTEX
  5
26F0C
  8
0
 10
462.10272997309841
 20
239.4875693337444
 30
0.0
  0
VERTEX
  5
26F0D
  8
0
 10
462.11199508749519
 20
239.47169249924539
 30
0.0
  0
VERTEX
  5
26F0E
  8
0
 10
462.12134346120752
 20
239.4558645452571
 30
0.0
  0
VERTEX
  5
26F0F
  8
0
 10
462.14028895278938
 20
239.4243570239114
 30
0.0
  0
VERTEX
  5
26F10
  8
0
 10
462.15956435741327
 20
239.3930502462226
 30
0.0
  0
VERTEX
  5
26F11
  8
0
 10
462.22959530693657
 20
239.2851070486895
 30
0.0
  0
VERTEX
  5
26F12
  8
0
 10
462.29274581951978
 20
239.19468571322611
 30
0.0
  0
VERTEX
  5
26F13
  8
0
 10
462.35871394444882
 20
239.10629899680501
 30
0.0
  0
VERTEX
  5
26F14
  8
0
 10
462.49883827843911
 20
238.93597837857129
 30
0.0
  0
VERTEX
  5
26F15
  8
0
 10
462.64941188441998
 20
238.77482152592799
 30
0.0
  0
VERTEX
  5
26F16
  8
0
 10
462.80983684453417
 20
238.62346838210851
 30
0.0
  0
VERTEX
  5
26F17
  8
0
 10
462.97947612184697
 20
238.48251996046201
 30
0.0
  0
VERTEX
  5
26F18
  8
0
 10
463.15765608997771
 20
238.35253595787441
 30
0.0
  0
VERTEX
  5
26F19
  8
0
 10
463.24972897540169
 20
238.29181867107579
 30
0.0
  0
VERTEX
  5
26F1A
  8
0
 10
463.34366920802597
 20
238.23403253224569
 30
0.0
  0
VERTEX
  5
26F1B
  8
0
 10
463.5367768301698
 20
238.1274802528624
 30
0.0
  0
VERTEX
  5
26F1C
  8
0
 10
463.73621213877931
 20
238.03330223179819
 30
0.0
  0
VERTEX
  5
26F1D
  8
0
 10
463.941183189399
 20
237.9518724437612
 30
0.0
  0
VERTEX
  5
26F1E
  8
0
 10
464.15087605550713
 20
237.8835142410708
 30
0.0
  0
VERTEX
  5
26F1F
  8
0
 10
464.36445806056389
 20
237.82849906963841
 30
0.0
  0
VERTEX
  5
26F20
  8
0
 10
464.47244296421519
 20
237.80606548477411
 30
0.0
  0
VERTEX
  5
26F21
  8
0
 10
464.58108108451552
 20
237.78704539108179
 30
0.0
  0
VERTEX
  5
26F22
  8
0
 10
464.79988493162273
 20
237.7593178152247
 30
0.0
  0
VERTEX
  5
26F23
  8
0
 10
465.02000074624112
 20
237.7454264464422
 30
0.0
  0
VERTEX
  5
26F24
  8
0
 10
465.13027760461551
 20
237.74368873142069
 30
0.0
  0
SEQEND
  5
26F25
  8
0
  0
LINE
  5
1A0D0
  8
0
 10
460.04023437404811
 20
243.8776161240321
 30
0.0
 11
461.95820034998729
 21
239.76452481532851
 31
0.0
  0
POLYLINE
  5
1A0D1
  8
0
 66
     1
 10
0.0
 20
0.0
 30
0.0
  0
VERTEX
  5
26F26
  8
0
 10
458.68077269349322
 20
244.74368873142069
 30
0.0
  0
VERTEX
  5
26F27
  8
0
 10
458.69404919482429
 20
244.74362997510801
 30
0.0
  0
VERTEX
  5
26F28
  8
0
 10
458.72592604753191
 20
244.7430089689351
 30
0.0
  0
VERTEX
  5
26F29
  8
0
 10
458.76489475756358
 20
244.74132803323479
 30
0.0
  0
VERTEX
  5
26F2A
  8
0
 10
458.78702003947109
 20
244.73992116706449
 30
0.0
  0
VERTEX
  5
26F2B
  8
0
 10
458.81088743131988
 20
244.73803479408519
 30
0.0
  0
VERTEX
  5
26F2C
  8
0
 10
458.86376744083088
 20
244.73248452750801
 30
0.0
  0
VERTEX
  5
26F2D
  8
0
 10
458.92333061072941
 20
244.723947376654
 30
0.0
  0
VERTEX
  5
26F2E
  8
0
 10
458.98930068796511
 20
244.71161600367489
 30
0.0
  0
VERTEX
  5
26F2F
  8
0
 10
459.06133860196229
 20
244.69460898743449
 30
0.0
  0
VERTEX
  5
26F30
  8
0
 10
459.13905265073532
 20
244.67196723395139
 30
0.0
  0
VERTEX
  5
26F31
  8
0
 10
459.17989871802212
 20
244.6582109870387
 30
0.0
  0
VERTEX
  5
26F32
  8
0
 10
459.2219884140103
 20
244.64264746700431
 30
0.0
  0
VERTEX
  5
26F33
  8
0
 10
459.30962430495242
 20
244.60550577154211
 30
0.0
  0
VERTEX
  5
26F34
  8
0
 10
459.40135382632189
 20
244.55927332809731
 30
0.0
  0
VERTEX
  5
26F35
  8
0
 10
459.49652100481529
 20
244.5024796960279
 30
0.0
  0
VERTEX
  5
26F36
  8
0
 10
459.55333105678562
 20
244.46378786782321
 30
0.0
  0
VERTEX
  5
26F37
  8
0
 10
459.56970784229782
 20
244.45190820702101
 30
0.0
  0
VERTEX
  5
26F38
  8
0
 10
459.58614175255462
 20
244.4396431063424
 30
0.0
  0
VERTEX
  5
26F39
  8
0
 10
459.59437881064758
 20
244.43336257861569
 30
0.0
  0
VERTEX
  5
26F3A
  8
0
 10
459.60262855215552
 20
244.4269814998643
 30
0.0
  0
VERTEX
  5
26F3B
  8
0
 10
459.6191638766939
 20
244.4139117816521
 30
0.0
  0
VERTEX
  5
26F3C
  8
0
 10
459.6357432057971
 20
244.4004217691745
 30
0.0
  0
VERTEX
  5
26F3D
  8
0
 10
459.65236183089331
 20
244.38649866666219
 30
0.0
  0
VERTEX
  5
26F3E
  8
0
 10
459.66901481722329
 20
244.3721290288604
 30
0.0
  0
VERTEX
  5
26F3F
  8
0
 10
459.68569695962009
 20
244.3572987256957
 30
0.0
  0
VERTEX
  5
26F40
  8
0
 10
459.69404725140231
 20
244.34970621333281
 30
0.0
  0
VERTEX
  5
26F41
  8
0
 10
459.70240273158691
 20
244.34199290844299
 30
0.0
  0
VERTEX
  5
26F42
  8
0
 10
459.71912622723329
 20
244.32619597803389
 30
0.0
  0
VERTEX
  5
26F43
  8
0
 10
459.7359077457499
 20
244.30984539040671
 30
0.0
  0
VERTEX
  5
26F44
  8
0
 10
459.74438091840921
 20
244.30139263322511
 30
0.0
  0
VERTEX
  5
26F45
  8
0
 10
459.75290824387321
 20
244.2927480060153
 30
0.0
  0
VERTEX
  5
26F46
  8
0
 10
459.77010286013137
 20
244.27488211195219
 30
0.0
  0
VERTEX
  5
26F47
  8
0
 10
459.78744592875648
 20
244.25624705090291
 30
0.0
  0
VERTEX
  5
26F48
  8
0
 10
459.79615859341379
 20
244.24664151907291
 30
0.0
  0
VERTEX
  5
26F49
  8
0
 10
459.80489082014333
 20
244.23684452853291
 30
0.0
  0
VERTEX
  5
26F4A
  8
0
 10
459.82239013799159
 20
244.21667876755509
 30
0.0
  0
VERTEX
  5
26F4B
  8
0
 10
459.8398959468401
 20
244.19575663002431
 30
0.0
  0
VERTEX
  5
26F4C
  8
0
 10
459.85736003305612
 20
244.17408769551091
 30
0.0
  0
VERTEX
  5
26F4D
  8
0
 10
459.87473420155618
 20
244.15168428056401
 30
0.0
  0
VERTEX
  5
26F4E
  8
0
 10
459.89197060952603
 20
244.1285613822574
 30
0.0
  0
VERTEX
  5
26F4F
  8
0
 10
459.90052238923403
 20
244.11673551123289
 30
0.0
  0
VERTEX
  5
26F50
  8
0
 10
459.90902213705579
 20
244.10473652590639
 30
0.0
  0
VERTEX
  5
26F51
  8
0
 10
459.92584317209099
 20
244.08022892969259
 30
0.0
  0
VERTEX
  5
26F52
  8
0
 10
459.94239019249272
 20
244.05505873716359
 30
0.0
  0
VERTEX
  5
26F53
  8
0
 10
459.95861792748832
 20
244.02925321506069
 30
0.0
  0
VERTEX
  5
26F54
  8
0
 10
459.97448149230991
 20
244.0028445414255
 30
0.0
  0
VERTEX
  5
26F55
  8
0
 10
459.98993716456278
 20
243.975869301833
 30
0.0
  0
VERTEX
  5
26F56
  8
0
 10
459.99749882403597
 20
243.96218180525369
 30
0.0
  0
VERTEX
  5
26F57
  8
0
 10
460.00494290696099
 20
243.94836826551
 30
0.0
  0
VERTEX
  5
26F58
  8
0
 10
460.01945889726312
 20
243.92038604029401
 30
0.0
  0
VERTEX
  5
26F59
  8
0
 10
460.0334480595078
 20
243.89197057921319
 30
0.0
  0
VERTEX
  5
26F5A
  8
0
 10
460.04023437404811
 20
243.8776161240321
 30
0.0
  0
SEQEND
  5
26F5B
  8
0
  0
POLYLINE
  5
1A0D2
  8
0
 66
     1
 10
0.0
 20
0.0
 30
0.0
  0
VERTEX
  5
26F5C
  8
0
 10
479.14247856479312
 20
237.74368873142069
 30
0.0
  0
VERTEX
  5
26F5D
  8
0
 10
479.25275542316763
 20
237.7454264464422
 30
0.0
  0
VERTEX
  5
26F5E
  8
0
 10
479.47287123778602
 20
237.7593178152247
 30
0.0
  0
VERTEX
  5
26F5F
  8
0
 10
479.69167508489312
 20
237.78704539108179
 30
0.0
  0
VERTEX
  5
26F60
  8
0
 10
479.80031320519362
 20
237.80606548477411
 30
0.0
  0
VERTEX
  5
26F61
  8
0
 10
479.9082981088448
 20
237.82849906963841
 30
0.0
  0
VERTEX
  5
26F62
  8
0
 10
480.12188011390163
 20
237.8835142410708
 30
0.0
  0
VERTEX
  5
26F63
  8
0
 10
480.3315729800097
 20
237.9518724437612
 30
0.0
  0
VERTEX
  5
26F64
  8
0
 10
480.53654403062939
 20
238.03330223179819
 30
0.0
  0
VERTEX
  5
26F65
  8
0
 10
480.73597933923878
 20
238.1274802528624
 30
0.0
  0
VERTEX
  5
26F66
  8
0
 10
480.92908696138272
 20
238.23403253224569
 30
0.0
  0
VERTEX
  5
26F67
  8
0
 10
481.023027194007
 20
238.29181867107579
 30
0.0
  0
VERTEX
  5
26F68
  8
0
 10
481.11510007943099
 20
238.35253595787441
 30
0.0
  0
VERTEX
  5
26F69
  8
0
 10
481.29328004756178
 20
238.48251996046201
 30
0.0
  0
VERTEX
  5
26F6A
  8
0
 10
481.46291932487452
 20
238.62346838210851
 30
0.0
  0
VERTEX
  5
26F6B
  8
0
 10
481.6233442849886
 20
238.77482152592799
 30
0.0
  0
VERTEX
  5
26F6C
  8
0
 10
481.77391789096959
 20
238.93597837857129
 30
0.0
  0
VERTEX
  5
26F6D
  8
0
 10
481.91404222495981
 20
239.10629899680501
 30
0.0
  0
VERTEX
  5
26F6E
  8
0
 10
481.98001034988891
 20
239.19468571322611
 30
0.0
  0
VERTEX
  5
26F6F
  8
0
 10
482.04316086247201
 20
239.2851070486895
 30
0.0
  0
VERTEX
  5
26F70
  8
0
 10
482.11319181199542
 20
239.3930502462226
 30
0.0
  0
VERTEX
  5
26F71
  8
0
 10
482.1324672166192
 20
239.4243570239114
 30
0.0
  0
VERTEX
  5
26F72
  8
0
 10
482.15141270820118
 20
239.4558645452571
 30
0.0
  0
VERTEX
  5
26F73
  8
0
 10
482.16076108191351
 20
239.47169249924539
 30
0.0
  0
VERTEX
  5
26F74
  8
0
 10
482.17002619631029
 20
239.4875693337444
 30
0.0
  0
VERTEX
  5
26F75
  8
0
 10
482.18830562714862
 20
239.519467891093
 30
0.0
  0
VERTEX
  5
26F76
  8
0
 10
482.20624898377793
 20
239.55155669763829
 30
0.0
  0
VERTEX
  5
26F77
  8
0
 10
482.2238542863418
 20
239.5838322127274
 30
0.0
  0
VERTEX
  5
26F78
  8
0
 10
482.24111959228509
 20
239.6162908751048
 30
0.0
  0
VERTEX
  5
26F79
  8
0
 10
482.2580429965671
 20
239.6489291033067
 30
0.0
  0
VERTEX
  5
26F7A
  8
0
 10
482.26637590056981
 20
239.66531442995529
 30
0.0
  0
VERTEX
  5
26F7B
  8
0
 10
482.27462263187249
 20
239.6817432960552
 30
0.0
  0
VERTEX
  5
26F7C
  8
0
 10
482.29085666881713
 20
239.71472983265991
 30
0.0
  0
VERTEX
  5
26F7D
  8
0
 10
482.30674331614972
 20
239.74788507340961
 30
0.0
  0
VERTEX
  5
26F7E
  8
0
 10
482.3145558194214
 20
239.76452481532851
 30
0.0
  0
SEQEND
  5
26F7F
  8
0
  0
LINE
  5
1A0D3
  8
0
 10
482.3145558194214
 20
239.76452481532851
 30
0.0
 11
484.23252179536058
 21
243.8776161240321
 31
0.0
  0
POLYLINE
  5
1A0D4
  8
0
 66
     1
 10
0.0
 20
0.0
 30
0.0
  0
VERTEX
  5
26F80
  8
0
 10
484.23252179536058
 20
243.8776161240321
 30
0.0
  0
VERTEX
  5
26F81
  8
0
 10
484.23930810990078
 20
243.89197057921319
 30
0.0
  0
VERTEX
  5
26F82
  8
0
 10
484.25329727214552
 20
243.92038604029401
 30
0.0
  0
VERTEX
  5
26F83
  8
0
 10
484.26781326244759
 20
243.94836826551
 30
0.0
  0
VERTEX
  5
26F84
  8
0
 10
484.27525734537272
 20
243.96218180525369
 30
0.0
  0
VERTEX
  5
26F85
  8
0
 10
484.28281900484592
 20
243.975869301833
 30
0.0
  0
VERTEX
  5
26F86
  8
0
 10
484.29827467709868
 20
244.0028445414255
 30
0.0
  0
VERTEX
  5
26F87
  8
0
 10
484.31413824192032
 20
244.02925321506069
 30
0.0
  0
VERTEX
  5
26F88
  8
0
 10
484.33036597691603
 20
244.05505873716359
 30
0.0
  0
VERTEX
  5
26F89
  8
0
 10
484.3469129973177
 20
244.08022892969259
 30
0.0
  0
VERTEX
  5
26F8A
  8
0
 10
484.36373403235268
 20
244.10473652590639
 30
0.0
  0
VERTEX
  5
26F8B
  8
0
 10
484.37223378017472
 20
244.11673551123289
 30
0.0
  0
VERTEX
  5
26F8C
  8
0
 10
484.38078555988272
 20
244.1285613822574
 30
0.0
  0
VERTEX
  5
26F8D
  8
0
 10
484.3980219678524
 20
244.15168428056401
 30
0.0
  0
VERTEX
  5
26F8E
  8
0
 10
484.41539613635263
 20
244.17408769551091
 30
0.0
  0
VERTEX
  5
26F8F
  8
0
 10
484.43286022256871
 20
244.19575663002431
 30
0.0
  0
VERTEX
  5
26F90
  8
0
 10
484.4503660314171
 20
244.21667876755509
 30
0.0
  0
VERTEX
  5
26F91
  8
0
 10
484.46786534926531
 20
244.23684452853291
 30
0.0
  0
VERTEX
  5
26F92
  8
0
 10
484.4765975759949
 20
244.24664151907291
 30
0.0
  0
VERTEX
  5
26F93
  8
0
 10
484.48531024065221
 20
244.25624705090291
 30
0.0
  0
VERTEX
  5
26F94
  8
0
 10
484.50265330927732
 20
244.27488211195219
 30
0.0
  0
VERTEX
  5
26F95
  8
0
 10
484.5198479255356
 20
244.2927480060153
 30
0.0
  0
VERTEX
  5
26F96
  8
0
 10
484.52837525099937
 20
244.30139263322511
 30
0.0
  0
VERTEX
  5
26F97
  8
0
 10
484.53684842365868
 20
244.30984539040671
 30
0.0
  0
VERTEX
  5
26F98
  8
0
 10
484.55362994217529
 20
244.32619597803389
 30
0.0
  0
VERTEX
  5
26F99
  8
0
 10
484.57035343782172
 20
244.34199290844299
 30
0.0
  0
VERTEX
  5
26F9A
  8
0
 10
484.57870891800638
 20
244.34970621333281
 30
0.0
  0
VERTEX
  5
26F9B
  8
0
 10
484.58705920978849
 20
244.3572987256957
 30
0.0
  0
VERTEX
  5
26F9C
  8
0
 10
484.60374135218541
 20
244.3721290288604
 30
0.0
  0
VERTEX
  5
26F9D
  8
0
 10
484.62039433851538
 20
244.38649866666219
 30
0.0
  0
VERTEX
  5
26F9E
  8
0
 10
484.6370129636116
 20
244.4004217691745
 30
0.0
  0
VERTEX
  5
26F9F
  8
0
 10
484.65359229271479
 20
244.4139117816521
 30
0.0
  0
VERTEX
  5
26FA0
  8
0
 10
484.67012761725317
 20
244.4269814998643
 30
0.0
  0
VERTEX
  5
26FA1
  8
0
 10
484.67837735876122
 20
244.43336257861569
 30
0.0
  0
VERTEX
  5
26FA2
  8
0
 10
484.68661441685401
 20
244.4396431063424
 30
0.0
  0
VERTEX
  5
26FA3
  8
0
 10
484.70304832711082
 20
244.45190820702101
 30
0.0
  0
VERTEX
  5
26FA4
  8
0
 10
484.71942511262313
 20
244.46378786782321
 30
0.0
  0
VERTEX
  5
26FA5
  8
0
 10
484.7762351645934
 20
244.5024796960279
 30
0.0
  0
VERTEX
  5
26FA6
  8
0
 10
484.8714023430868
 20
244.55927332809731
 30
0.0
  0
VERTEX
  5
26FA7
  8
0
 10
484.96313186445622
 20
244.60550577154211
 30
0.0
  0
VERTEX
  5
26FA8
  8
0
 10
485.0507677553984
 20
244.64264746700431
 30
0.0
  0
VERTEX
  5
26FA9
  8
0
 10
485.09285745138658
 20
244.6582109870387
 30
0.0
  0
VERTEX
  5
26FAA
  8
0
 10
485.13370351867343
 20
244.67196723395139
 30
0.0
  0
VERTEX
  5
26FAB
  8
0
 10
485.2114175674464
 20
244.69460898743449
 30
0.0
  0
VERTEX
  5
26FAC
  8
0
 10
485.28345548144358
 20
244.71161600367489
 30
0.0
  0
VERTEX
  5
26FAD
  8
0
 10
485.34942555867929
 20
244.723947376654
 30
0.0
  0
VERTEX
  5
26FAE
  8
0
 10
485.40898872857781
 20
244.73248452750801
 30
0.0
  0
VERTEX
  5
26FAF
  8
0
 10
485.46186873808881
 20
244.73803479408519
 30
0.0
  0
VERTEX
  5
26FB0
  8
0
 10
485.48573612993749
 20
244.73992116706449
 30
0.0
  0
VERTEX
  5
26FB1
  8
0
 10
485.50786141184511
 20
244.74132803323479
 30
0.0
  0
VERTEX
  5
26FB2
  8
0
 10
485.54683012187678
 20
244.7430089689351
 30
0.0
  0
VERTEX
  5
26FB3
  8
0
 10
485.57870697458441
 20
244.74362997510801
 30
0.0
  0
VERTEX
  5
26FB4
  8
0
 10
485.59198347591558
 20
244.74368873142069
 30
0.0
  0
SEQEND
  5
26FB5
  8
0
  0
LINE
  5
1A0D5
  8
0
 10
429.63637808470429
 20
246.74368873142069
 30
0.0
 11
514.63637808470435
 21
246.74368873142069
 31
0.0
  0
LINE
  5
1A0E7
  8
0
 10
474.63637808470429
 20
219.74368873142069
 30
0.0
 11
469.63637808470429
 21
219.74368873142069
 31
0.0
  0
LINE
  5
1A0E8
  8
0
 10
469.63637808470429
 20
139.7436887314206
 30
0.0
 11
474.63637808470429
 21
139.7436887314206
 31
0.0
  0
ARC
  5
1A0E9
  8
0
 10
474.63637808470429
 20
139.9936887314206
 30
0.0
 40
0.2499999999999929
 50
270.0
 51
0.0
  0
ARC
  5
1A0EA
  8
0
 10
474.63637808470429
 20
219.49368873142069
 30
0.0
 40
0.249999999999996
 50
0.0
 51
90.0
  0
LINE
  5
1A0EB
  8
0
 10
476.88637808470429
 20
219.49368873142069
 30
0.0
 11
474.88637808470429
 21
219.49368873142069
 31
0.0
  0
LINE
  5
1A0EC
  8
0
 10
474.88637808470429
 20
139.9936887314206
 30
0.0
 11
476.88637808470429
 21
139.9936887314206
 31
0.0
  0
ARC
  5
1A0ED
  8
0
 10
477.13637808470429
 20
139.9936887314206
 30
0.0
 40
0.2499999999999973
 50
180.0
 51
270.0
  0
ARC
  5
1A0EE
  8
0
 10
477.13637808470429
 20
219.49368873142069
 30
0.0
 40
0.2499999999999929
 50
90.0
 51
180.0
  0
LINE
  5
1A0EF
  8
0
 10
478.5327253821556
 20
219.74368873142069
 30
0.0
 11
477.13637808470429
 21
219.74368873142069
 31
0.0
  0
LINE
  5
1A0F0
  8
0
 10
477.13637808470429
 20
139.7436887314206
 30
0.0
 11
478.5327253821556
 21
139.7436887314206
 31
0.0
  0
ARC
  5
1A0F1
  8
0
 10
478.53272538215549
 20
140.5770220647546
 30
0.0
 40
0.8333333333333499
 50
270.0
 51
341.00000000001182
  0
ARC
  5
1A0F2
  8
0
 10
478.53272538215549
 20
218.9103553980876
 30
0.0
 40
0.8333333333333488
 50
18.999999999988251
 51
90.0
  0
LINE
  5
1A0F3
  8
0
 10
480.07888695071858
 20
216.97960405765389
 30
0.0
 11
479.32065752848831
 21
219.18166219346861
 31
0.0
  0
LINE
  5
1A0F4
  8
0
 10
479.32065752848831
 20
140.30571526937359
 30
0.0
 11
480.07888695071858
 21
142.50777340518829
 31
0.0
  0
ARC
  5
1A0F5
  8
0
 10
477.7150905117204
 20
143.3216937913312
 30
0.0
 40
2.499999999999948
 50
341.00000000001182
 51
0.0
  0
ARC
  5
1A0F6
  8
0
 10
477.7150905117204
 20
216.1656836715101
 30
0.0
 40
2.4999999999999529
 50
0.0
 51
18.999999999988251
  0
ARC
  5
1A0F7
  8
0
 10
480.63175717838698
 20
144.11342513432641
 30
0.0
 40
0.4166666666666679
 50
180.0
 51
0.0
  0
ARC
  5
1A0F8
  8
0
 10
480.63175717838698
 20
215.3739523285158
 30
0.0
 40
0.4166666666666679
 50
0.0
 51
180.0
  0
ARC
  5
1A0F9
  8
0
 10
481.46509051172029
 20
146.5336008657232
 30
0.0
 40
0.4166666666666661
 50
180.0
 51
0.0
  0
ARC
  5
1A0FA
  8
0
 10
481.46509051172029
 20
212.953776597119
 30
0.0
 40
0.4166666666666661
 50
0.0
 51
180.0
  0
LINE
  5
1A0FB
  8
0
 10
484.50017452370258
 20
204.13925259486041
 30
0.0
 11
481.88175717838698
 21
211.74368873142069
 31
0.0
  0
LINE
  5
1A0FC
  8
0
 10
481.88175717838698
 20
147.7436887314206
 30
0.0
 11
484.50017452370258
 21
155.3481248679818
 31
0.0
  0
ARC
  5
1A0FD
  8
0
 10
482.13637808470429
 20
156.16204525412459
 30
0.0
 40
2.5000000000000342
 50
341.00000000001182
 51
0.0
  0
ARC
  5
1A0FE
  8
0
 10
482.13637808470429
 20
203.32533220871761
 30
0.0
 40
2.5000000000000329
 50
0.0
 51
18.999999999988251
  0
ARC
  5
1A0FF
  8
0
 10
462.1363780847044
 20
156.16204525412459
 30
0.0
 40
2.5000000000000919
 50
180.0
 51
198.9999999999882
  0
ARC
  5
1A100
  8
0
 10
462.1363780847044
 20
203.32533220871761
 30
0.0
 40
2.500000000000095
 50
161.00000000001171
 51
180.0
  0
LINE
  5
1A101
  8
0
 10
462.3909989910216
 20
211.74368873142069
 30
0.0
 11
459.772581645706
 21
204.13925259486041
 31
0.0
  0
LINE
  5
1A102
  8
0
 10
459.772581645706
 20
155.3481248679818
 30
0.0
 11
462.3909989910216
 21
147.7436887314206
 31
0.0
  0
ARC
  5
1A103
  8
0
 10
462.80766565768829
 20
146.5336008657232
 30
0.0
 40
0.4166666666666679
 50
180.0
 51
0.0
  0
ARC
  5
1A104
  8
0
 10
462.80766565768829
 20
212.953776597119
 30
0.0
 40
0.4166666666666679
 50
0.0
 51
180.0
  0
ARC
  5
1A105
  8
0
 10
463.64099899102172
 20
144.11342513432641
 30
0.0
 40
0.4166666666666661
 50
180.0
 51
0.0
  0
ARC
  5
1A106
  8
0
 10
463.64099899102172
 20
215.3739523285158
 30
0.0
 40
0.4166666666666661
 50
0.0
 51
180.0
  0
ARC
  5
1A107
  8
0
 10
466.55766565768852
 20
143.3216937913312
 30
0.0
 40
2.5000000000000879
 50
180.0
 51
198.9999999999882
  0
ARC
  5
1A108
  8
0
 10
466.5576656576884
 20
216.1656836715101
 30
0.0
 40
2.5000000000000111
 50
161.00000000001171
 51
180.0
  0
LINE
  5
1A109
  8
0
 10
464.95209864092038
 20
219.18166219346861
 30
0.0
 11
464.19386921869011
 21
216.97960405765389
 31
0.0
  0
LINE
  5
1A10A
  8
0
 10
464.19386921869011
 20
142.50777340518829
 30
0.0
 11
464.95209864092038
 21
140.30571526937359
 31
0.0
  0
ARC
  5
1A10B
  8
0
 10
465.74003078725309
 20
140.5770220647546
 30
0.0
 40
0.8333333333333431
 50
198.9999999999882
 51
270.0
  0
ARC
  5
1A10C
  8
0
 10
465.74003078725309
 20
218.9103553980876
 30
0.0
 40
0.8333333333333428
 50
90.0
 51
161.00000000001171
  0
LINE
  5
1A10D
  8
0
 10
467.13637808470429
 20
219.74368873142069
 30
0.0
 11
465.74003078725309
 21
219.74368873142069
 31
0.0
  0
LINE
  5
1A10E
  8
0
 10
465.74003078725309
 20
139.7436887314206
 30
0.0
 11
467.13637808470429
 21
139.7436887314206
 31
0.0
  0
ARC
  5
1A10F
  8
0
 10
467.13637808470429
 20
139.9936887314206
 30
0.0
 40
0.2499999999999929
 50
270.0
 51
0.0
  0
ARC
  5
1A110
  8
0
 10
467.13637808470429
 20
219.49368873142069
 30
0.0
 40
0.2499999999999947
 50
0.0
 51
90.0
  0
LINE
  5
1A111
  8
0
 10
469.38637808470429
 20
219.49368873142069
 30
0.0
 11
467.38637808470429
 21
219.49368873142069
 31
0.0
  0
LINE
  5
1A112
  8
0
 10
467.38637808470429
 20
139.9936887314206
 30
0.0
 11
469.38637808470429
 21
139.9936887314206
 31
0.0
  0
ARC
  5
1A113
  8
0
 10
469.63637808470429
 20
139.9936887314206
 30
0.0
 40
0.2499999999999964
 50
180.0
 51
270.0
  0
ARC
  5
1A114
  8
0
 10
469.63637808470429
 20
219.49368873142069
 30
0.0
 40
0.2499999999999929
 50
90.0
 51
180.0
  0
LINE
  5
1A116
  8
0
 10
474.88637808470429
 20
139.9936887314206
 30
0.0
 11
474.88637808470429
 21
219.49368873142069
 31
0.0
  0
LINE
  5
1A117
  8
0
 10
476.88637808470429
 20
139.9936887314206
 30
0.0
 11
476.88637808470429
 21
219.49368873142069
 31
0.0
  0
LINE
  5
1A11C
  8
0
 10
480.2150905117204
 20
143.3216937913312
 30
0.0
 11
480.2150905117204
 21
216.1656836715101
 31
0.0
  0
LINE
  5
1A11D
  8
0
 10
481.04842384505372
 20
144.11342513432641
 30
0.0
 11
481.04842384505372
 21
215.3739523285158
 31
0.0
  0
LINE
  5
1A11E
  8
0
 10
481.88175717838698
 20
146.5336008657232
 30
0.0
 11
481.88175717838698
 21
212.953776597119
 31
0.0
  0
LINE
  5
1A120
  8
0
 10
484.63637808470429
 20
156.16204525412459
 30
0.0
 11
484.63637808470429
 21
203.32533220871761
 31
0.0
  0
LINE
  5
1A122
  8
0
 10
462.3909989910216
 20
146.5336008657232
 30
0.0
 11
462.3909989910216
 21
212.953776597119
 31
0.0
  0
LINE
  5
1A123
  8
0
 10
463.22433232435498
 20
144.11342513432641
 30
0.0
 11
463.22433232435498
 21
215.3739523285158
 31
0.0
  0
LINE
  5
1A124
  8
0
 10
464.05766565768829
 20
143.3216937913312
 30
0.0
 11
464.05766565768829
 21
216.1656836715101
 31
0.0
  0
LINE
  5
1A129
  8
0
 10
467.38637808470429
 20
139.9936887314206
 30
0.0
 11
467.38637808470429
 21
219.49368873142069
 31
0.0
  0
LINE
  5
1A12B
  8
0
 10
469.38637808470429
 20
139.9936887314206
 30
0.0
 11
469.38637808470429
 21
219.49368873142069
 31
0.0
  0
LINE
  5
1A12C
  8
0
 10
459.63637808470429
 20
156.16204525412459
 30
0.0
 11
459.63637808470429
 21
203.32533220871761
 31
0.0
  0
LINE
  5
1A13B
  8
0
 10
360.95048305371643
 20
246.74368873142069
 30
0.0
 11
360.95048305371643
 21
244.74368873142069
 31
0.0
  0
LINE
  5
1A13C
  8
0
 10
356.2613721861718
 20
246.74368873142069
 30
0.0
 11
356.2613721861718
 21
244.52782015665889
 31
0.0
  0
LINE
  5
1A13E
  8
0
 10
333.7060365531816
 20
246.74368873142069
 30
0.0
 11
333.7060365531816
 21
185.84852554718421
 31
0.0
  0
LINE
  5
1A13F
  8
0
 10
330.67494763993602
 20
246.74368873142069
 30
0.0
 11
330.67494763993602
 21
180.65875224088171
 31
0.0
  0
LINE
  5
1A142
  8
0
 10
291.22601846749677
 20
246.74368873142069
 30
0.0
 11
291.22601846749677
 21
180.65875224088171
 31
0.0
  0
LINE
  5
1A143
  8
0
 10
288.1949295542513
 20
246.74368873142069
 30
0.0
 11
288.1949295542513
 21
185.84852554718421
 31
0.0
  0
LINE
  5
1A145
  8
0
 10
265.63959392126111
 20
246.74368873142069
 30
0.0
 11
265.63959392126111
 21
244.52782015665889
 31
0.0
  0
LINE
  5
1A146
  8
0
 10
260.95048305371643
 20
246.74368873142069
 30
0.0
 11
260.95048305371643
 21
244.74368873142069
 31
0.0
  0
LINE
  5
1A147
  8
0
 10
260.95048305371643
 20
244.74368873142069
 30
0.0
 11
265.63959392126111
 21
244.74368873142069
 31
0.0
  0
LINE
  5
1A148
  8
0
 10
356.2613721861718
 20
244.74368873142069
 30
0.0
 11
360.95048305371643
 21
244.74368873142069
 31
0.0
  0
LINE
  5
1A149
  8
0
 10
346.02997497802761
 20
227.4569416589766
 30
0.0
 11
355.43313278452689
 21
243.7436887314206
 31
0.0
  0
ARC
  5
1A14A
  8
0
 10
363.35048305371629
 20
217.4569416589766
 30
0.0
 40
19.999999999999879
 50
149.9999999999998
 51
180.0
  0
LINE
  5
1A14B
  8
0
 10
343.3504830537164
 20
199.8742816232716
 30
0.0
 11
343.3504830537164
 21
217.4569416589766
 31
0.0
  0
POLYLINE
  5
1A14C
  8
0
 66
     1
 10
0.0
 20
0.0
 30
0.0
  0
VERTEX
  5
26FB6
  8
0
 10
340.42155086558188
 20
192.80321381140581
 30
0.0
  0
VERTEX
  5
26FB7
  8
0
 10
340.48513806545759
 20
192.8673780372765
 30
0.0
  0
VERTEX
  5
26FB8
  8
0
 10
340.611164407351
 20
192.9980540033493
 30
0.0
  0
VERTEX
  5
26FB9
  8
0
 10
340.73554855618568
 20
193.13181860711481
 30
0.0
  0
VERTEX
  5
26FBA
  8
0
 10
340.79708354375668
 20
193.1998422354481
 30
0.0
  0
VERTEX
  5
26FBB
  8
0
 10
340.8581588120461
 20
193.26861703083341
 30
0.0
  0
VERTEX
  5
26FBC
  8
0
 10
340.97886644428019
 20
193.40838904400789
 30
0.0
  0
VERTEX
  5
26FBD
  8
0
 10
341.0975463158253
 20
193.55106955875181
 30
0.0
  0
VERTEX
  5
26FBE
  8
0
 10
341.21407741899537
 20
193.69658920147231
 30
0.0
  0
VERTEX
  5
26FBF
  8
0
 10
341.328343327906
 20
193.84487489909861
 30
0.0
  0
VERTEX
  5
26FC0
  8
0
 10
341.44023257267412
 20
193.99585047878011
 30
0.0
  0
VERTEX
  5
26FC1
  8
0
 10
341.49525254229502
 20
194.07232247330191
 30
0.0
  0
VERTEX
  5
26FC2
  8
0
 10
341.54963894028862
 20
194.14943728061101
 30
0.0
  0
VERTEX
  5
26FC3
  8
0
 10
341.6564618802397
 20
194.3055550423241
 30
0.0
  0
VERTEX
  5
26FC4
  8
0
 10
341.76060704485559
 20
194.46412317331209
 30
0.0
  0
VERTEX
  5
26FC5
  8
0
 10
341.86198211819902
 20
194.6250546634883
 30
0.0
  0
VERTEX
  5
26FC6
  8
0
 10
341.9604983294945
 20
194.78825793566739
 30
0.0
  0
VERTEX
  5
26FC7
  8
0
 10
342.05607125364662
 20
194.95363795671349
 30
0.0
  0
VERTEX
  5
26FC8
  8
0
 10
342.10272886027582
 20
195.0371137182301
 30
0.0
  0
VERTEX
  5
26FC9
  8
0
 10
342.14862109890203
 20
195.12109669757589
 30
0.0
  0
VERTEX
  5
26FCA
  8
0
 10
342.23807294601369
 20
195.29053360376469
 30
0.0
  0
VERTEX
  5
26FCB
  8
0
 10
342.32435694232032
 20
195.4618460791034
 30
0.0
  0
VERTEX
  5
26FCC
  8
0
 10
342.36629059102597
 20
195.54817315835859
 30
0.0
  0
SEQEND
  5
26FCD
  8
0
  0
ARC
  5
1A14D
  8
0
 10
333.35048305371652
 20
199.8742816232716
 30
0.0
 40
9.9999999999998952
 50
334.36663451367372
 51
0.0
  0
LINE
  5
1A14E
  8
0
 10
334.88140679175831
 20
187.2630697375825
 30
0.0
 11
340.42155086558188
 21
192.80321381140581
 31
0.0
  0
POLYLINE
  5
1A14F
  8
0
 66
     1
 10
0.0
 20
0.0
 30
0.0
  0
VERTEX
  5
26FCE
  8
0
 10
333.29222056577947
 20
185.1920019257168
 30
0.0
  0
VERTEX
  5
26FCF
  8
0
 10
333.35763131875871
 20
185.3036228925539
 30
0.0
  0
VERTEX
  5
26FD0
  8
0
 10
333.49275740040599
 20
185.52427956679909
 30
0.0
  0
VERTEX
  5
26FD1
  8
0
 10
333.63354712955061
 20
185.74136636510141
 30
0.0
  0
VERTEX
  5
26FD2
  8
0
 10
333.7060365531816
 20
185.84852554718421
 30
0.0
  0
SEQEND
  5
26FD3
  8
0
  0
POLYLINE
  5
1A150
  8
0
 66
     1
 10
0.0
 20
0.0
 30
0.0
  0
VERTEX
  5
26FD4
  8
0
 10
333.7060365531816
 20
185.84852554718421
 30
0.0
  0
VERTEX
  5
26FD5
  8
0
 10
333.87444963972757
 20
186.08653436541681
 30
0.0
  0
VERTEX
  5
26FD6
  8
0
 10
334.24447144799473
 20
186.56277011745081
 30
0.0
  0
VERTEX
  5
26FD7
  8
0
 10
334.65835375187311
 20
187.03274757221331
 30
0.0
  0
VERTEX
  5
26FD8
  8
0
 10
334.88140679175831
 20
187.2630697375825
 30
0.0
  0
SEQEND
  5
26FD9
  8
0
  0
LINE
  5
1A151
  8
0
 10
327.83723439966462
 20
175.7436887314206
 30
0.0
 11
333.29222056577947
 21
185.1920019257168
 31
0.0
  0
POLYLINE
  5
1A152
  8
0
 66
     1
 10
0.0
 20
0.0
 30
0.0
  0
VERTEX
  5
26FDA
  8
0
 10
319.1769803618202
 20
170.7436887314206
 30
0.0
  0
VERTEX
  5
26FDB
  8
0
 10
319.22698188618688
 20
170.74381373982391
 30
0.0
  0
VERTEX
  5
26FDC
  8
0
 10
319.32708256337679
 20
170.74481532842759
 30
0.0
  0
VERTEX
  5
26FDD
  8
0
 10
319.42729821481993
 20
170.74682217371989
 30
0.0
  0
VERTEX
  5
26FDE
  8
0
 10
319.47744341481882
 20
170.7482036529573
 30
0.0
  0
VERTEX
  5
26FDF
  8
0
 10
319.52761044986568
 20
170.74983769484061
 30
0.0
  0
VERTEX
  5
26FE0
  8
0
 10
319.62800073506452
 20
170.75386487797269
 30
0.0
  0
VERTEX
  5
26FE1
  8
0
 10
319.72845043084249
 20
170.75890627194889
 30
0.0
  0
VERTEX
  5
26FE2
  8
0
 10
319.82894082758799
 20
170.76496398568901
 30
0.0
  0
VERTEX
  5
26FE3
  8
0
 10
319.92945318110498
 20
170.77203968744379
 30
0.0
  0
VERTEX
  5
26FE4
  8
0
 10
320.02996874739051
 20
170.7801346058049
 30
0.0
  0
VERTEX
  5
26FE5
  8
0
 10
320.0802218862712
 20
170.7845645355637
 30
0.0
  0
VERTEX
  5
26FE6
  8
0
 10
320.13046881669698
 20
170.78924953242949
 30
0.0
  0
VERTEX
  5
26FE7
  8
0
 10
320.2309347468406
 20
170.79938482645591
 30
0.0
  0
VERTEX
  5
26FE8
  8
0
 10
320.3313479957211
 20
170.81054042054711
 30
0.0
  0
VERTEX
  5
26FE9
  8
0
 10
320.43169015301959
 20
170.82271582853079
 30
0.0
  0
VERTEX
  5
26FEA
  8
0
 10
320.53194297104312
 20
170.83591015458481
 30
0.0
  0
VERTEX
  5
26FEB
  8
0
 10
320.63208839468638
 20
170.850122103925
 30
0.0
  0
VERTEX
  5
26FEC
  8
0
 10
320.68211525122479
 20
170.85760917657711
 30
0.0
  0
VERTEX
  5
26FED
  8
0
 10
320.73210859048532
 20
170.86534999495231
 30
0.0
  0
VERTEX
  5
26FEE
  8
0
 10
320.83198597473432
 20
170.8815917728007
 30
0.0
  0
VERTEX
  5
26FEF
  8
0
 10
320.93170324064749
 20
170.898845024255
 30
0.0
  0
VERTEX
  5
26FF0
  8
0
 10
320.98149650304089
 20
170.90785010443679
 30
0.0
  0
VERTEX
  5
26FF1
  8
0
 10
321.27921026554469
 20
170.9671540983372
 30
0.0
  0
VERTEX
  5
26FF2
  8
0
 10
321.86788548175087
 20
171.1125398053818
 30
0.0
  0
VERTEX
  5
26FF3
  8
0
 10
322.44470785028761
 20
171.2926593133561
 30
0.0
  0
VERTEX
  5
26FF4
  8
0
 10
323.00641478122662
 20
171.5059708299332
 30
0.0
  0
VERTEX
  5
26FF5
  8
0
 10
323.55021453143507
 20
171.75064570373979
 30
0.0
  0
VERTEX
  5
26FF6
  8
0
 10
324.0738700080409
 20
172.02471678555861
 30
0.0
  0
VERTEX
  5
26FF7
  8
0
 10
324.3273907171511
 20
172.17203351368701
 30
0.0
  0
VERTEX
  5
26FF8
  8
0
 10
324.57500129258119
 20
172.3257691528633
 30
0.0
  0
VERTEX
  5
26FF9
  8
0
 10
325.05150054757212
 20
172.65109875124739
 30
0.0
  0
VERTEX
  5
26FFA
  8
0
 10
325.50158852122138
 20
172.99776518222191
 30
0.0
  0
VERTEX
  5
26FFB
  8
0
 10
325.92374296407758
 20
173.36255098790301
 30
0.0
  0
VERTEX
  5
26FFC
  8
0
 10
326.31671204483922
 20
173.7419581243139
 30
0.0
  0
VERTEX
  5
26FFD
  8
0
 10
326.6874543770316
 20
174.14120586004259
 30
0.0
  0
VERTEX
  5
26FFE
  8
0
 10
326.86697652397379
 20
174.3511963359569
 30
0.0
  0
VERTEX
  5
26FFF
  8
0
 10
327.04202747081348
 20
174.5678459570845
 30
0.0
  0
VERTEX
  5
27000
  8
0
 10
327.37715520484181
 20
175.02030402096531
 30
0.0
  0
VERTEX
  5
27001
  8
0
 10
327.68997784478597
 20
175.496892198772
 30
0.0
  0
VERTEX
  5
27002
  8
0
 10
327.83723439966462
 20
175.7436887314206
 30
0.0
  0
SEQEND
  5
27003
  8
0
  0
LINE
  5
1A153
  8
0
 10
302.72398574561271
 20
170.7436887314206
 30
0.0
 11
319.1769803618202
 21
170.7436887314206
 31
0.0
  0
POLYLINE
  5
1A154
  8
0
 66
     1
 10
0.0
 20
0.0
 30
0.0
  0
VERTEX
  5
27004
  8
0
 10
294.06373170776828
 20
175.7436887314206
 30
0.0
  0
VERTEX
  5
27005
  8
0
 10
294.21082793144041
 20
175.49715234719579
 30
0.0
  0
VERTEX
  5
27006
  8
0
 10
294.5234774492464
 20
175.02078180563331
 30
0.0
  0
VERTEX
  5
27007
  8
0
 10
294.8587388661465
 20
174.568100376855
 30
0.0
  0
VERTEX
  5
27008
  8
0
 10
295.03402002373099
 20
174.3511597173065
 30
0.0
  0
VERTEX
  5
27009
  8
0
 10
295.2139096801472
 20
174.14075321069049
 30
0.0
  0
VERTEX
  5
2700A
  8
0
 10
295.58588504990968
 20
173.74029537833749
 30
0.0
  0
VERTEX
  5
2700B
  8
0
 10
295.9774435234367
 20
173.36234955452341
 30
0.0
  0
VERTEX
  5
2700C
  8
0
 10
296.39830053670357
 20
172.99864472652371
 30
0.0
  0
VERTEX
  5
2700D
  8
0
 10
296.84747144840742
 20
172.65254667885799
 30
0.0
  0
VERTEX
  5
2700E
  8
0
 10
297.32340916989023
 20
172.32740851687501
 30
0.0
  0
VERTEX
  5
2700F
  8
0
 10
297.57086340870228
 20
172.17366363339261
 30
0.0
  0
VERTEX
  5
27010
  8
0
 10
297.82430648185209
 20
172.0262841226922
 30
0.0
  0
VERTEX
  5
27011
  8
0
 10
298.34802252507512
 20
171.75197332820059
 30
0.0
  0
VERTEX
  5
27012
  8
0
 10
298.89211161790632
 20
171.5069825723285
 30
0.0
  0
VERTEX
  5
27013
  8
0
 10
299.45424286219247
 20
171.2933563840206
 30
0.0
  0
VERTEX
  5
27014
  8
0
 10
300.03160708768962
 20
171.11295162762869
 30
0.0
  0
VERTEX
  5
27015
  8
0
 10
300.62086010536092
 20
170.96734674981411
 30
0.0
  0
VERTEX
  5
27016
  8
0
 10
300.91884583040792
 20
170.9079645645615
 30
0.0
  0
VERTEX
  5
27017
  8
0
 10
300.96868206606769
 20
170.8989485625498
 30
0.0
  0
VERTEX
  5
27018
  8
0
 10
301.06848280981268
 20
170.88167524382331
 30
0.0
  0
VERTEX
  5
27019
  8
0
 10
301.16844002975898
 20
170.86541572821349
 30
0.0
  0
VERTEX
  5
2701A
  8
0
 10
301.21847178599808
 20
170.85766689665789
 30
0.0
  0
VERTEX
  5
2701B
  8
0
 10
301.26853598506119
 20
170.85017236995921
 30
0.0
  0
VERTEX
  5
2701C
  8
0
 10
301.36875264359122
 20
170.8359471502535
 30
0.0
  0
VERTEX
  5
2701D
  8
0
 10
301.46907171020041
 20
170.8227416615218
 30
0.0
  0
VERTEX
  5
2701E
  8
0
 10
301.56947465596153
 20
170.81055709311661
 30
0.0
  0
VERTEX
  5
2701F
  8
0
 10
301.66994274836799
 20
170.79939421848749
 30
0.0
  0
VERTEX
  5
27020
  8
0
 10
301.77045708246538
 20
170.78925338387029
 30
0.0
  0
VERTEX
  5
27021
  8
0
 10
301.82072564306242
 20
170.78456622051911
 30
0.0
  0
VERTEX
  5
27022
  8
0
 10
301.87099861288868
 20
170.78013449854731
 30
0.0
  0
VERTEX
  5
27023
  8
0
 10
301.97154818677552
 20
170.77203702671071
 30
0.0
  0
VERTEX
  5
27024
  8
0
 10
302.07208657752727
 20
170.76495998099111
 30
0.0
  0
VERTEX
  5
27025
  8
0
 10
302.1725945193852
 20
170.75890191769031
 30
0.0
  0
VERTEX
  5
27026
  8
0
 10
302.27305274278569
 20
170.75386093375801
 30
0.0
  0
VERTEX
  5
27027
  8
0
 10
302.37344201046199
 20
170.74983466555841
 30
0.0
  0
VERTEX
  5
27028
  8
0
 10
302.42360479213312
 20
170.7482011853935
 30
0.0
  0
VERTEX
  5
27029
  8
0
 10
302.47374315425151
 20
170.7468202894797
 30
0.0
  0
VERTEX
  5
2702A
  8
0
 10
302.5739371125689
 20
170.7448145244052
 30
0.0
  0
VERTEX
  5
2702B
  8
0
 10
302.67400496850507
 20
170.74381363610431
 30
0.0
  0
VERTEX
  5
2702C
  8
0
 10
302.72398574561271
 20
170.7436887314206
 30
0.0
  0
SEQEND
  5
2702D
  8
0
  0
LINE
  5
1A155
  8
0
 10
288.60874554165338
 20
185.1920019257168
 30
0.0
 11
294.06373170776828
 21
175.7436887314206
 31
0.0
  0
POLYLINE
  5
1A156
  8
0
 66
     1
 10
0.0
 20
0.0
 30
0.0
  0
VERTEX
  5
2702E
  8
0
 10
287.01955931567448
 20
187.2630697375825
 30
0.0
  0
VERTEX
  5
2702F
  8
0
 10
287.24261235555952
 20
187.03274757221331
 30
0.0
  0
VERTEX
  5
27030
  8
0
 10
287.65649465943977
 20
186.56277011744891
 30
0.0
  0
VERTEX
  5
27031
  8
0
 10
288.02651646770619
 20
186.08653436541499
 30
0.0
  0
VERTEX
  5
27032
  8
0
 10
288.1949295542513
 20
185.84852554718421
 30
0.0
  0
SEQEND
  5
27033
  8
0
  0
POLYLINE
  5
1A157
  8
0
 66
     1
 10
0.0
 20
0.0
 30
0.0
  0
VERTEX
  5
27034
  8
0
 10
288.1949295542513
 20
185.84852554718421
 30
0.0
  0
VERTEX
  5
27035
  8
0
 10
288.2674189778823
 20
185.74136636510141
 30
0.0
  0
VERTEX
  5
27036
  8
0
 10
288.4082087070268
 20
185.52427956679909
 30
0.0
  0
VERTEX
  5
27037
  8
0
 10
288.5433347886742
 20
185.3036228925539
 30
0.0
  0
VERTEX
  5
27038
  8
0
 10
288.60874554165338
 20
185.1920019257168
 30
0.0
  0
SEQEND
  5
27039
  8
0
  0
LINE
  5
1A158
  8
0
 10
281.47941524185092
 20
192.80321381140581
 30
0.0
 11
287.01955931567448
 21
187.2630697375825
 31
0.0
  0
ARC
  5
1A159
  8
0
 10
288.55048305371628
 20
199.8742816232716
 30
0.0
 40
9.9999999999998952
 50
180.0
 51
205.63336548632631
  0
POLYLINE
  5
1A15A
  8
0
 66
     1
 10
0.0
 20
0.0
 30
0.0
  0
VERTEX
  5
2703A
  8
0
 10
279.53467551640688
 20
195.54817315835859
 30
0.0
  0
VERTEX
  5
2703B
  8
0
 10
279.57660916511259
 20
195.4618460791034
 30
0.0
  0
VERTEX
  5
2703C
  8
0
 10
279.66289316141922
 20
195.29053360376469
 30
0.0
  0
VERTEX
  5
2703D
  8
0
 10
279.75234500853088
 20
195.12109669757589
 30
0.0
  0
VERTEX
  5
2703E
  8
0
 10
279.79823724715709
 20
195.0371137182301
 30
0.0
  0
VERTEX
  5
2703F
  8
0
 10
279.84489485378629
 20
194.95363795671349
 30
0.0
  0
VERTEX
  5
27040
  8
0
 10
279.94046777793852
 20
194.78825793566739
 30
0.0
  0
VERTEX
  5
27041
  8
0
 10
280.03898398923388
 20
194.6250546634883
 30
0.0
  0
VERTEX
  5
27042
  8
0
 10
280.14035906257732
 20
194.46412317331209
 30
0.0
  0
VERTEX
  5
27043
  8
0
 10
280.24450422719309
 20
194.3055550423241
 30
0.0
  0
VERTEX
  5
27044
  8
0
 10
280.35132716714429
 20
194.14943728061101
 30
0.0
  0
VERTEX
  5
27045
  8
0
 10
280.40571356513777
 20
194.07232247330191
 30
0.0
  0
VERTEX
  5
27046
  8
0
 10
280.46073353475879
 20
193.99585047878011
 30
0.0
  0
VERTEX
  5
27047
  8
0
 10
280.5726227795268
 20
193.84487489909861
 30
0.0
  0
VERTEX
  5
27048
  8
0
 10
280.68688868843748
 20
193.69658920147231
 30
0.0
  0
VERTEX
  5
27049
  8
0
 10
280.80341979160761
 20
193.55106955875181
 30
0.0
  0
VERTEX
  5
2704A
  8
0
 10
280.92209966315272
 20
193.40838904400789
 30
0.0
  0
VERTEX
  5
2704B
  8
0
 10
281.04280729538681
 20
193.26861703083341
 30
0.0
  0
VERTEX
  5
2704C
  8
0
 10
281.10388256367622
 20
193.1998422354481
 30
0.0
  0
VERTEX
  5
2704D
  8
0
 10
281.16541755124717
 20
193.13181860711481
 30
0.0
  0
VERTEX
  5
2704E
  8
0
 10
281.28980170008191
 20
192.9980540033493
 30
0.0
  0
VERTEX
  5
2704F
  8
0
 10
281.41582804197532
 20
192.8673780372765
 30
0.0
  0
VERTEX
  5
27050
  8
0
 10
281.47941524185092
 20
192.80321381140581
 30
0.0
  0
SEQEND
  5
27051
  8
0
  0
LINE
  5
1A15B
  8
0
 10
278.55048305371639
 20
217.4569416589766
 30
0.0
 11
278.55048305371639
 21
199.8742816232716
 31
0.0
  0
ARC
  5
1A15C
  8
0
 10
258.55048305371622
 20
217.4569416589766
 30
0.0
 40
20.00000000000021
 50
0.0
 51
30.00000000000021
  0
LINE
  5
1A15D
  8
0
 10
266.46783332290607
 20
243.7436887314206
 30
0.0
 11
275.87099112940518
 21
227.4569416589766
 31
0.0
  0
ARC
  5
1A15E
  8
0
 10
264.73578251533701
 20
242.74368873142069
 30
0.0
 40
2.000000000000139
 50
30.00000000000021
 51
63.133982235384103
  0
ARC
  5
1A15F
  8
0
 10
357.16518359209567
 20
242.74368873142069
 30
0.0
 40
1.9999999999999909
 50
116.8660177646159
 51
149.9999999999998
  0
LINE
  5
1A160
  8
0
 10
260.95048305371643
 20
246.74368873142069
 30
0.0
 11
360.95048305371643
 21
246.74368873142069
 31
0.0
  0
LINE
  5
1A161
  8
1
 10
260.34412900856711
 20
179.7436887314206
 30
0.0
 11
361.5568370988658
 21
179.7436887314206
 31
0.0
  0
LINE
  5
1A162
  8
1
 10
310.95048305371643
 20
129.137334686271
 30
0.0
 11
310.95048305371643
 21
257.35004277657021
 31
0.0
  0
ARC
  5
1A163
  8
0
 10
310.95048305371643
 20
179.7436887314206
 30
0.0
 40
33.626754532364927
 50
154.9743234555929
 51
25.02567654440708
  0
ARC
  5
1A164
  8
0
 10
310.95048305371643
 20
179.7436887314206
 30
0.0
 40
36.046930263761439
 50
152.09088764183201
 51
27.90911235816797
  0
ARC
  5
1A165
  8
0
 10
310.95048305371682
 20
180.05763330244551
 30
0.0
 40
24.308207062973381
 50
164.19894932689189
 51
15.80105067310808
  0
ARC
  5
1A166
  8
0
 10
310.95048305371643
 20
179.7436887314206
 30
0.0
 40
31.999999999999989
 50
156.2628642054365
 51
23.737135794563478
  0
ARC
  5
1A16C
  8
0
 10
310.95048305371643
 20
179.7436887314206
 30
0.0
 40
40.0
 50
144.0959314167072
 51
35.904068583292762
  0
LINE
  5
1E3C5
  8
3
 10
307.71748305371608
 20
419.075672986928
 30
0.0
 11
307.71748305371608
 21
416.57567298692811
 31
0.0
  0
LINE
  5
1E3C6
  8
3
 10
314.18348305371597
 20
419.075672986928
 30
0.0
 11
314.18348305371597
 21
416.57567298692811
 31
0.0
  0
LINE
  5
1E3C7
  8
1
 10
247.3008706670519
 20
384.07567298692811
 30
0.0
 11
374.6000954403803
 21
384.07567298692811
 31
0.0
  0
CIRCLE
  5
1E3D2
  8
0
 10
310.95048305371608
 20
179.7436887314206
 30
0.0
 40
6.2583333333333311
  0
LINE
  5
1E3D3
  8
0
 10
304.69214972038282
 20
183.35693916609941
 30
0.0
 11
310.95048305371608
 21
186.97018960077821
 31
0.0
  0
LINE
  5
1E3D4
  8
0
 10
304.69214972038282
 20
183.35693916609941
 30
0.0
 11
304.69214972038282
 21
176.1304382967428
 31
0.0
  0
LINE
  5
1E3D5
  8
0
 10
304.69214972038282
 20
176.1304382967428
 30
0.0
 11
310.95048305371608
 21
172.51718786206399
 31
0.0
  0
LINE
  5
1E3D6
  8
0
 10
317.20881638704941
 20
183.35693916609941
 30
0.0
 11
310.95048305371608
 21
186.97018960077821
 31
0.0
  0
LINE
  5
1E3D7
  8
0
 10
317.20881638704941
 20
183.35693916609941
 30
0.0
 11
317.20881638704941
 21
176.1304382967428
 31
0.0
  0
LINE
  5
1E3D8
  8
0
 10
317.20881638704941
 20
176.1304382967428
 30
0.0
 11
310.95048305371608
 21
172.51718786206399
 31
0.0
  0
LINE
  5
1E3E8
  8
1
 10
421.53002403955492
 20
179.7436887314206
 30
0.0
 11
522.74273212985372
 21
179.7436887314206
 31
0.0
  0
LINE
  5
1E3E9
  8
1
 10
472.13637808470429
 20
129.137334686271
 30
0.0
 11
472.13637808470429
 21
257.35004277657021
 31
0.0
  0
LINE
  5
1E3EA
  8
3
 10
507.13637808470429
 20
176.5106887314214
 30
0.0
 11
504.63637808470429
 21
176.5106887314214
 31
0.0
  0
LINE
  5
1E3EB
  8
3
 10
507.13637808470429
 20
182.97668873142169
 30
0.0
 11
506.70431457524421
 21
182.9766887314226
 31
0.0
  0
LINE
  5
1E433
  8
0
 10
117.2645880227285
 20
175.7436887314206
 30
0.0
 11
115.5315880227284
 21
175.7436887314206
 31
0.0
  0
LINE
  5
1E434
  8
0
 10
114.7645880227285
 20
182.97668873142081
 30
0.0
 11
114.980619777459
 21
183.1927204861513
 31
0.0
  0
LINE
  5
1E435
  8
0
 10
115.5315880227284
 20
175.7436887314206
 30
0.0
 11
114.7645880227285
 21
176.5106887314214
 31
0.0
  0
LINE
  5
1E436
  8
0
 10
180.0645880227284
 20
173.48535539808739
 30
0.0
 11
179.80516831331289
 21
172.51718786206399
 31
0.0
  0
LINE
  5
1E437
  8
0
 10
119.7645880227285
 20
173.928688731421
 30
0.0
 11
117.2645880227285
 21
173.928688731421
 31
0.0
  0
LINE
  5
1E438
  8
0
 10
120.024007732144
 20
172.51718786206399
 30
0.0
 11
119.7645880227285
 21
173.48535539808739
 31
0.0
  0
LINE
  5
1E439
  8
0
 10
127.2645880227285
 20
185.7436887314206
 30
0.0
 11
137.2645880227285
 21
185.7436887314206
 31
0.0
  0
LINE
  5
1E43A
  8
0
 10
162.2645880227285
 20
185.7436887314206
 30
0.0
 11
172.2645880227285
 21
185.7436887314206
 31
0.0
  0
LINE
  5
1E43B
  8
0
 10
172.2645880227285
 20
173.7436887314206
 30
0.0
 11
162.2645880227285
 21
173.7436887314206
 31
0.0
  0
LINE
  5
1E43C
  8
0
 10
137.2645880227285
 20
173.7436887314206
 30
0.0
 11
127.2645880227285
 21
173.7436887314206
 31
0.0
  0
LINE
  5
1E43D
  8
0
 10
115.5315880227284
 20
175.7436887314206
 30
0.0
 11
115.5315880227284
 21
182.64450846169709
 31
0.0
  0
LINE
  5
1E43E
  8
0
 10
114.7645880227285
 20
176.5106887314214
 30
0.0
 11
114.7645880227285
 21
182.97668873142081
 31
0.0
  0
LINE
  5
1E43F
  8
0
 10
180.0645880227284
 20
173.48535539808739
 30
0.0
 11
180.0645880227284
 21
178.35980614146769
 31
0.0
  0
LINE
  5
1E440
  8
0
 10
179.80516831331289
 20
172.51718786206399
 30
0.0
 11
176.26184694424779
 21
172.51718786206399
 31
0.0
  0
POLYLINE
  5
1E441
  8
0
 66
     1
 10
0.0
 20
0.0
 30
0.0
  0
VERTEX
  5
27052
  8
0
 10
179.80516831331289
 20
172.51718786206399
 30
0.0
  0
VERTEX
  5
27053
  8
0
 10
179.88601296657109
 20
172.84176175773609
 30
0.0
  0
VERTEX
  5
27054
  8
0
 10
180.0006233053241
 20
173.45132233650841
 30
0.0
  0
VERTEX
  5
27055
  8
0
 10
180.0573978891085
 20
174.03373050808381
 30
0.0
  0
VERTEX
  5
27056
  8
0
 10
180.0645880227284
 20
174.32381307940341
 30
0.0
  0
SEQEND
  5
27057
  8
0
  0
POLYLINE
  5
1E442
  8
0
 66
     1
 10
0.0
 20
0.0
 30
0.0
  0
VERTEX
  5
27058
  8
0
 10
180.0645880227284
 20
174.32381307940341
 30
0.0
  0
VERTEX
  5
27059
  8
0
 10
180.05739788910861
 20
174.6138956507229
 30
0.0
  0
VERTEX
  5
2705A
  8
0
 10
180.0006233053241
 20
175.1963038222984
 30
0.0
  0
VERTEX
  5
2705B
  8
0
 10
179.88601296657109
 20
175.80586440107069
 30
0.0
  0
VERTEX
  5
2705C
  8
0
 10
179.80516831331289
 20
176.1304382967428
 30
0.0
  0
SEQEND
  5
2705D
  8
0
  0
LINE
  5
1E443
  8
0
 10
179.80516831331289
 20
176.1304382967428
 30
0.0
 11
178.6550499528426
 21
176.1304382967428
 31
0.0
  0
POLYLINE
  5
1E444
  8
0
 66
     1
 10
0.0
 20
0.0
 30
0.0
  0
VERTEX
  5
2705E
  8
0
 10
179.80516831331289
 20
176.1304382967428
 30
0.0
  0
VERTEX
  5
2705F
  8
0
 10
179.8542573047377
 20
176.51238647723861
 30
0.0
  0
VERTEX
  5
27060
  8
0
 10
179.93584852298639
 20
177.24476272126859
 30
0.0
  0
VERTEX
  5
27061
  8
0
 10
179.99677437626849
 20
177.94596260111479
 30
0.0
  0
VERTEX
  5
27062
  8
0
 10
180.01986168627741
 20
178.2886435005739
 30
0.0
  0
SEQEND
  5
27063
  8
0
  0
LINE
  5
1E445
  8
0
 10
117.2645880227285
 20
173.928688731421
 30
0.0
 11
117.2645880227285
 21
180.909087189204
 31
0.0
  0
LINE
  5
1E446
  8
0
 10
119.7645880227285
 20
173.48535539808739
 30
0.0
 11
119.7645880227285
 21
177.9205536434711
 31
0.0
  0
LINE
  5
1E447
  8
0
 10
123.2673291012091
 20
172.51718786206399
 30
0.0
 11
120.024007732144
 21
172.51718786206399
 31
0.0
  0
POLYLINE
  5
1E448
  8
0
 66
     1
 10
0.0
 20
0.0
 30
0.0
  0
VERTEX
  5
27064
  8
0
 10
120.024007732144
 20
176.1304382967428
 30
0.0
  0
VERTEX
  5
27065
  8
0
 10
119.9431630788858
 20
175.80586440107069
 30
0.0
  0
VERTEX
  5
27066
  8
0
 10
119.82855274013269
 20
175.1963038222984
 30
0.0
  0
VERTEX
  5
27067
  8
0
 10
119.7717781563484
 20
174.6138956507229
 30
0.0
  0
VERTEX
  5
27068
  8
0
 10
119.7645880227285
 20
174.32381307940341
 30
0.0
  0
SEQEND
  5
27069
  8
0
  0
POLYLINE
  5
1E449
  8
0
 66
     1
 10
0.0
 20
0.0
 30
0.0
  0
VERTEX
  5
2706A
  8
0
 10
119.7645880227285
 20
174.32381307940341
 30
0.0
  0
VERTEX
  5
2706B
  8
0
 10
119.7717781563484
 20
174.03373050808381
 30
0.0
  0
VERTEX
  5
2706C
  8
0
 10
119.82855274013269
 20
173.45132233650841
 30
0.0
  0
VERTEX
  5
2706D
  8
0
 10
119.9431630788858
 20
172.84176175773609
 30
0.0
  0
VERTEX
  5
2706E
  8
0
 10
120.024007732144
 20
172.51718786206399
 30
0.0
  0
SEQEND
  5
2706F
  8
0
  0
LINE
  5
1E44A
  8
0
 10
120.8741260926143
 20
176.1304382967428
 30
0.0
 11
120.024007732144
 21
176.1304382967428
 31
0.0
  0
POLYLINE
  5
1E44B
  8
0
 66
     1
 10
0.0
 20
0.0
 30
0.0
  0
VERTEX
  5
27070
  8
0
 10
119.84287246144051
 20
177.80920004290689
 30
0.0
  0
VERTEX
  5
27071
  8
0
 10
119.8653917423885
 20
177.54133600709341
 30
0.0
  0
VERTEX
  5
27072
  8
0
 10
119.9193672542208
 20
176.99344339916291
 30
0.0
  0
VERTEX
  5
27073
  8
0
 10
119.985824489661
 20
176.42460652542559
 30
0.0
  0
VERTEX
  5
27074
  8
0
 10
120.024007732144
 20
176.1304382967428
 30
0.0
  0
SEQEND
  5
27075
  8
0
  0
LINE
  5
1E44C
  8
0
 10
190.2645880227285
 20
244.74368873142069
 30
0.0
 11
109.2645880227285
 21
244.74368873142069
 31
0.0
  0
LINE
  5
1E44D
  8
0
 10
109.2645880227285
 20
244.74368873142069
 30
0.0
 11
109.2645880227285
 21
195.54817315835859
 31
0.0
  0
LINE
  5
1E44E
  8
0
 10
127.2645880227285
 20
244.74368873142069
 30
0.0
 11
127.2645880227285
 21
170.7436887314206
 31
0.0
  0
LINE
  5
1E44F
  8
0
 10
172.2645880227285
 20
244.74368873142069
 30
0.0
 11
172.2645880227285
 21
170.7436887314206
 31
0.0
  0
LINE
  5
1E450
  8
0
 10
190.2645880227285
 20
244.74368873142069
 30
0.0
 11
190.2645880227285
 21
195.54817315835859
 31
0.0
  0
POLYLINE
  5
1E451
  8
0
 66
     1
 10
0.0
 20
0.0
 30
0.0
  0
VERTEX
  5
27076
  8
0
 10
190.2645880227285
 20
195.54817315835859
 30
0.0
  0
VERTEX
  5
27077
  8
0
 10
190.26447676896831
 20
195.4613235125189
 30
0.0
  0
VERTEX
  5
27078
  8
0
 10
190.26354839558829
 20
195.28907744047589
 30
0.0
  0
VERTEX
  5
27079
  8
0
 10
190.26159329874051
 20
195.11886450240129
 30
0.0
  0
VERTEX
  5
2707A
  8
0
 10
190.26019855191041
 20
195.03455571035281
 30
0.0
  0
VERTEX
  5
2707B
  8
0
 10
190.25850851035531
 20
194.95079715114019
 30
0.0
  0
VERTEX
  5
2707C
  8
0
 10
190.2541912081025
 20
194.78498484175179
 30
0.0
  0
VERTEX
  5
2707D
  8
0
 10
190.24853923172361
 20
194.6215334494955
 30
0.0
  0
VERTEX
  5
2707E
  8
0
 10
190.24145151048651
 20
194.46054321356311
 30
0.0
  0
VERTEX
  5
2707F
  8
0
 10
190.23282847569519
 20
194.30210847091891
 30
0.0
  0
VERTEX
  5
27080
  8
0
 10
190.2225728272831
 20
194.1463228229195
 30
0.0
  0
VERTEX
  5
27081
  8
0
 10
190.21680313017569
 20
194.0694520768657
 30
0.0
  0
VERTEX
  5
27082
  8
0
 10
190.2105901169339
 20
193.99327766109761
 30
0.0
  0
VERTEX
  5
27083
  8
0
 10
190.19678934000359
 20
193.84306139832549
 30
0.0
  0
VERTEX
  5
27084
  8
0
 10
190.1810835064546
 20
193.69575872436499
 30
0.0
  0
VERTEX
  5
27085
  8
0
 10
190.1633901781893
 20
193.55144986686261
 30
0.0
  0
VERTEX
  5
27086
  8
0
 10
190.1436319591283
 20
193.4102098569883
 30
0.0
  0
VERTEX
  5
27087
  8
0
 10
190.1217369225138
 20
193.27210780005311
 30
0.0
  0
VERTEX
  5
27088
  8
0
 10
190.10996720338721
 20
193.20425330093261
 30
0.0
  0
VERTEX
  5
27089
  8
0
 10
190.0976251858543
 20
193.13713337221901
 30
0.0
  0
VERTEX
  5
2708A
  8
0
 10
190.07077478793761
 20
193.00318438778501
 30
0.0
  0
VERTEX
  5
2708B
  8
0
 10
190.04081363860061
 20
192.86965882274851
 30
0.0
  0
VERTEX
  5
2708C
  8
0
 10
190.0246129840466
 20
192.80321381140669
 30
0.0
  0
SEQEND
  5
2708D
  8
0
  0
POLYLINE
  5
1E452
  8
0
 66
     1
 10
0.0
 20
0.0
 30
0.0
  0
VERTEX
  5
2708E
  8
0
 10
192.07366480906671
 20
192.80321381140669
 30
0.0
  0
VERTEX
  5
2708F
  8
0
 10
192.0860576263849
 20
192.8673780372765
 30
0.0
  0
VERTEX
  5
27090
  8
0
 10
192.10935983721859
 20
192.9980540033493
 30
0.0
  0
VERTEX
  5
27091
  8
0
 10
192.13072609270321
 20
193.13181860711569
 30
0.0
  0
VERTEX
  5
27092
  8
0
 10
192.14070007367241
 20
193.1998422354481
 30
0.0
  0
VERTEX
  5
27093
  8
0
 10
192.15021084262361
 20
193.26861703083429
 30
0.0
  0
VERTEX
  5
27094
  8
0
 10
192.16787304523621
 20
193.4083890440088
 30
0.0
  0
VERTEX
  5
27095
  8
0
 10
192.18377589090321
 20
193.55106955875269
 30
0.0
  0
VERTEX
  5
27096
  8
0
 10
192.19798647472859
 20
193.69658920147319
 30
0.0
  0
VERTEX
  5
27097
  8
0
 10
192.21057542866171
 20
193.84487489909861
 30
0.0
  0
VERTEX
  5
27098
  8
0
 10
192.22161652256949
 20
193.99585047878099
 30
0.0
  0
VERTEX
  5
27099
  8
0
 10
192.22658042975539
 20
194.07232247330191
 30
0.0
  0
VERTEX
  5
2709A
  8
0
 10
192.2311862428509
 20
194.14943728061189
 30
0.0
  0
VERTEX
  5
2709B
  8
0
 10
192.23936336863699
 20
194.30555504232501
 30
0.0
  0
VERTEX
  5
2709C
  8
0
 10
192.24622854129541
 20
194.46412317331209
 30
0.0
  0
VERTEX
  5
2709D
  8
0
 10
192.25186357536219
 20
194.62505466348921
 30
0.0
  0
VERTEX
  5
2709E
  8
0
 10
192.25635126254161
 20
194.7882579356683
 30
0.0
  0
VERTEX
  5
2709F
  8
0
 10
192.25977506263499
 20
194.9536379567144
 30
0.0
  0
VERTEX
  5
270A0
  8
0
 10
192.26111418005351
 20
195.0371137182301
 30
0.0
  0
VERTEX
  5
270A1
  8
0
 10
192.26221874166379
 20
195.1210966975768
 30
0.0
  0
VERTEX
  5
270A2
  8
0
 10
192.26376600071779
 20
195.29053360376469
 30
0.0
  0
VERTEX
  5
270A3
  8
0
 10
192.26450010079719
 20
195.46184607910439
 30
0.0
  0
VERTEX
  5
270A4
  8
0
 10
192.2645880227285
 20
195.54817315835859
 30
0.0
  0
SEQEND
  5
270A5
  8
0
  0
LINE
  5
1E453
  8
0
 10
192.2645880227285
 20
195.54817315835859
 30
0.0
 11
192.2645880227285
 21
246.74368873142069
 31
0.0
  0
POLYLINE
  5
1E455
  8
0
 66
     1
 10
0.0
 20
0.0
 30
0.0
  0
VERTEX
  5
270A6
  8
0
 10
190.0246129840466
 20
192.80321381140669
 30
0.0
  0
VERTEX
  5
270A7
  8
0
 10
189.9793874045061
 20
192.63091067027381
 30
0.0
  0
VERTEX
  5
270A8
  8
0
 10
189.87748466089181
 20
192.28953844239641
 30
0.0
  0
VERTEX
  5
270A9
  8
0
 10
189.760484690704
 20
191.9530415269592
 30
0.0
  0
VERTEX
  5
270AA
  8
0
 10
189.6963945958268
 20
191.78683026011089
 30
0.0
  0
VERTEX
  5
270AB
  8
0
 10
189.62861951798601
 20
191.62208723503039
 30
0.0
  0
VERTEX
  5
270AC
  8
0
 10
189.4821506461424
 20
191.29733188603129
 30
0.0
  0
VERTEX
  5
270AD
  8
0
 10
189.32136853934841
 20
190.97941950618949
 30
0.0
  0
VERTEX
  5
270AE
  8
0
 10
189.14659204652739
 20
190.66898055135329
 30
0.0
  0
VERTEX
  5
270AF
  8
0
 10
188.95816776903709
 20
190.3666306567365
 30
0.0
  0
VERTEX
  5
270B0
  8
0
 10
188.75646937332081
 20
190.07296941604
 30
0.0
  0
VERTEX
  5
270B1
  8
0
 10
188.65076637121689
 20
189.9295797342802
 30
0.0
  0
VERTEX
  5
270B2
  8
0
 10
188.54189684988449
 20
189.78857919238811
 30
0.0
  0
VERTEX
  5
270B3
  8
0
 10
188.3148757200714
 20
189.5140239634438
 30
0.0
  0
VERTEX
  5
270B4
  8
0
 10
188.07585619220541
 20
189.24984820297141
 30
0.0
  0
VERTEX
  5
270B5
  8
0
 10
187.8253122687768
 20
188.99657580108939
 30
0.0
  0
VERTEX
  5
270B6
  8
0
 10
187.56374080644349
 20
188.75470902533201
 30
0.0
  0
VERTEX
  5
270B7
  8
0
 10
187.2916605307077
 20
188.52472752460289
 30
0.0
  0
VERTEX
  5
270B8
  8
0
 10
187.1518474169979
 20
188.41433722283821
 30
0.0
  0
VERTEX
  5
270B9
  8
0
 10
187.00961100722529
 20
188.30708737797161
 30
0.0
  0
VERTEX
  5
270BA
  8
0
 10
186.7181515717873
 20
188.10222019022149
 30
0.0
  0
VERTEX
  5
270BB
  8
0
 10
186.41786022109329
 20
187.91053223592911
 30
0.0
  0
VERTEX
  5
270BC
  8
0
 10
186.2645880227285
 20
187.8197503065748
 30
0.0
  0
SEQEND
  5
270BD
  8
0
  0
LINE
  5
1E456
  8
0
 10
186.26458802272839
 20
187.8197503065748
 30
0.0
 11
185.3003889936478
 21
187.2630697375825
 31
0.0
  0
POLYLINE
  5
1E457
  8
0
 66
     1
 10
0.0
 20
0.0
 30
0.0
  0
VERTEX
  5
270BE
  8
0
 10
188.89606708184201
 20
187.2630697375825
 30
0.0
  0
VERTEX
  5
270BF
  8
0
 10
189.03013453288651
 20
187.38402928283449
 30
0.0
  0
VERTEX
  5
270C0
  8
0
 10
189.29160866234761
 20
187.63311123850229
 30
0.0
  0
VERTEX
  5
270C1
  8
0
 10
189.54391881617511
 20
187.89147169850361
 30
0.0
  0
VERTEX
  5
270C2
  8
0
 10
189.66653409885731
 20
188.0240265379843
 30
0.0
  0
VERTEX
  5
270C3
  8
0
 10
189.78673595533249
 20
188.15877373356579
 30
0.0
  0
VERTEX
  5
270C4
  8
0
 10
190.0197434206749
 20
188.43466875365721
 30
0.0
  0
VERTEX
  5
270C5
  8
0
 10
190.24263734590619
 20
188.7187969625902
 30
0.0
  0
VERTEX
  5
270C6
  8
0
 10
190.45512705385261
 20
189.01078782723101
 30
0.0
  0
VERTEX
  5
270C7
  8
0
 10
190.6569354355363
 20
189.31026056071281
 30
0.0
  0
VERTEX
  5
270C8
  8
0
 10
190.84779931155489
 20
189.61682461902359
 30
0.0
  0
VERTEX
  5
270C9
  8
0
 10
190.93904871008729
 20
189.7726413071041
 30
0.0
  0
VERTEX
  5
270CA
  8
0
 10
191.02746977529509
 20
189.93008021031619
 30
0.0
  0
VERTEX
  5
270CB
  8
0
 10
191.1957125175332
 20
190.2496188162786
 30
0.0
  0
VERTEX
  5
270CC
  8
0
 10
191.35230813199871
 20
190.5750237248885
 30
0.0
  0
VERTEX
  5
270CD
  8
0
 10
191.49705240150371
 20
190.9058705738407
 30
0.0
  0
VERTEX
  5
270CE
  8
0
 10
191.62975656426309
 20
191.2417279039727
 30
0.0
  0
VERTEX
  5
270CF
  8
0
 10
191.75024756006039
 20
191.58215772192119
 30
0.0
  0
VERTEX
  5
270D0
  8
0
 10
191.8058633883935
 20
191.75394879461049
 30
0.0
  0
VERTEX
  5
270D1
  8
0
 10
191.858368255936
 20
191.92671607131979
 30
0.0
  0
VERTEX
  5
270D2
  8
0
 10
191.9539776511055
 20
192.2749536117598
 30
0.0
  0
VERTEX
  5
270D3
  8
0
 10
192.0369510608395
 20
192.62641620478189
 30
0.0
  0
VERTEX
  5
270D4
  8
0
 10
192.07366480906671
 20
192.80321381140669
 30
0.0
  0
SEQEND
  5
270D5
  8
0
  0
POLYLINE
  5
1E459
  8
0
 66
     1
 10
0.0
 20
0.0
 30
0.0
  0
VERTEX
  5
270D6
  8
0
 10
185.3003889936478
 20
187.2630697375825
 30
0.0
  0
VERTEX
  5
270D7
  8
0
 10
185.2116476698034
 20
187.21146095882071
 30
0.0
  0
VERTEX
  5
270D8
  8
0
 10
185.0361268691212
 20
187.1071324835402
 30
0.0
  0
VERTEX
  5
270D9
  8
0
 10
184.86325274752701
 20
187.00134120819351
 30
0.0
  0
VERTEX
  5
270DA
  8
0
 10
184.77781964132171
 20
186.94790400187409
 30
0.0
  0
VERTEX
  5
270DB
  8
0
 10
184.693061874146
 20
186.89410951145959
 30
0.0
  0
VERTEX
  5
270DC
  8
0
 10
184.52559025049979
 20
186.7854600767177
 30
0.0
  0
VERTEX
  5
270DD
  8
0
 10
184.3608733028901
 20
186.6754158872518
 30
0.0
  0
VERTEX
  5
270DE
  8
0
 10
184.19894587490521
 20
186.5640002213849
 30
0.0
  0
VERTEX
  5
270DF
  8
0
 10
184.03984222004911
 20
186.45123664755829
 30
0.0
  0
VERTEX
  5
270E0
  8
0
 10
183.88359599449569
 20
186.33714901934209
 30
0.0
  0
VERTEX
  5
270E1
  8
0
 10
183.80655477017481
 20
186.27961621580471
 30
0.0
  0
VERTEX
  5
270E2
  8
0
 10
183.7302402499694
 20
186.22176147039499
 30
0.0
  0
VERTEX
  5
270E3
  8
0
 10
183.57980742675309
 20
186.1050984093535
 30
0.0
  0
VERTEX
  5
270E4
  8
0
 10
183.4323293468268
 20
185.9871845146717
 30
0.0
  0
VERTEX
  5
270E5
  8
0
 10
183.28783720713491
 20
185.86804472940179
 30
0.0
  0
VERTEX
  5
270E6
  8
0
 10
183.1463615729877
 20
185.74770425591299
 30
0.0
  0
VERTEX
  5
270E7
  8
0
 10
183.00793237159559
 20
185.62618855056729
 30
0.0
  0
VERTEX
  5
270E8
  8
0
 10
182.93986935939481
 20
185.5649980091857
 30
0.0
  0
VERTEX
  5
270E9
  8
0
 10
182.87257888573839
 20
185.5035233183271
 30
0.0
  0
VERTEX
  5
270EA
  8
0
 10
182.7403297475708
 20
185.37973450732261
 30
0.0
  0
VERTEX
  5
270EB
  8
0
 10
182.61121293256559
 20
185.25484830336239
 30
0.0
  0
VERTEX
  5
270EC
  8
0
 10
182.5478377075637
 20
185.1920019257177
 30
0.0
  0
SEQEND
  5
270ED
  8
0
  0
POLYLINE
  5
1E45A
  8
0
 66
     1
 10
0.0
 20
0.0
 30
0.0
  0
VERTEX
  5
270EE
  8
0
 10
186.5478377075637
 20
185.1920019257177
 30
0.0
  0
VERTEX
  5
270EF
  8
0
 10
186.6611324550851
 20
185.30362289255481
 30
0.0
  0
VERTEX
  5
270F0
  8
0
 10
186.895177693926
 20
185.52427956679909
 30
0.0
  0
VERTEX
  5
270F1
  8
0
 10
187.1390326579882
 20
185.74136636510229
 30
0.0
  0
VERTEX
  5
270F2
  8
0
 10
187.2645880227285
 20
185.84852554718509
 30
0.0
  0
SEQEND
  5
270F3
  8
0
  0
LINE
  5
1E45B
  8
0
 10
187.2645880227285
 20
185.84852554718509
 30
0.0
 11
188.89606708184201
 21
187.2630697375825
 31
0.0
  0
LINE
  5
1E45D
  8
0
 10
182.5478377075637
 20
185.1920019257177
 30
0.0
 11
181.0145880227285
 21
183.65875224088171
 31
0.0
  0
POLYLINE
  5
1E45E
  8
0
 66
     1
 10
0.0
 20
0.0
 30
0.0
  0
VERTEX
  5
270F4
  8
0
 10
181.0145880227285
 20
183.65875224088171
 30
0.0
  0
VERTEX
  5
270F5
  8
0
 10
180.84775740326731
 20
183.48978740269101
 30
0.0
  0
VERTEX
  5
270F6
  8
0
 10
180.51737874336911
 20
183.14233655459969
 30
0.0
  0
VERTEX
  5
270F7
  8
0
 10
180.19151093273439
 20
182.78233269550219
 30
0.0
  0
VERTEX
  5
270F8
  8
0
 10
180.0303183591142
 20
182.59767802877741
 30
0.0
  0
VERTEX
  5
270F9
  8
0
 10
179.87031293181599
 20
182.40995143764121
 30
0.0
  0
VERTEX
  5
270FA
  8
0
 10
179.55394142310271
 20
182.0253744310339
 30
0.0
  0
VERTEX
  5
270FB
  8
0
 10
179.2425507346891
 20
181.62878927486139
 30
0.0
  0
VERTEX
  5
270FC
  8
0
 10
178.9362927649928
 20
181.22038942596279
 30
0.0
  0
VERTEX
  5
270FD
  8
0
 10
178.6353169086577
 20
180.80037410445851
 30
0.0
  0
VERTEX
  5
270FE
  8
0
 10
178.3397699836782
 20
180.36894819657391
 30
0.0
  0
VERTEX
  5
270FF
  8
0
 10
178.1940775288661
 20
180.14902182447071
 30
0.0
  0
VERTEX
  5
27100
  8
0
 10
178.04979615978041
 20
179.92632215469439
 30
0.0
  0
VERTEX
  5
27101
  8
0
 10
177.765536888095
 20
179.47271189470121
 30
0.0
  0
VERTEX
  5
27102
  8
0
 10
177.48713083215699
 20
179.0083386906517
 30
0.0
  0
VERTEX
  5
27103
  8
0
 10
177.21471380026429
 20
178.53342906683611
 30
0.0
  0
VERTEX
  5
27104
  8
0
 10
176.94841867922969
 20
178.04821468727999
 30
0.0
  0
VERTEX
  5
27105
  8
0
 10
176.68837536955749
 20
177.5529322427374
 30
0.0
  0
VERTEX
  5
27106
  8
0
 10
176.5607379056969
 20
177.30159080808789
 30
0.0
  0
VERTEX
  5
27107
  8
0
 10
176.43471072207771
 20
177.04782333522871
 30
0.0
  0
VERTEX
  5
27108
  8
0
 10
176.18754847606721
 20
176.53313436018649
 30
0.0
  0
VERTEX
  5
27109
  8
0
 10
175.94700919888851
 20
176.0091163862671
 30
0.0
  0
VERTEX
  5
2710A
  8
0
 10
175.829259969086
 20
175.7436887314206
 30
0.0
  0
SEQEND
  5
2710B
  8
0
  0
POLYLINE
  5
1E45F
  8
0
 66
     1
 10
0.0
 20
0.0
 30
0.0
  0
VERTEX
  5
2710C
  8
0
 10
178.44233701143941
 20
175.7436887314206
 30
0.0
  0
VERTEX
  5
2710D
  8
0
 10
178.52958093964961
 20
175.90399075055029
 30
0.0
  0
VERTEX
  5
2710E
  8
0
 10
178.70633237695029
 20
176.22084798319241
 30
0.0
  0
VERTEX
  5
2710F
  8
0
 10
178.8860621667726
 20
176.53263849875111
 30
0.0
  0
VERTEX
  5
27110
  8
0
 10
178.97702884762381
 20
176.6866074413665
 30
0.0
  0
VERTEX
  5
27111
  8
0
 10
179.06872190196381
 20
176.8392783217696
 30
0.0
  0
VERTEX
  5
27112
  8
0
 10
179.25426238623999
 20
177.1406848640417
 30
0.0
  0
VERTEX
  5
27113
  8
0
 10
179.44263364743679
 20
177.43677694685809
 30
0.0
  0
VERTEX
  5
27114
  8
0
 10
179.63378495096831
 20
177.7274748228665
 30
0.0
  0
VERTEX
  5
27115
  8
0
 10
179.82766481349159
 20
178.0127001975525
 30
0.0
  0
VERTEX
  5
27116
  8
0
 10
180.0242210167732
 20
178.29237625032781
 30
0.0
  0
VERTEX
  5
27117
  8
0
 10
180.12348623051059
 20
178.43010968269121
 30
0.0
  0
VERTEX
  5
27118
  8
0
 10
180.2234006217524
 20
178.56642765521789
 30
0.0
  0
VERTEX
  5
27119
  8
0
 10
180.42514998280049
 20
178.8347806011507
 30
0.0
  0
VERTEX
  5
2711A
  8
0
 10
180.62941476216861
 20
179.0973628118399
 30
0.0
  0
VERTEX
  5
2711B
  8
0
 10
180.83613994462269
 20
179.35410356524511
 30
0.0
  0
VERTEX
  5
2711C
  8
0
 10
181.0452698522615
 20
179.60493371262419
 30
0.0
  0
VERTEX
  5
2711D
  8
0
 10
181.2567481595116
 20
179.84978569715531
 30
0.0
  0
VERTEX
  5
2711E
  8
0
 10
181.36335018788131
 20
179.9699492066238
 30
0.0
  0
VERTEX
  5
2711F
  8
0
 10
181.47051790829849
 20
180.08859357213441
 30
0.0
  0
VERTEX
  5
27120
  8
0
 10
181.686521523387
 20
180.3212930187328
 30
0.0
  0
VERTEX
  5
27121
  8
0
 10
181.90470082788801
 20
180.54782136332409
 30
0.0
  0
VERTEX
  5
27122
  8
0
 10
182.0145880227285
 20
180.65875224088171
 30
0.0
  0
SEQEND
  5
27123
  8
0
  0
LINE
  5
1E460
  8
0
 10
182.01458802272839
 20
180.65875224088171
 30
0.0
 11
186.5478377075637
 21
185.1920019257177
 31
0.0
  0
POLYLINE
  5
1E462
  8
0
 66
     1
 10
0.0
 20
0.0
 30
0.0
  0
VERTEX
  5
27124
  8
0
 10
175.829259969086
 20
175.7436887314206
 30
0.0
  0
VERTEX
  5
27125
  8
0
 10
175.7171760697687
 20
175.49374737076411
 30
0.0
  0
VERTEX
  5
27126
  8
0
 10
175.48699899579429
 20
175.01130185110651
 30
0.0
  0
VERTEX
  5
27127
  8
0
 10
175.2520506891581
 20
174.55374328828839
 30
0.0
  0
VERTEX
  5
27128
  8
0
 10
175.13397096966659
 20
174.33487412040719
 30
0.0
  0
VERTEX
  5
27129
  8
0
 10
175.01609758800089
 20
174.12289991024679
 30
0.0
  0
VERTEX
  5
2712A
  8
0
 10
174.7827061118802
 20
173.72040751713209
 30
0.0
  0
VERTEX
  5
2712B
  8
0
 10
174.54960981736971
 20
173.3387566406081
 30
0.0
  0
VERTEX
  5
2712C
  8
0
 10
174.3149689683496
 20
172.97288859687339
 30
0.0
  0
VERTEX
  5
2712D
  8
0
 10
174.0819104061089
 20
172.62623435240039
 30
0.0
  0
VERTEX
  5
2712E
  8
0
 10
173.853478917117
 20
172.3019084193019
 30
0.0
  0
VERTEX
  5
2712F
  8
0
 10
173.7419109244953
 20
172.14900525851041
 30
0.0
  0
VERTEX
  5
27130
  8
0
 10
173.63257684570081
 20
172.00271595188769
 30
0.0
  0
VERTEX
  5
27131
  8
0
 10
173.4219467594003
 20
171.73119794542799
 30
0.0
  0
VERTEX
  5
27132
  8
0
 10
173.22409750178539
 20
171.48958133469841
 30
0.0
  0
VERTEX
  5
27133
  8
0
 10
173.04114056198719
 20
171.27962900835519
 30
0.0
  0
VERTEX
  5
27134
  8
0
 10
172.87501483693839
 20
171.10294123448961
 30
0.0
  0
VERTEX
  5
27135
  8
0
 10
172.72738258605111
 20
170.96081428589059
 30
0.0
  0
VERTEX
  5
27136
  8
0
 10
172.6609125009827
 20
170.9029958474402
 30
0.0
  0
VERTEX
  5
27137
  8
0
 10
172.59950639424869
 20
170.85410181597399
 30
0.0
  0
VERTEX
  5
27138
  8
0
 10
172.49224042521519
 20
170.7832041038036
 30
0.0
  0
VERTEX
  5
27139
  8
0
 10
172.40602850021099
 20
170.74804170972669
 30
0.0
  0
VERTEX
  5
2713A
  8
0
 10
172.370832451604
 20
170.7436887314206
 30
0.0
  0
SEQEND
  5
2713B
  8
0
  0
POLYLINE
  5
1E463
  8
0
 66
     1
 10
0.0
 20
0.0
 30
0.0
  0
VERTEX
  5
2713C
  8
0
 10
174.38464222087259
 20
170.7436887314206
 30
0.0
  0
VERTEX
  5
2713D
  8
0
 10
174.39098453501549
 20
170.74381373982391
 30
0.0
  0
VERTEX
  5
2713E
  8
0
 10
174.4041785005256
 20
170.74481532842759
 30
0.0
  0
VERTEX
  5
2713F
  8
0
 10
174.41805301983419
 20
170.7468221737208
 30
0.0
  0
VERTEX
  5
27140
  8
0
 10
174.4252459317367
 20
170.7482036529581
 30
0.0
  0
VERTEX
  5
27141
  8
0
 10
174.43260946493669
 20
170.74983769484061
 30
0.0
  0
VERTEX
  5
27142
  8
0
 10
174.44784880215269
 20
170.75386487797269
 30
0.0
  0
VERTEX
  5
27143
  8
0
 10
174.46377159082681
 20
170.7589062719498
 30
0.0
  0
VERTEX
  5
27144
  8
0
 10
174.48037798331239
 20
170.76496398568901
 30
0.0
  0
VERTEX
  5
27145
  8
0
 10
174.49766772621871
 20
170.7720396874447
 30
0.0
  0
VERTEX
  5
27146
  8
0
 10
174.51564016290021
 20
170.7801346058049
 30
0.0
  0
VERTEX
  5
27147
  8
0
 10
174.52488207682771
 20
170.7845645355637
 30
0.0
  0
VERTEX
  5
27148
  8
0
 10
174.53429423716349
 20
170.78924953242949
 30
0.0
  0
VERTEX
  5
27149
  8
0
 10
174.55362849816481
 20
170.79938482645591
 30
0.0
  0
VERTEX
  5
2714A
  8
0
 10
174.57364110646819
 20
170.81054042054799
 30
0.0
  0
VERTEX
  5
2714B
  8
0
 10
174.59432984123561
 20
170.8227158285317
 30
0.0
  0
VERTEX
  5
2714C
  8
0
 10
174.6156921085126
 20
170.83591015458481
 30
0.0
  0
VERTEX
  5
2714D
  8
0
 10
174.637724950576
 20
170.850122103926
 30
0.0
  0
VERTEX
  5
2714E
  8
0
 10
174.64899181592861
 20
170.85760917657711
 30
0.0
  0
VERTEX
  5
2714F
  8
0
 10
174.6604250563073
 20
170.86534999495319
 30
0.0
  0
VERTEX
  5
27150
  8
0
 10
174.68378877255131
 20
170.8815917728007
 30
0.0
  0
VERTEX
  5
27151
  8
0
 10
174.7078121164221
 20
170.898845024255
 30
0.0
  0
VERTEX
  5
27152
  8
0
 10
174.7200698171377
 20
170.90785010443679
 30
0.0
  0
VERTEX
  5
27153
  8
0
 10
174.79702362332571
 20
170.9671540983372
 30
0.0
  0
VERTEX
  5
27154
  8
0
 10
174.9679842720542
 20
171.11253980538271
 30
0.0
  0
VERTEX
  5
27155
  8
0
 10
175.1604395759976
 20
171.29265931335701
 30
0.0
  0
VERTEX
  5
27156
  8
0
 10
175.3725215963172
 20
171.5059708299332
 30
0.0
  0
VERTEX
  5
27157
  8
0
 10
175.60207150855791
 20
171.7506457037407
 30
0.0
  0
VERTEX
  5
27158
  8
0
 10
175.84675763626021
 20
172.02471678555861
 30
0.0
  0
VERTEX
  5
27159
  8
0
 10
175.97391968968199
 20
172.17203351368789
 30
0.0
  0
VERTEX
  5
2715A
  8
0
 10
176.1038004168154
 20
172.3257691528633
 30
0.0
  0
VERTEX
  5
2715B
  8
0
 10
176.37015514921879
 20
172.6510987512483
 30
0.0
  0
VERTEX
  5
2715C
  8
0
 10
176.64258632939971
 20
172.99776518222191
 30
0.0
  0
VERTEX
  5
2715D
  8
0
 10
176.9176764673328
 20
173.36255098790389
 30
0.0
  0
VERTEX
  5
2715E
  8
0
 10
177.1918831638047
 20
173.74195812431481
 30
0.0
  0
VERTEX
  5
2715F
  8
0
 10
177.4676867124706
 20
174.1412058600435
 30
0.0
  0
VERTEX
  5
27160
  8
0
 10
177.60754695994029
 20
174.3511963359569
 30
0.0
  0
VERTEX
  5
27161
  8
0
 10
177.7480732662531
 20
174.56784595708541
 30
0.0
  0
VERTEX
  5
27162
  8
0
 10
178.0290779001889
 20
175.02030402096531
 30
0.0
  0
VERTEX
  5
27163
  8
0
 10
178.3064334960149
 20
175.496892198772
 30
0.0
  0
VERTEX
  5
27164
  8
0
 10
178.44233701143941
 20
175.7436887314206
 30
0.0
  0
SEQEND
  5
27165
  8
0
  0
LINE
  5
1E464
  8
0
 10
172.2645880227285
 20
170.7436887314206
 30
0.0
 11
174.38464222087259
 21
170.7436887314206
 31
0.0
  0
POLYLINE
  5
1E465
  8
0
 66
     1
 10
0.0
 20
0.0
 30
0.0
  0
VERTEX
  5
27166
  8
0
 10
174.42645884625341
 20
170.7484579162055
 30
0.0
  0
VERTEX
  5
27167
  8
0
 10
174.41903878158141
 20
170.74699840397989
 30
0.0
  0
VERTEX
  5
27168
  8
0
 10
174.40474005579509
 20
170.7448785152892
 30
0.0
  0
VERTEX
  5
27169
  8
0
 10
174.39116180307761
 20
170.74382073064129
 30
0.0
  0
VERTEX
  5
2716A
  8
0
 10
174.38464222087259
 20
170.7436887314206
 30
0.0
  0
SEQEND
  5
2716B
  8
0
  0
POLYLINE
  5
1E466
  8
0
 66
     1
 10
0.0
 20
0.0
 30
0.0
  0
VERTEX
  5
2716C
  8
0
 10
192.07366480906671
 20
192.80321381140669
 30
0.0
  0
VERTEX
  5
2716D
  8
0
 10
192.0369510608395
 20
192.62641620478189
 30
0.0
  0
VERTEX
  5
2716E
  8
0
 10
191.9539776511055
 20
192.2749536117598
 30
0.0
  0
VERTEX
  5
2716F
  8
0
 10
191.858368255936
 20
191.92671607131979
 30
0.0
  0
VERTEX
  5
27170
  8
0
 10
191.8058633883935
 20
191.75394879461049
 30
0.0
  0
VERTEX
  5
27171
  8
0
 10
191.75024756006039
 20
191.58215772192119
 30
0.0
  0
VERTEX
  5
27172
  8
0
 10
191.62975656426309
 20
191.2417279039727
 30
0.0
  0
VERTEX
  5
27173
  8
0
 10
191.49705240150371
 20
190.9058705738407
 30
0.0
  0
VERTEX
  5
27174
  8
0
 10
191.35230813199871
 20
190.5750237248885
 30
0.0
  0
VERTEX
  5
27175
  8
0
 10
191.1957125175332
 20
190.2496188162786
 30
0.0
  0
VERTEX
  5
27176
  8
0
 10
191.02746977529509
 20
189.93008021031619
 30
0.0
  0
VERTEX
  5
27177
  8
0
 10
190.93904871008729
 20
189.7726413071041
 30
0.0
  0
VERTEX
  5
27178
  8
0
 10
190.84779931155489
 20
189.61682461902359
 30
0.0
  0
VERTEX
  5
27179
  8
0
 10
190.6569354355363
 20
189.31026056071281
 30
0.0
  0
VERTEX
  5
2717A
  8
0
 10
190.45512705385261
 20
189.01078782723101
 30
0.0
  0
VERTEX
  5
2717B
  8
0
 10
190.24263734590619
 20
188.7187969625902
 30
0.0
  0
VERTEX
  5
2717C
  8
0
 10
190.0197434206749
 20
188.43466875365721
 30
0.0
  0
VERTEX
  5
2717D
  8
0
 10
189.78673595533249
 20
188.15877373356579
 30
0.0
  0
VERTEX
  5
2717E
  8
0
 10
189.66653409885731
 20
188.0240265379843
 30
0.0
  0
VERTEX
  5
2717F
  8
0
 10
189.54391881617511
 20
187.89147169850361
 30
0.0
  0
VERTEX
  5
27180
  8
0
 10
189.29160866234761
 20
187.63311123850229
 30
0.0
  0
VERTEX
  5
27181
  8
0
 10
189.03013453288651
 20
187.38402928283449
 30
0.0
  0
VERTEX
  5
27182
  8
0
 10
188.89606708184201
 20
187.2630697375825
 30
0.0
  0
SEQEND
  5
27183
  8
0
  0
POLYLINE
  5
1E467
  8
0
 66
     1
 10
0.0
 20
0.0
 30
0.0
  0
VERTEX
  5
27184
  8
0
 10
107.2645880227285
 20
195.54817315835859
 30
0.0
  0
VERTEX
  5
27185
  8
0
 10
107.2646759446596
 20
195.46184607910439
 30
0.0
  0
VERTEX
  5
27186
  8
0
 10
107.2654100447391
 20
195.29053360376469
 30
0.0
  0
VERTEX
  5
27187
  8
0
 10
107.26695730379321
 20
195.1210966975768
 30
0.0
  0
VERTEX
  5
27188
  8
0
 10
107.2680618654034
 20
195.0371137182301
 30
0.0
  0
VERTEX
  5
27189
  8
0
 10
107.26940098282191
 20
194.9536379567144
 30
0.0
  0
VERTEX
  5
2718A
  8
0
 10
107.27282478291529
 20
194.7882579356683
 30
0.0
  0
VERTEX
  5
2718B
  8
0
 10
107.2773124700947
 20
194.62505466348921
 30
0.0
  0
VERTEX
  5
2718C
  8
0
 10
107.2829475041615
 20
194.46412317331209
 30
0.0
  0
VERTEX
  5
2718D
  8
0
 10
107.28981267682001
 20
194.30555504232501
 30
0.0
  0
VERTEX
  5
2718E
  8
0
 10
107.297989802606
 20
194.14943728061189
 30
0.0
  0
VERTEX
  5
2718F
  8
0
 10
107.30259561570151
 20
194.07232247330191
 30
0.0
  0
VERTEX
  5
27190
  8
0
 10
107.3075595228874
 20
193.99585047878099
 30
0.0
  0
VERTEX
  5
27191
  8
0
 10
107.31860061679529
 20
193.84487489909861
 30
0.0
  0
VERTEX
  5
27192
  8
0
 10
107.3311895707282
 20
193.69658920147319
 30
0.0
  0
VERTEX
  5
27193
  8
0
 10
107.3454001545538
 20
193.55106955875269
 30
0.0
  0
VERTEX
  5
27194
  8
0
 10
107.3613030002207
 20
193.4083890440088
 30
0.0
  0
VERTEX
  5
27195
  8
0
 10
107.3789652028333
 20
193.26861703083429
 30
0.0
  0
VERTEX
  5
27196
  8
0
 10
107.3884759717845
 20
193.1998422354481
 30
0.0
  0
VERTEX
  5
27197
  8
0
 10
107.39844995275369
 20
193.13181860711569
 30
0.0
  0
VERTEX
  5
27198
  8
0
 10
107.4198162082384
 20
192.9980540033493
 30
0.0
  0
VERTEX
  5
27199
  8
0
 10
107.44311841907199
 20
192.8673780372765
 30
0.0
  0
VERTEX
  5
2719A
  8
0
 10
107.45551123639029
 20
192.80321381140669
 30
0.0
  0
SEQEND
  5
2719B
  8
0
  0
POLYLINE
  5
1E468
  8
0
 66
     1
 10
0.0
 20
0.0
 30
0.0
  0
VERTEX
  5
2719C
  8
0
 10
109.50456306141039
 20
192.80321381140669
 30
0.0
  0
VERTEX
  5
2719D
  8
0
 10
109.4883624068563
 20
192.86965882274851
 30
0.0
  0
VERTEX
  5
2719E
  8
0
 10
109.4584012575193
 20
193.00318438778501
 30
0.0
  0
VERTEX
  5
2719F
  8
0
 10
109.4315508596025
 20
193.13713337221901
 30
0.0
  0
VERTEX
  5
271A0
  8
0
 10
109.41920884206981
 20
193.20425330093261
 30
0.0
  0
VERTEX
  5
271A1
  8
0
 10
109.407439122943
 20
193.27210780005311
 30
0.0
  0
VERTEX
  5
271A2
  8
0
 10
109.38554408632849
 20
193.4102098569883
 30
0.0
  0
VERTEX
  5
271A3
  8
0
 10
109.3657858672676
 20
193.55144986686261
 30
0.0
  0
VERTEX
  5
271A4
  8
0
 10
109.34809253900229
 20
193.69575872436499
 30
0.0
  0
VERTEX
  5
271A5
  8
0
 10
109.3323867054533
 20
193.84306139832549
 30
0.0
  0
VERTEX
  5
271A6
  8
0
 10
109.31858592852301
 20
193.99327766109761
 30
0.0
  0
VERTEX
  5
271A7
  8
0
 10
109.3123729152812
 20
194.0694520768657
 30
0.0
  0
VERTEX
  5
271A8
  8
0
 10
109.3066032181739
 20
194.1463228229195
 30
0.0
  0
VERTEX
  5
271A9
  8
0
 10
109.29634756976181
 20
194.30210847091891
 30
0.0
  0
VERTEX
  5
271AA
  8
0
 10
109.28772453497029
 20
194.46054321356311
 30
0.0
  0
VERTEX
  5
271AB
  8
0
 10
109.2806368137333
 20
194.6215334494955
 30
0.0
  0
VERTEX
  5
271AC
  8
0
 10
109.2749848373544
 20
194.78498484175179
 30
0.0
  0
VERTEX
  5
271AD
  8
0
 10
109.27066753510159
 20
194.95079715114019
 30
0.0
  0
VERTEX
  5
271AE
  8
0
 10
109.2689774935464
 20
195.03455571035281
 30
0.0
  0
VERTEX
  5
271AF
  8
0
 10
109.2675827467164
 20
195.11886450240129
 30
0.0
  0
VERTEX
  5
271B0
  8
0
 10
109.26562764986861
 20
195.28907744047589
 30
0.0
  0
VERTEX
  5
271B1
  8
0
 10
109.2646992764886
 20
195.4613235125189
 30
0.0
  0
VERTEX
  5
271B2
  8
0
 10
109.2645880227285
 20
195.54817315835859
 30
0.0
  0
SEQEND
  5
271B3
  8
0
  0
POLYLINE
  5
1E469
  8
0
 66
     1
 10
0.0
 20
0.0
 30
0.0
  0
VERTEX
  5
271B4
  8
0
 10
113.2645880227285
 20
187.8197503065748
 30
0.0
  0
VERTEX
  5
271B5
  8
0
 10
113.1113158243636
 20
187.91053223592911
 30
0.0
  0
VERTEX
  5
271B6
  8
0
 10
112.8110244736697
 20
188.10222019022149
 30
0.0
  0
VERTEX
  5
271B7
  8
0
 10
112.51956503823151
 20
188.30708737797161
 30
0.0
  0
VERTEX
  5
271B8
  8
0
 10
112.377328628459
 20
188.41433722283821
 30
0.0
  0
VERTEX
  5
271B9
  8
0
 10
112.23751551474921
 20
188.52472752460289
 30
0.0
  0
VERTEX
  5
271BA
  8
0
 10
111.9654352390134
 20
188.75470902533201
 30
0.0
  0
VERTEX
  5
271BB
  8
0
 10
111.70386377668009
 20
188.99657580108939
 30
0.0
  0
VERTEX
  5
271BC
  8
0
 10
111.4533198532516
 20
189.24984820297141
 30
0.0
  0
VERTEX
  5
271BD
  8
0
 10
111.21430032538539
 20
189.5140239634438
 30
0.0
  0
VERTEX
  5
271BE
  8
0
 10
110.9872791955724
 20
189.78857919238811
 30
0.0
  0
VERTEX
  5
271BF
  8
0
 10
110.87840967424
 20
189.9295797342802
 30
0.0
  0
VERTEX
  5
271C0
  8
0
 10
110.7727066721362
 20
190.07296941604
 30
0.0
  0
VERTEX
  5
271C1
  8
0
 10
110.5710082764198
 20
190.3666306567365
 30
0.0
  0
VERTEX
  5
271C2
  8
0
 10
110.3825839989296
 20
190.66898055135329
 30
0.0
  0
VERTEX
  5
271C3
  8
0
 10
110.20780750610849
 20
190.97941950618949
 30
0.0
  0
VERTEX
  5
271C4
  8
0
 10
110.04702539931461
 20
191.29733188603129
 30
0.0
  0
VERTEX
  5
271C5
  8
0
 10
109.9005565274709
 20
191.62208723503039
 30
0.0
  0
VERTEX
  5
271C6
  8
0
 10
109.83278144963
 20
191.78683026011089
 30
0.0
  0
VERTEX
  5
271C7
  8
0
 10
109.7686913547529
 20
191.9530415269592
 30
0.0
  0
VERTEX
  5
271C8
  8
0
 10
109.651691384565
 20
192.28953844239641
 30
0.0
  0
VERTEX
  5
271C9
  8
0
 10
109.54978864095069
 20
192.63091067027381
 30
0.0
  0
VERTEX
  5
271CA
  8
0
 10
109.50456306141039
 20
192.80321381140669
 30
0.0
  0
SEQEND
  5
271CB
  8
0
  0
POLYLINE
  5
1E46A
  8
0
 66
     1
 10
0.0
 20
0.0
 30
0.0
  0
VERTEX
  5
271CC
  8
0
 10
107.45551123639029
 20
192.80321381140669
 30
0.0
  0
VERTEX
  5
271CD
  8
0
 10
107.49222498461739
 20
192.62641620478189
 30
0.0
  0
VERTEX
  5
271CE
  8
0
 10
107.5751983943513
 20
192.2749536117598
 30
0.0
  0
VERTEX
  5
271CF
  8
0
 10
107.67080778952089
 20
191.92671607131979
 30
0.0
  0
VERTEX
  5
271D0
  8
0
 10
107.7233126570635
 20
191.75394879461049
 30
0.0
  0
VERTEX
  5
271D1
  8
0
 10
107.77892848539661
 20
191.58215772192119
 30
0.0
  0
VERTEX
  5
271D2
  8
0
 10
107.8994194811938
 20
191.2417279039727
 30
0.0
  0
VERTEX
  5
271D3
  8
0
 10
108.0321236439532
 20
190.9058705738407
 30
0.0
  0
VERTEX
  5
271D4
  8
0
 10
108.1768679134581
 20
190.5750237248885
 30
0.0
  0
VERTEX
  5
271D5
  8
0
 10
108.3334635279237
 20
190.2496188162786
 30
0.0
  0
VERTEX
  5
271D6
  8
0
 10
108.5017062701618
 20
189.93008021031619
 30
0.0
  0
VERTEX
  5
271D7
  8
0
 10
108.5901273353695
 20
189.7726413071041
 30
0.0
  0
VERTEX
  5
271D8
  8
0
 10
108.6813767339021
 20
189.61682461902359
 30
0.0
  0
VERTEX
  5
271D9
  8
0
 10
108.87224060992069
 20
189.31026056071281
 30
0.0
  0
VERTEX
  5
271DA
  8
0
 10
109.0740489916044
 20
189.01078782723101
 30
0.0
  0
VERTEX
  5
271DB
  8
0
 10
109.2865386995506
 20
188.7187969625902
 30
0.0
  0
VERTEX
  5
271DC
  8
0
 10
109.50943262478199
 20
188.43466875365721
 30
0.0
  0
VERTEX
  5
271DD
  8
0
 10
109.7424400901244
 20
188.15877373356579
 30
0.0
  0
VERTEX
  5
271DE
  8
0
 10
109.8626419465995
 20
188.0240265379843
 30
0.0
  0
VERTEX
  5
271DF
  8
0
 10
109.9852572292818
 20
187.89147169850361
 30
0.0
  0
VERTEX
  5
271E0
  8
0
 10
110.23756738310929
 20
187.63311123850229
 30
0.0
  0
VERTEX
  5
271E1
  8
0
 10
110.4990415125704
 20
187.38402928283449
 30
0.0
  0
VERTEX
  5
271E2
  8
0
 10
110.633108963615
 20
187.2630697375825
 30
0.0
  0
SEQEND
  5
271E3
  8
0
  0
LINE
  5
1E46B
  8
0
 10
114.22878705180911
 20
187.2630697375825
 30
0.0
 11
113.2645880227285
 21
187.8197503065748
 31
0.0
  0
LINE
  5
1E46C
  8
0
 10
110.633108963615
 20
187.2630697375825
 30
0.0
 11
112.2645880227285
 21
185.84852554718509
 31
0.0
  0
POLYLINE
  5
1E46D
  8
0
 66
     1
 10
0.0
 20
0.0
 30
0.0
  0
VERTEX
  5
271E4
  8
0
 10
112.2645880227285
 20
185.84852554718509
 30
0.0
  0
VERTEX
  5
271E5
  8
0
 10
112.3901433874688
 20
185.74136636510229
 30
0.0
  0
VERTEX
  5
271E6
  8
0
 10
112.63399835153101
 20
185.52427956679909
 30
0.0
  0
VERTEX
  5
271E7
  8
0
 10
112.8680435903718
 20
185.30362289255481
 30
0.0
  0
VERTEX
  5
271E8
  8
0
 10
112.98133833789321
 20
185.1920019257177
 30
0.0
  0
SEQEND
  5
271E9
  8
0
  0
POLYLINE
  5
1E46E
  8
0
 66
     1
 10
0.0
 20
0.0
 30
0.0
  0
VERTEX
  5
271EA
  8
0
 10
116.98133833789321
 20
185.1920019257177
 30
0.0
  0
VERTEX
  5
271EB
  8
0
 10
116.9179631128913
 20
185.25484830336239
 30
0.0
  0
VERTEX
  5
271EC
  8
0
 10
116.7888462978861
 20
185.37973450732261
 30
0.0
  0
VERTEX
  5
271ED
  8
0
 10
116.6565971597185
 20
185.5035233183271
 30
0.0
  0
VERTEX
  5
271EE
  8
0
 10
116.5893066860621
 20
185.5649980091857
 30
0.0
  0
VERTEX
  5
271EF
  8
0
 10
116.52124367386131
 20
185.62618855056729
 30
0.0
  0
VERTEX
  5
271F0
  8
0
 10
116.38281447246921
 20
185.74770425591299
 30
0.0
  0
VERTEX
  5
271F1
  8
0
 10
116.24133883832209
 20
185.86804472940179
 30
0.0
  0
VERTEX
  5
271F2
  8
0
 10
116.0968466986302
 20
185.9871845146717
 30
0.0
  0
VERTEX
  5
271F3
  8
0
 10
115.9493686187038
 20
186.1050984093535
 30
0.0
  0
VERTEX
  5
271F4
  8
0
 10
115.79893579548759
 20
186.22176147039499
 30
0.0
  0
VERTEX
  5
271F5
  8
0
 10
115.72262127528219
 20
186.27961621580471
 30
0.0
  0
VERTEX
  5
271F6
  8
0
 10
115.6455800509612
 20
186.33714901934209
 30
0.0
  0
VERTEX
  5
271F7
  8
0
 10
115.4893338254078
 20
186.45123664755829
 30
0.0
  0
VERTEX
  5
271F8
  8
0
 10
115.3302301705517
 20
186.5640002213849
 30
0.0
  0
VERTEX
  5
271F9
  8
0
 10
115.16830274256679
 20
186.6754158872518
 30
0.0
  0
VERTEX
  5
271FA
  8
0
 10
115.0035857949572
 20
186.7854600767177
 30
0.0
  0
VERTEX
  5
271FB
  8
0
 10
114.8361141713109
 20
186.89410951145959
 30
0.0
  0
VERTEX
  5
271FC
  8
0
 10
114.75135640413529
 20
186.94790400187409
 30
0.0
  0
VERTEX
  5
271FD
  8
0
 10
114.66592329792999
 20
187.00134120819351
 30
0.0
  0
VERTEX
  5
271FE
  8
0
 10
114.4930491763358
 20
187.1071324835402
 30
0.0
  0
VERTEX
  5
271FF
  8
0
 10
114.3175283756535
 20
187.21146095882071
 30
0.0
  0
VERTEX
  5
27200
  8
0
 10
114.22878705180911
 20
187.2630697375825
 30
0.0
  0
SEQEND
  5
27201
  8
0
  0
LINE
  5
1E46F
  8
0
 10
107.2645880227285
 20
246.74368873142069
 30
0.0
 11
107.27282478291539
 21
194.78825793566551
 31
0.0
  0
LINE
  5
1E470
  8
0
 10
118.5145880227285
 20
183.65875224088171
 30
0.0
 11
116.98133833789321
 21
185.1920019257177
 31
0.0
  0
LINE
  5
1E471
  8
0
 10
112.98133833789321
 20
185.1920019257177
 30
0.0
 11
117.5145880227285
 21
180.65875224088171
 31
0.0
  0
POLYLINE
  5
1E472
  8
0
 66
     1
 10
0.0
 20
0.0
 30
0.0
  0
VERTEX
  5
27202
  8
0
 10
117.5145880227285
 20
180.65875224088171
 30
0.0
  0
VERTEX
  5
27203
  8
0
 10
117.6244752175689
 20
180.54782136332409
 30
0.0
  0
VERTEX
  5
27204
  8
0
 10
117.84265452206991
 20
180.3212930187328
 30
0.0
  0
VERTEX
  5
27205
  8
0
 10
118.0586581371584
 20
180.08859357213441
 30
0.0
  0
VERTEX
  5
27206
  8
0
 10
118.1658258575755
 20
179.9699492066238
 30
0.0
  0
VERTEX
  5
27207
  8
0
 10
118.2724278859454
 20
179.84978569715531
 30
0.0
  0
VERTEX
  5
27208
  8
0
 10
118.48390619319549
 20
179.60493371262419
 30
0.0
  0
VERTEX
  5
27209
  8
0
 10
118.69303610083421
 20
179.35410356524511
 30
0.0
  0
VERTEX
  5
2720A
  8
0
 10
118.8997612832883
 20
179.0973628118399
 30
0.0
  0
VERTEX
  5
2720B
  8
0
 10
119.1040260626564
 20
178.8347806011507
 30
0.0
  0
VERTEX
  5
2720C
  8
0
 10
119.3057754237045
 20
178.56642765521789
 30
0.0
  0
VERTEX
  5
2720D
  8
0
 10
119.4056898149463
 20
178.43010968269121
 30
0.0
  0
VERTEX
  5
2720E
  8
0
 10
119.5049550286837
 20
178.29237625032781
 30
0.0
  0
VERTEX
  5
2720F
  8
0
 10
119.7015112319652
 20
178.0127001975525
 30
0.0
  0
VERTEX
  5
27210
  8
0
 10
119.8953910944887
 20
177.7274748228665
 30
0.0
  0
VERTEX
  5
27211
  8
0
 10
120.0865423980201
 20
177.43677694685809
 30
0.0
  0
VERTEX
  5
27212
  8
0
 10
120.27491365921691
 20
177.1406848640417
 30
0.0
  0
VERTEX
  5
27213
  8
0
 10
120.46045414349319
 20
176.8392783217696
 30
0.0
  0
VERTEX
  5
27214
  8
0
 10
120.55214719783299
 20
176.6866074413665
 30
0.0
  0
VERTEX
  5
27215
  8
0
 10
120.6431138786843
 20
176.53263849875111
 30
0.0
  0
VERTEX
  5
27216
  8
0
 10
120.82284366850671
 20
176.22084798319241
 30
0.0
  0
VERTEX
  5
27217
  8
0
 10
120.9995951058073
 20
175.90399075055029
 30
0.0
  0
VERTEX
  5
27218
  8
0
 10
121.0868390340175
 20
175.7436887314206
 30
0.0
  0
SEQEND
  5
27219
  8
0
  0
POLYLINE
  5
1E473
  8
0
 66
     1
 10
0.0
 20
0.0
 30
0.0
  0
VERTEX
  5
2721A
  8
0
 10
123.699916076371
 20
175.7436887314206
 30
0.0
  0
VERTEX
  5
2721B
  8
0
 10
123.5821668465684
 20
176.0091163862671
 30
0.0
  0
VERTEX
  5
2721C
  8
0
 10
123.3416275693897
 20
176.53313436018649
 30
0.0
  0
VERTEX
  5
2721D
  8
0
 10
123.0944653233792
 20
177.04782333522871
 30
0.0
  0
VERTEX
  5
2721E
  8
0
 10
122.9684381397601
 20
177.30159080808789
 30
0.0
  0
VERTEX
  5
2721F
  8
0
 10
122.8408006758994
 20
177.5529322427374
 30
0.0
  0
VERTEX
  5
27220
  8
0
 10
122.5807573662272
 20
178.04821468727999
 30
0.0
  0
VERTEX
  5
27221
  8
0
 10
122.3144622451925
 20
178.53342906683611
 30
0.0
  0
VERTEX
  5
27222
  8
0
 10
122.0420452132999
 20
179.0083386906517
 30
0.0
  0
VERTEX
  5
27223
  8
0
 10
121.76363915736189
 20
179.47271189470121
 30
0.0
  0
VERTEX
  5
27224
  8
0
 10
121.47937988567659
 20
179.92632215469439
 30
0.0
  0
VERTEX
  5
27225
  8
0
 10
121.3350985165908
 20
180.14902182447071
 30
0.0
  0
VERTEX
  5
27226
  8
0
 10
121.1894060617787
 20
180.36894819657391
 30
0.0
  0
VERTEX
  5
27227
  8
0
 10
120.89385913679931
 20
180.80037410445851
 30
0.0
  0
VERTEX
  5
27228
  8
0
 10
120.59288328046409
 20
181.22038942596279
 30
0.0
  0
VERTEX
  5
27229
  8
0
 10
120.2866253107679
 20
181.62878927486139
 30
0.0
  0
VERTEX
  5
2722A
  8
0
 10
119.97523462235419
 20
182.0253744310339
 30
0.0
  0
VERTEX
  5
2722B
  8
0
 10
119.658863113641
 20
182.40995143764121
 30
0.0
  0
VERTEX
  5
2722C
  8
0
 10
119.4988576863428
 20
182.59767802877741
 30
0.0
  0
VERTEX
  5
2722D
  8
0
 10
119.3376651127225
 20
182.78233269550219
 30
0.0
  0
VERTEX
  5
2722E
  8
0
 10
119.0117973020878
 20
183.14233655459969
 30
0.0
  0
VERTEX
  5
2722F
  8
0
 10
118.6814186421896
 20
183.48978740269101
 30
0.0
  0
VERTEX
  5
27230
  8
0
 10
118.5145880227285
 20
183.65875224088171
 30
0.0
  0
SEQEND
  5
27231
  8
0
  0
POLYLINE
  5
1E474
  8
0
 66
     1
 10
0.0
 20
0.0
 30
0.0
  0
VERTEX
  5
27232
  8
0
 10
121.0868390340175
 20
175.7436887314206
 30
0.0
  0
VERTEX
  5
27233
  8
0
 10
121.222742549442
 20
175.496892198772
 30
0.0
  0
VERTEX
  5
27234
  8
0
 10
121.500098145268
 20
175.02030402096531
 30
0.0
  0
VERTEX
  5
27235
  8
0
 10
121.78110277920391
 20
174.56784595708541
 30
0.0
  0
VERTEX
  5
27236
  8
0
 10
121.9216290855166
 20
174.3511963359569
 30
0.0
  0
VERTEX
  5
27237
  8
0
 10
122.0614893329863
 20
174.1412058600435
 30
0.0
  0
VERTEX
  5
27238
  8
0
 10
122.3372928816522
 20
173.74195812431481
 30
0.0
  0
VERTEX
  5
27239
  8
0
 10
122.6114995781241
 20
173.36255098790389
 30
0.0
  0
VERTEX
  5
2723A
  8
0
 10
122.8865897160572
 20
172.99776518222191
 30
0.0
  0
VERTEX
  5
2723B
  8
0
 10
123.159020896238
 20
172.6510987512483
 30
0.0
  0
VERTEX
  5
2723C
  8
0
 10
123.4253756286414
 20
172.3257691528633
 30
0.0
  0
VERTEX
  5
2723D
  8
0
 10
123.5552563557749
 20
172.17203351368789
 30
0.0
  0
VERTEX
  5
2723E
  8
0
 10
123.6824184091968
 20
172.02471678555861
 30
0.0
  0
VERTEX
  5
2723F
  8
0
 10
123.92710453689899
 20
171.7506457037407
 30
0.0
  0
VERTEX
  5
27240
  8
0
 10
124.15665444913969
 20
171.5059708299332
 30
0.0
  0
VERTEX
  5
27241
  8
0
 10
124.36873646945929
 20
171.29265931335701
 30
0.0
  0
VERTEX
  5
27242
  8
0
 10
124.5611917734027
 20
171.11253980538271
 30
0.0
  0
VERTEX
  5
27243
  8
0
 10
124.73215242213119
 20
170.9671540983372
 30
0.0
  0
VERTEX
  5
27244
  8
0
 10
124.80910622831919
 20
170.90785010443679
 30
0.0
  0
VERTEX
  5
27245
  8
0
 10
124.8213639290347
 20
170.898845024255
 30
0.0
  0
VERTEX
  5
27246
  8
0
 10
124.8453872729055
 20
170.8815917728007
 30
0.0
  0
VERTEX
  5
27247
  8
0
 10
124.8687509891497
 20
170.86534999495319
 30
0.0
  0
VERTEX
  5
27248
  8
0
 10
124.8801842295284
 20
170.85760917657711
 30
0.0
  0
VERTEX
  5
27249
  8
0
 10
124.89145109488091
 20
170.850122103926
 30
0.0
  0
VERTEX
  5
2724A
  8
0
 10
124.9134839369443
 20
170.83591015458481
 30
0.0
  0
VERTEX
  5
2724B
  8
0
 10
124.9348462042212
 20
170.8227158285317
 30
0.0
  0
VERTEX
  5
2724C
  8
0
 10
124.95553493898871
 20
170.81054042054799
 30
0.0
  0
VERTEX
  5
2724D
  8
0
 10
124.97554754729219
 20
170.79938482645591
 30
0.0
  0
VERTEX
  5
2724E
  8
0
 10
124.9948818082933
 20
170.78924953242949
 30
0.0
  0
VERTEX
  5
2724F
  8
0
 10
125.0042939686292
 20
170.7845645355637
 30
0.0
  0
VERTEX
  5
27250
  8
0
 10
125.0135358825567
 20
170.7801346058049
 30
0.0
  0
VERTEX
  5
27251
  8
0
 10
125.0315083192382
 20
170.7720396874447
 30
0.0
  0
VERTEX
  5
27252
  8
0
 10
125.0487980621445
 20
170.76496398568901
 30
0.0
  0
VERTEX
  5
27253
  8
0
 10
125.0654044546301
 20
170.7589062719498
 30
0.0
  0
VERTEX
  5
27254
  8
0
 10
125.0813272433042
 20
170.75386487797269
 30
0.0
  0
VERTEX
  5
27255
  8
0
 10
125.0965665805201
 20
170.74983769484061
 30
0.0
  0
VERTEX
  5
27256
  8
0
 10
125.1039301137202
 20
170.7482036529581
 30
0.0
  0
VERTEX
  5
27257
  8
0
 10
125.1111230256226
 20
170.7468221737208
 30
0.0
  0
VERTEX
  5
27258
  8
0
 10
125.1249975449314
 20
170.74481532842759
 30
0.0
  0
VERTEX
  5
27259
  8
0
 10
125.1381915104414
 20
170.74381373982391
 30
0.0
  0
VERTEX
  5
2725A
  8
0
 10
125.1445338245843
 20
170.7436887314206
 30
0.0
  0
SEQEND
  5
2725B
  8
0
  0
POLYLINE
  5
1E475
  8
0
 66
     1
 10
0.0
 20
0.0
 30
0.0
  0
VERTEX
  5
2725C
  8
0
 10
127.1583435938529
 20
170.7436887314206
 30
0.0
  0
VERTEX
  5
2725D
  8
0
 10
127.1231475452459
 20
170.74804170972669
 30
0.0
  0
VERTEX
  5
2725E
  8
0
 10
127.03693562024171
 20
170.7832041038036
 30
0.0
  0
VERTEX
  5
2725F
  8
0
 10
126.9296696512082
 20
170.85410181597399
 30
0.0
  0
VERTEX
  5
27260
  8
0
 10
126.8682635444742
 20
170.9029958474402
 30
0.0
  0
VERTEX
  5
27261
  8
0
 10
126.8017934594058
 20
170.96081428589059
 30
0.0
  0
VERTEX
  5
27262
  8
0
 10
126.6541612085185
 20
171.10294123448961
 30
0.0
  0
VERTEX
  5
27263
  8
0
 10
126.4880354834696
 20
171.27962900835519
 30
0.0
  0
VERTEX
  5
27264
  8
0
 10
126.3050785436715
 20
171.48958133469841
 30
0.0
  0
VERTEX
  5
27265
  8
0
 10
126.10722928605669
 20
171.73119794542799
 30
0.0
  0
VERTEX
  5
27266
  8
0
 10
125.8965991997561
 20
172.00271595188769
 30
0.0
  0
VERTEX
  5
27267
  8
0
 10
125.78726512096161
 20
172.14900525851041
 30
0.0
  0
VERTEX
  5
27268
  8
0
 10
125.67569712833991
 20
172.3019084193019
 30
0.0
  0
VERTEX
  5
27269
  8
0
 10
125.447265639348
 20
172.62623435240039
 30
0.0
  0
VERTEX
  5
2726A
  8
0
 10
125.2142070771073
 20
172.97288859687339
 30
0.0
  0
VERTEX
  5
2726B
  8
0
 10
124.97956622808719
 20
173.3387566406081
 30
0.0
  0
VERTEX
  5
2726C
  8
0
 10
124.7464699335768
 20
173.72040751713209
 30
0.0
  0
VERTEX
  5
2726D
  8
0
 10
124.513078457456
 20
174.12289991024679
 30
0.0
  0
VERTEX
  5
2726E
  8
0
 10
124.3952050757902
 20
174.33487412040719
 30
0.0
  0
VERTEX
  5
2726F
  8
0
 10
124.2771253562988
 20
174.55374328828839
 30
0.0
  0
VERTEX
  5
27270
  8
0
 10
124.0421770496626
 20
175.01130185110651
 30
0.0
  0
VERTEX
  5
27271
  8
0
 10
123.81199997568829
 20
175.49374737076411
 30
0.0
  0
VERTEX
  5
27272
  8
0
 10
123.699916076371
 20
175.7436887314206
 30
0.0
  0
SEQEND
  5
27273
  8
0
  0
LINE
  5
1E476
  8
0
 10
127.2645880227285
 20
170.7436887314206
 30
0.0
 11
125.1445338245843
 21
170.7436887314206
 31
0.0
  0
POLYLINE
  5
1E477
  8
0
 66
     1
 10
0.0
 20
0.0
 30
0.0
  0
VERTEX
  5
27274
  8
0
 10
110.6331089636149
 20
187.2630697375825
 30
0.0
  0
VERTEX
  5
27275
  8
0
 10
110.4990415125704
 20
187.38402928283449
 30
0.0
  0
VERTEX
  5
27276
  8
0
 10
110.23756738310929
 20
187.63311123850229
 30
0.0
  0
VERTEX
  5
27277
  8
0
 10
109.9852572292818
 20
187.89147169850361
 30
0.0
  0
VERTEX
  5
27278
  8
0
 10
109.8626419465995
 20
188.0240265379843
 30
0.0
  0
VERTEX
  5
27279
  8
0
 10
109.7424400901244
 20
188.15877373356579
 30
0.0
  0
VERTEX
  5
2727A
  8
0
 10
109.50943262478199
 20
188.43466875365721
 30
0.0
  0
VERTEX
  5
2727B
  8
0
 10
109.2865386995506
 20
188.7187969625902
 30
0.0
  0
VERTEX
  5
2727C
  8
0
 10
109.0740489916044
 20
189.01078782723101
 30
0.0
  0
VERTEX
  5
2727D
  8
0
 10
108.87224060992069
 20
189.31026056071281
 30
0.0
  0
VERTEX
  5
2727E
  8
0
 10
108.6813767339021
 20
189.61682461902359
 30
0.0
  0
VERTEX
  5
2727F
  8
0
 10
108.5901273353695
 20
189.7726413071041
 30
0.0
  0
VERTEX
  5
27280
  8
0
 10
108.5017062701618
 20
189.93008021031619
 30
0.0
  0
VERTEX
  5
27281
  8
0
 10
108.3334635279237
 20
190.2496188162786
 30
0.0
  0
VERTEX
  5
27282
  8
0
 10
108.1768679134581
 20
190.5750237248885
 30
0.0
  0
VERTEX
  5
27283
  8
0
 10
108.0321236439532
 20
190.9058705738407
 30
0.0
  0
VERTEX
  5
27284
  8
0
 10
107.8994194811938
 20
191.2417279039727
 30
0.0
  0
VERTEX
  5
27285
  8
0
 10
107.77892848539661
 20
191.58215772192119
 30
0.0
  0
VERTEX
  5
27286
  8
0
 10
107.7233126570635
 20
191.75394879461049
 30
0.0
  0
VERTEX
  5
27287
  8
0
 10
107.67080778952089
 20
191.92671607131979
 30
0.0
  0
VERTEX
  5
27288
  8
0
 10
107.5751983943513
 20
192.2749536117598
 30
0.0
  0
VERTEX
  5
27289
  8
0
 10
107.49222498461739
 20
192.62641620478189
 30
0.0
  0
VERTEX
  5
2728A
  8
0
 10
107.45551123639029
 20
192.80321381140669
 30
0.0
  0
SEQEND
  5
2728B
  8
0
  0
POLYLINE
  5
1E478
  8
0
 66
     1
 10
0.0
 20
0.0
 30
0.0
  0
VERTEX
  5
2728C
  8
0
 10
107.45551123639029
 20
192.80321381140669
 30
0.0
  0
VERTEX
  5
2728D
  8
0
 10
107.4371085687827
 20
192.89975468992449
 30
0.0
  0
VERTEX
  5
2728E
  8
0
 10
107.4036129195992
 20
193.0980907975372
 30
0.0
  0
VERTEX
  5
2728F
  8
0
 10
107.37438118677279
 20
193.30328372394521
 30
0.0
  0
VERTEX
  5
27290
  8
0
 10
107.3613030002202
 20
193.40838904401241
 30
0.0
  0
SEQEND
  5
27291
  8
0
  0
LINE
  5
1E479
  8
0
 10
156.77068850281719
 20
237.74368873142069
 30
0.0
 11
142.7584875426397
 21
237.74368873142069
 31
0.0
  0
POLYLINE
  5
1E47A
  8
0
 66
     1
 10
0.0
 20
0.0
 30
0.0
  0
VERTEX
  5
27292
  8
0
 10
159.9427657574455
 20
239.76452481532851
 30
0.0
  0
VERTEX
  5
27293
  8
0
 10
159.93495325417391
 20
239.74788507340961
 30
0.0
  0
VERTEX
  5
27294
  8
0
 10
159.91906660684131
 20
239.71472983265991
 30
0.0
  0
VERTEX
  5
27295
  8
0
 10
159.90283256989659
 20
239.6817432960552
 30
0.0
  0
VERTEX
  5
27296
  8
0
 10
159.89458583859391
 20
239.66531442995529
 30
0.0
  0
VERTEX
  5
27297
  8
0
 10
159.88625293459131
 20
239.6489291033067
 30
0.0
  0
VERTEX
  5
27298
  8
0
 10
159.86932953030919
 20
239.6162908751048
 30
0.0
  0
VERTEX
  5
27299
  8
0
 10
159.8520642243659
 20
239.5838322127274
 30
0.0
  0
VERTEX
  5
2729A
  8
0
 10
159.83445892180191
 20
239.55155669763829
 30
0.0
  0
VERTEX
  5
2729B
  8
0
 10
159.81651556517269
 20
239.519467891093
 30
0.0
  0
VERTEX
  5
2729C
  8
0
 10
159.79823613433439
 20
239.4875693337444
 30
0.0
  0
VERTEX
  5
2729D
  8
0
 10
159.78897101993761
 20
239.47169249924539
 30
0.0
  0
VERTEX
  5
2729E
  8
0
 10
159.77962264622531
 20
239.4558645452571
 30
0.0
  0
VERTEX
  5
2729F
  8
0
 10
159.76067715464339
 20
239.4243570239114
 30
0.0
  0
VERTEX
  5
272A0
  8
0
 10
159.74140175001949
 20
239.3930502462226
 30
0.0
  0
VERTEX
  5
272A1
  8
0
 10
159.67137080049611
 20
239.2851070486895
 30
0.0
  0
VERTEX
  5
272A2
  8
0
 10
159.60822028791301
 20
239.19468571322611
 30
0.0
  0
VERTEX
  5
272A3
  8
0
 10
159.54225216298391
 20
239.10629899680501
 30
0.0
  0
VERTEX
  5
272A4
  8
0
 10
159.40212782899371
 20
238.93597837857129
 30
0.0
  0
VERTEX
  5
272A5
  8
0
 10
159.25155422301279
 20
238.77482152592799
 30
0.0
  0
VERTEX
  5
272A6
  8
0
 10
159.09112926289859
 20
238.62346838210851
 30
0.0
  0
VERTEX
  5
272A7
  8
0
 10
158.92148998558591
 20
238.48251996046201
 30
0.0
  0
VERTEX
  5
272A8
  8
0
 10
158.74331001745509
 20
238.35253595787441
 30
0.0
  0
VERTEX
  5
272A9
  8
0
 10
158.6512371320311
 20
238.29181867107579
 30
0.0
  0
VERTEX
  5
272AA
  8
0
 10
158.55729689940679
 20
238.23403253224569
 30
0.0
  0
VERTEX
  5
272AB
  8
0
 10
158.36418927726299
 20
238.1274802528624
 30
0.0
  0
VERTEX
  5
272AC
  8
0
 10
158.1647539686534
 20
238.03330223179819
 30
0.0
  0
VERTEX
  5
272AD
  8
0
 10
157.9597829180338
 20
237.9518724437612
 30
0.0
  0
VERTEX
  5
272AE
  8
0
 10
157.7500900519257
 20
237.8835142410708
 30
0.0
  0
VERTEX
  5
272AF
  8
0
 10
157.5365080468689
 20
237.82849906963841
 30
0.0
  0
VERTEX
  5
272B0
  8
0
 10
157.4285231432176
 20
237.80606548477411
 30
0.0
  0
VERTEX
  5
272B1
  8
0
 10
157.31988502291719
 20
237.78704539108179
 30
0.0
  0
VERTEX
  5
272B2
  8
0
 10
157.10108117581009
 20
237.7593178152247
 30
0.0
  0
VERTEX
  5
272B3
  8
0
 10
156.88096536119181
 20
237.7454264464422
 30
0.0
  0
VERTEX
  5
272B4
  8
0
 10
156.77068850281719
 20
237.74368873142069
 30
0.0
  0
SEQEND
  5
272B5
  8
0
  0
LINE
  5
1E47B
  8
0
 10
161.86073173338471
 20
243.8776161240321
 30
0.0
 11
159.9427657574455
 21
239.76452481532851
 31
0.0
  0
POLYLINE
  5
1E47C
  8
0
 66
     1
 10
0.0
 20
0.0
 30
0.0
  0
VERTEX
  5
272B6
  8
0
 10
163.22019341393971
 20
244.74368873142069
 30
0.0
  0
VERTEX
  5
272B7
  8
0
 10
163.20691691260851
 20
244.74362997510801
 30
0.0
  0
VERTEX
  5
272B8
  8
0
 10
163.17504005990091
 20
244.7430089689351
 30
0.0
  0
VERTEX
  5
272B9
  8
0
 10
163.13607134986921
 20
244.74132803323479
 30
0.0
  0
VERTEX
  5
272BA
  8
0
 10
163.11394606796171
 20
244.73992116706449
 30
0.0
  0
VERTEX
  5
272BB
  8
0
 10
163.0900786761128
 20
244.73803479408519
 30
0.0
  0
VERTEX
  5
272BC
  8
0
 10
163.03719866660191
 20
244.73248452750801
 30
0.0
  0
VERTEX
  5
272BD
  8
0
 10
162.97763549670341
 20
244.723947376654
 30
0.0
  0
VERTEX
  5
272BE
  8
0
 10
162.91166541946771
 20
244.71161600367489
 30
0.0
  0
VERTEX
  5
272BF
  8
0
 10
162.8396275054705
 20
244.69460898743449
 30
0.0
  0
VERTEX
  5
272C0
  8
0
 10
162.7619134566975
 20
244.67196723395139
 30
0.0
  0
VERTEX
  5
272C1
  8
0
 10
162.72106738941071
 20
244.6582109870387
 30
0.0
  0
VERTEX
  5
272C2
  8
0
 10
162.6789776934225
 20
244.64264746700431
 30
0.0
  0
VERTEX
  5
272C3
  8
0
 10
162.5913418024804
 20
244.60550577154211
 30
0.0
  0
VERTEX
  5
272C4
  8
0
 10
162.4996122811109
 20
244.55927332809731
 30
0.0
  0
VERTEX
  5
272C5
  8
0
 10
162.4044451026175
 20
244.5024796960279
 30
0.0
  0
VERTEX
  5
272C6
  8
0
 10
162.3476350506472
 20
244.46378786782321
 30
0.0
  0
VERTEX
  5
272C7
  8
0
 10
162.33125826513489
 20
244.45190820702101
 30
0.0
  0
VERTEX
  5
272C8
  8
0
 10
162.31482435487811
 20
244.4396431063424
 30
0.0
  0
VERTEX
  5
272C9
  8
0
 10
162.30658729678521
 20
244.43336257861569
 30
0.0
  0
VERTEX
  5
272CA
  8
0
 10
162.29833755527719
 20
244.4269814998643
 30
0.0
  0
VERTEX
  5
272CB
  8
0
 10
162.28180223073889
 20
244.4139117816521
 30
0.0
  0
VERTEX
  5
272CC
  8
0
 10
162.26522290163561
 20
244.4004217691745
 30
0.0
  0
VERTEX
  5
272CD
  8
0
 10
162.24860427653951
 20
244.38649866666219
 30
0.0
  0
VERTEX
  5
272CE
  8
0
 10
162.23195129020951
 20
244.3721290288604
 30
0.0
  0
VERTEX
  5
272CF
  8
0
 10
162.21526914781271
 20
244.3572987256957
 30
0.0
  0
VERTEX
  5
272D0
  8
0
 10
162.20691885603051
 20
244.34970621333281
 30
0.0
  0
VERTEX
  5
272D1
  8
0
 10
162.19856337584591
 20
244.34199290844299
 30
0.0
  0
VERTEX
  5
272D2
  8
0
 10
162.1818398801995
 20
244.32619597803389
 30
0.0
  0
VERTEX
  5
272D3
  8
0
 10
162.16505836168281
 20
244.30984539040671
 30
0.0
  0
VERTEX
  5
272D4
  8
0
 10
162.15658518902359
 20
244.30139263322511
 30
0.0
  0
VERTEX
  5
272D5
  8
0
 10
162.14805786355959
 20
244.2927480060153
 30
0.0
  0
VERTEX
  5
272D6
  8
0
 10
162.13086324730131
 20
244.27488211195219
 30
0.0
  0
VERTEX
  5
272D7
  8
0
 10
162.11352017867631
 20
244.25624705090291
 30
0.0
  0
VERTEX
  5
272D8
  8
0
 10
162.104807514019
 20
244.24664151907291
 30
0.0
  0
VERTEX
  5
272D9
  8
0
 10
162.09607528728941
 20
244.23684452853291
 30
0.0
  0
VERTEX
  5
272DA
  8
0
 10
162.0785759694412
 20
244.21667876755509
 30
0.0
  0
VERTEX
  5
272DB
  8
0
 10
162.06107016059269
 20
244.19575663002431
 30
0.0
  0
VERTEX
  5
272DC
  8
0
 10
162.0436060743767
 20
244.17408769551091
 30
0.0
  0
VERTEX
  5
272DD
  8
0
 10
162.0262319058765
 20
244.15168428056401
 30
0.0
  0
VERTEX
  5
272DE
  8
0
 10
162.00899549790671
 20
244.1285613822574
 30
0.0
  0
VERTEX
  5
272DF
  8
0
 10
162.00044371819891
 20
244.11673551123289
 30
0.0
  0
VERTEX
  5
272E0
  8
0
 10
161.99194397037689
 20
244.10473652590639
 30
0.0
  0
VERTEX
  5
272E1
  8
0
 10
161.9751229353418
 20
244.08022892969259
 30
0.0
  0
VERTEX
  5
272E2
  8
0
 10
161.9585759149401
 20
244.05505873716359
 30
0.0
  0
VERTEX
  5
272E3
  8
0
 10
161.9423481799445
 20
244.02925321506069
 30
0.0
  0
VERTEX
  5
272E4
  8
0
 10
161.9264846151228
 20
244.0028445414255
 30
0.0
  0
VERTEX
  5
272E5
  8
0
 10
161.91102894286999
 20
243.975869301833
 30
0.0
  0
VERTEX
  5
272E6
  8
0
 10
161.90346728339679
 20
243.96218180525369
 30
0.0
  0
VERTEX
  5
272E7
  8
0
 10
161.8960232004718
 20
243.94836826551
 30
0.0
  0
VERTEX
  5
272E8
  8
0
 10
161.88150721016959
 20
243.92038604029401
 30
0.0
  0
VERTEX
  5
272E9
  8
0
 10
161.86751804792499
 20
243.89197057921319
 30
0.0
  0
VERTEX
  5
272EA
  8
0
 10
161.86073173338471
 20
243.8776161240321
 30
0.0
  0
SEQEND
  5
272EB
  8
0
  0
POLYLINE
  5
1E47D
  8
0
 66
     1
 10
0.0
 20
0.0
 30
0.0
  0
VERTEX
  5
272EC
  8
0
 10
142.7584875426397
 20
237.74368873142069
 30
0.0
  0
VERTEX
  5
272ED
  8
0
 10
142.64821068426519
 20
237.7454264464422
 30
0.0
  0
VERTEX
  5
272EE
  8
0
 10
142.4280948696468
 20
237.7593178152247
 30
0.0
  0
VERTEX
  5
272EF
  8
0
 10
142.20929102253959
 20
237.78704539108179
 30
0.0
  0
VERTEX
  5
272F0
  8
0
 10
142.10065290223929
 20
237.80606548477411
 30
0.0
  0
VERTEX
  5
272F1
  8
0
 10
141.99266799858799
 20
237.82849906963841
 30
0.0
  0
VERTEX
  5
272F2
  8
0
 10
141.7790859935312
 20
237.8835142410708
 30
0.0
  0
VERTEX
  5
272F3
  8
0
 10
141.5693931274231
 20
237.9518724437612
 30
0.0
  0
VERTEX
  5
272F4
  8
0
 10
141.36442207680341
 20
238.03330223179819
 30
0.0
  0
VERTEX
  5
272F5
  8
0
 10
141.16498676819401
 20
238.1274802528624
 30
0.0
  0
VERTEX
  5
272F6
  8
0
 10
140.9718791460501
 20
238.23403253224569
 30
0.0
  0
VERTEX
  5
272F7
  8
0
 10
140.87793891342579
 20
238.29181867107579
 30
0.0
  0
VERTEX
  5
272F8
  8
0
 10
140.78586602800181
 20
238.35253595787441
 30
0.0
  0
VERTEX
  5
272F9
  8
0
 10
140.6076860598711
 20
238.48251996046201
 30
0.0
  0
VERTEX
  5
272FA
  8
0
 10
140.4380467825583
 20
238.62346838210851
 30
0.0
  0
VERTEX
  5
272FB
  8
0
 10
140.27762182244419
 20
238.77482152592799
 30
0.0
  0
VERTEX
  5
272FC
  8
0
 10
140.12704821646321
 20
238.93597837857129
 30
0.0
  0
VERTEX
  5
272FD
  8
0
 10
139.98692388247301
 20
239.10629899680501
 30
0.0
  0
VERTEX
  5
272FE
  8
0
 10
139.92095575754391
 20
239.19468571322611
 30
0.0
  0
VERTEX
  5
272FF
  8
0
 10
139.85780524496079
 20
239.2851070486895
 30
0.0
  0
VERTEX
  5
27300
  8
0
 10
139.7877742954374
 20
239.3930502462226
 30
0.0
  0
VERTEX
  5
27301
  8
0
 10
139.76849889081359
 20
239.4243570239114
 30
0.0
  0
VERTEX
  5
27302
  8
0
 10
139.74955339923159
 20
239.4558645452571
 30
0.0
  0
VERTEX
  5
27303
  8
0
 10
139.74020502551929
 20
239.47169249924539
 30
0.0
  0
VERTEX
  5
27304
  8
0
 10
139.7309399111225
 20
239.4875693337444
 30
0.0
  0
VERTEX
  5
27305
  8
0
 10
139.7126604802842
 20
239.519467891093
 30
0.0
  0
VERTEX
  5
27306
  8
0
 10
139.6947171236549
 20
239.55155669763829
 30
0.0
  0
VERTEX
  5
27307
  8
0
 10
139.67711182109099
 20
239.5838322127274
 30
0.0
  0
VERTEX
  5
27308
  8
0
 10
139.65984651514771
 20
239.6162908751048
 30
0.0
  0
VERTEX
  5
27309
  8
0
 10
139.64292311086569
 20
239.6489291033067
 30
0.0
  0
VERTEX
  5
2730A
  8
0
 10
139.6345902068629
 20
239.66531442995529
 30
0.0
  0
VERTEX
  5
2730B
  8
0
 10
139.62634347556019
 20
239.6817432960552
 30
0.0
  0
VERTEX
  5
2730C
  8
0
 10
139.61010943861569
 20
239.71472983265991
 30
0.0
  0
VERTEX
  5
2730D
  8
0
 10
139.5942227912831
 20
239.74788507340961
 30
0.0
  0
VERTEX
  5
2730E
  8
0
 10
139.58641028801139
 20
239.76452481532851
 30
0.0
  0
SEQEND
  5
2730F
  8
0
  0
LINE
  5
1E47E
  8
0
 10
139.58641028801139
 20
239.76452481532851
 30
0.0
 11
137.66844431207221
 21
243.8776161240321
 31
0.0
  0
POLYLINE
  5
1E47F
  8
0
 66
     1
 10
0.0
 20
0.0
 30
0.0
  0
VERTEX
  5
27310
  8
0
 10
137.66844431207221
 20
243.8776161240321
 30
0.0
  0
VERTEX
  5
27311
  8
0
 10
137.6616579975319
 20
243.89197057921319
 30
0.0
  0
VERTEX
  5
27312
  8
0
 10
137.64766883528719
 20
243.92038604029401
 30
0.0
  0
VERTEX
  5
27313
  8
0
 10
137.63315284498509
 20
243.94836826551
 30
0.0
  0
VERTEX
  5
27314
  8
0
 10
137.62570876206021
 20
243.96218180525369
 30
0.0
  0
VERTEX
  5
27315
  8
0
 10
137.6181471025869
 20
243.975869301833
 30
0.0
  0
VERTEX
  5
27316
  8
0
 10
137.60269143033409
 20
244.0028445414255
 30
0.0
  0
VERTEX
  5
27317
  8
0
 10
137.58682786551239
 20
244.02925321506069
 30
0.0
  0
VERTEX
  5
27318
  8
0
 10
137.57060013051679
 20
244.05505873716359
 30
0.0
  0
VERTEX
  5
27319
  8
0
 10
137.55405311011509
 20
244.08022892969259
 30
0.0
  0
VERTEX
  5
2731A
  8
0
 10
137.53723207508
 20
244.10473652590639
 30
0.0
  0
VERTEX
  5
2731B
  8
0
 10
137.52873232725801
 20
244.11673551123289
 30
0.0
  0
VERTEX
  5
2731C
  8
0
 10
137.5201805475501
 20
244.1285613822574
 30
0.0
  0
VERTEX
  5
2731D
  8
0
 10
137.50294413958039
 20
244.15168428056401
 30
0.0
  0
VERTEX
  5
2731E
  8
0
 10
137.48556997108031
 20
244.17408769551091
 30
0.0
  0
VERTEX
  5
2731F
  8
0
 10
137.46810588486409
 20
244.19575663002431
 30
0.0
  0
VERTEX
  5
27320
  8
0
 10
137.45060007601569
 20
244.21667876755509
 30
0.0
  0
VERTEX
  5
27321
  8
0
 10
137.43310075816751
 20
244.23684452853291
 30
0.0
  0
VERTEX
  5
27322
  8
0
 10
137.42436853143789
 20
244.24664151907291
 30
0.0
  0
VERTEX
  5
27323
  8
0
 10
137.41565586678061
 20
244.25624705090291
 30
0.0
  0
VERTEX
  5
27324
  8
0
 10
137.3983127981555
 20
244.27488211195219
 30
0.0
  0
VERTEX
  5
27325
  8
0
 10
137.38111818189719
 20
244.2927480060153
 30
0.0
  0
VERTEX
  5
27326
  8
0
 10
137.37259085643331
 20
244.30139263322511
 30
0.0
  0
VERTEX
  5
27327
  8
0
 10
137.36411768377411
 20
244.30984539040671
 30
0.0
  0
VERTEX
  5
27328
  8
0
 10
137.3473361652575
 20
244.32619597803389
 30
0.0
  0
VERTEX
  5
27329
  8
0
 10
137.3306126696111
 20
244.34199290844299
 30
0.0
  0
VERTEX
  5
2732A
  8
0
 10
137.32225718942641
 20
244.34970621333281
 30
0.0
  0
VERTEX
  5
2732B
  8
0
 10
137.31390689764419
 20
244.3572987256957
 30
0.0
  0
VERTEX
  5
2732C
  8
0
 10
137.29722475524741
 20
244.3721290288604
 30
0.0
  0
VERTEX
  5
2732D
  8
0
 10
137.28057176891741
 20
244.38649866666219
 30
0.0
  0
VERTEX
  5
2732E
  8
0
 10
137.2639531438212
 20
244.4004217691745
 30
0.0
  0
VERTEX
  5
2732F
  8
0
 10
137.247373814718
 20
244.4139117816521
 30
0.0
  0
VERTEX
  5
27330
  8
0
 10
137.23083849017959
 20
244.4269814998643
 30
0.0
  0
VERTEX
  5
27331
  8
0
 10
137.22258874867171
 20
244.43336257861569
 30
0.0
  0
VERTEX
  5
27332
  8
0
 10
137.21435169057881
 20
244.4396431063424
 30
0.0
  0
VERTEX
  5
27333
  8
0
 10
137.19791778032189
 20
244.45190820702101
 30
0.0
  0
VERTEX
  5
27334
  8
0
 10
137.18154099480961
 20
244.46378786782321
 30
0.0
  0
VERTEX
  5
27335
  8
0
 10
137.12473094283939
 20
244.5024796960279
 30
0.0
  0
VERTEX
  5
27336
  8
0
 10
137.02956376434599
 20
244.55927332809731
 30
0.0
  0
VERTEX
  5
27337
  8
0
 10
136.93783424297661
 20
244.60550577154211
 30
0.0
  0
VERTEX
  5
27338
  8
0
 10
136.85019835203431
 20
244.64264746700431
 30
0.0
  0
VERTEX
  5
27339
  8
0
 10
136.80810865604619
 20
244.6582109870387
 30
0.0
  0
VERTEX
  5
2733A
  8
0
 10
136.76726258875939
 20
244.67196723395139
 30
0.0
  0
VERTEX
  5
2733B
  8
0
 10
136.68954853998639
 20
244.69460898743449
 30
0.0
  0
VERTEX
  5
2733C
  8
0
 10
136.61751062598921
 20
244.71161600367489
 30
0.0
  0
VERTEX
  5
2733D
  8
0
 10
136.55154054875351
 20
244.723947376654
 30
0.0
  0
VERTEX
  5
2733E
  8
0
 10
136.49197737885501
 20
244.73248452750801
 30
0.0
  0
VERTEX
  5
2733F
  8
0
 10
136.43909736934401
 20
244.73803479408519
 30
0.0
  0
VERTEX
  5
27340
  8
0
 10
136.4152299774953
 20
244.73992116706449
 30
0.0
  0
VERTEX
  5
27341
  8
0
 10
136.3931046955876
 20
244.74132803323479
 30
0.0
  0
VERTEX
  5
27342
  8
0
 10
136.35413598555601
 20
244.7430089689351
 30
0.0
  0
VERTEX
  5
27343
  8
0
 10
136.32225913284839
 20
244.74362997510801
 30
0.0
  0
VERTEX
  5
27344
  8
0
 10
136.30898263151721
 20
244.74368873142069
 30
0.0
  0
SEQEND
  5
27345
  8
0
  0
LINE
  5
1E480
  8
0
 10
192.2645880227285
 20
246.74368873142069
 30
0.0
 11
107.2645880227285
 21
246.74368873142069
 31
0.0
  0
LINE
  5
1E481
  8
0
 10
147.2645880227285
 20
219.74368873142069
 30
0.0
 11
152.2645880227285
 21
219.74368873142069
 31
0.0
  0
LINE
  5
1E482
  8
0
 10
152.2645880227285
 20
139.7436887314206
 30
0.0
 11
147.2645880227285
 21
139.7436887314206
 31
0.0
  0
ARC
  5
1E483
  8
0
 10
147.2645880227285
 20
139.9936887314206
 30
0.0
 40
0.2499999999999929
 50
180.0
 51
270.0
  0
ARC
  5
1E484
  8
0
 10
147.2645880227285
 20
219.49368873142069
 30
0.0
 40
0.249999999999996
 50
90.0
 51
180.0
  0
LINE
  5
1E485
  8
0
 10
145.0145880227285
 20
219.49368873142069
 30
0.0
 11
147.0145880227285
 21
219.49368873142069
 31
0.0
  0
LINE
  5
1E486
  8
0
 10
147.0145880227285
 20
139.9936887314206
 30
0.0
 11
145.0145880227285
 21
139.9936887314206
 31
0.0
  0
ARC
  5
1E487
  8
0
 10
144.7645880227285
 20
139.9936887314206
 30
0.0
 40
0.2499999999999973
 50
270.0
 51
0.0
  0
ARC
  5
1E488
  8
0
 10
144.7645880227285
 20
219.49368873142069
 30
0.0
 40
0.2499999999999929
 50
0.0
 51
90.0
  0
LINE
  5
1E489
  8
0
 10
143.36824072527719
 20
219.74368873142069
 30
0.0
 11
144.7645880227285
 21
219.74368873142069
 31
0.0
  0
LINE
  5
1E48A
  8
0
 10
144.7645880227285
 20
139.7436887314206
 30
0.0
 11
143.36824072527719
 21
139.7436887314206
 31
0.0
  0
ARC
  5
1E48B
  8
0
 10
143.3682407252773
 20
140.5770220647546
 30
0.0
 40
0.8333333333333499
 50
198.9999999999882
 51
270.0
  0
ARC
  5
1E48C
  8
0
 10
143.3682407252773
 20
218.9103553980876
 30
0.0
 40
0.8333333333333488
 50
90.0
 51
161.0000000000118
  0
LINE
  5
1E48D
  8
0
 10
141.8220791567141
 20
216.97960405765389
 30
0.0
 11
142.58030857894451
 21
219.18166219346861
 31
0.0
  0
LINE
  5
1E48E
  8
0
 10
142.58030857894451
 20
140.30571526937359
 30
0.0
 11
141.8220791567141
 21
142.50777340518829
 31
0.0
  0
ARC
  5
1E48F
  8
0
 10
144.18587559571239
 20
143.3216937913312
 30
0.0
 40
2.499999999999948
 50
180.0
 51
198.9999999999882
  0
ARC
  5
1E490
  8
0
 10
144.18587559571239
 20
216.1656836715101
 30
0.0
 40
2.4999999999999529
 50
161.0000000000118
 51
180.0
  0
ARC
  5
1E491
  8
0
 10
141.26920892904579
 20
144.11342513432641
 30
0.0
 40
0.4166666666666679
 50
180.0
 51
0.0
  0
ARC
  5
1E492
  8
0
 10
141.26920892904579
 20
215.3739523285158
 30
0.0
 40
0.4166666666666679
 50
0.0
 51
180.0
  0
ARC
  5
1E493
  8
0
 10
140.43587559571239
 20
146.5336008657232
 30
0.0
 40
0.4166666666666661
 50
180.0
 51
0.0
  0
ARC
  5
1E494
  8
0
 10
140.43587559571239
 20
212.953776597119
 30
0.0
 40
0.4166666666666661
 50
0.0
 51
180.0
  0
LINE
  5
1E495
  8
0
 10
137.40079158373021
 20
204.13925259486041
 30
0.0
 11
140.01920892904579
 21
211.74368873142069
 31
0.0
  0
LINE
  5
1E496
  8
0
 10
140.01920892904579
 20
147.7436887314206
 30
0.0
 11
137.40079158373021
 21
155.3481248679818
 31
0.0
  0
ARC
  5
1E497
  8
0
 10
139.7645880227285
 20
156.16204525412459
 30
0.0
 40
2.5000000000000342
 50
180.0
 51
198.9999999999882
  0
ARC
  5
1E498
  8
0
 10
139.7645880227285
 20
203.32533220871761
 30
0.0
 40
2.5000000000000329
 50
161.0000000000118
 51
180.0
  0
ARC
  5
1E499
  8
0
 10
159.76458802272839
 20
156.16204525412459
 30
0.0
 40
2.5000000000000919
 50
341.00000000001182
 51
0.0
  0
ARC
  5
1E49A
  8
0
 10
159.76458802272839
 20
203.32533220871761
 30
0.0
 40
2.500000000000095
 50
0.0
 51
18.999999999988191
  0
LINE
  5
1E49B
  8
0
 10
159.50996711641119
 20
211.74368873142069
 30
0.0
 11
162.1283844617268
 21
204.13925259486041
 31
0.0
  0
LINE
  5
1E49C
  8
0
 10
162.1283844617268
 20
155.3481248679818
 30
0.0
 11
159.50996711641119
 21
147.7436887314206
 31
0.0
  0
ARC
  5
1E49D
  8
0
 10
159.0933004497445
 20
146.5336008657232
 30
0.0
 40
0.4166666666666679
 50
180.0
 51
0.0
  0
ARC
  5
1E49E
  8
0
 10
159.0933004497445
 20
212.953776597119
 30
0.0
 40
0.4166666666666679
 50
0.0
 51
180.0
  0
ARC
  5
1E49F
  8
0
 10
158.2599671164111
 20
144.11342513432641
 30
0.0
 40
0.4166666666666661
 50
180.0
 51
0.0
  0
ARC
  5
1E4A0
  8
0
 10
158.2599671164111
 20
215.3739523285158
 30
0.0
 40
0.4166666666666661
 50
0.0
 51
180.0
  0
ARC
  5
1E4A1
  8
0
 10
155.34330044974439
 20
143.3216937913312
 30
0.0
 40
2.5000000000000879
 50
341.00000000001182
 51
0.0
  0
ARC
  5
1E4A2
  8
0
 10
155.34330044974439
 20
216.1656836715101
 30
0.0
 40
2.5000000000000111
 50
0.0
 51
18.999999999988191
  0
LINE
  5
1E4A3
  8
0
 10
156.94886746651241
 20
219.18166219346861
 30
0.0
 11
157.70709688874271
 21
216.97960405765389
 31
0.0
  0
LINE
  5
1E4A4
  8
0
 10
157.70709688874271
 20
142.50777340518829
 30
0.0
 11
156.94886746651241
 21
140.30571526937359
 31
0.0
  0
ARC
  5
1E4A5
  8
0
 10
156.16093532017959
 20
140.5770220647546
 30
0.0
 40
0.8333333333333431
 50
270.0
 51
341.00000000001182
  0
ARC
  5
1E4A6
  8
0
 10
156.16093532017959
 20
218.9103553980876
 30
0.0
 40
0.8333333333333428
 50
18.999999999988191
 51
90.0
  0
LINE
  5
1E4A7
  8
0
 10
154.7645880227285
 20
219.74368873142069
 30
0.0
 11
156.16093532017959
 21
219.74368873142069
 31
0.0
  0
LINE
  5
1E4A8
  8
0
 10
156.16093532017959
 20
139.7436887314206
 30
0.0
 11
154.7645880227285
 21
139.7436887314206
 31
0.0
  0
ARC
  5
1E4A9
  8
0
 10
154.7645880227285
 20
139.9936887314206
 30
0.0
 40
0.2499999999999929
 50
180.0
 51
270.0
  0
ARC
  5
1E4AA
  8
0
 10
154.7645880227285
 20
219.49368873142069
 30
0.0
 40
0.2499999999999947
 50
90.0
 51
180.0
  0
LINE
  5
1E4AB
  8
0
 10
152.5145880227285
 20
219.49368873142069
 30
0.0
 11
154.5145880227285
 21
219.49368873142069
 31
0.0
  0
LINE
  5
1E4AC
  8
0
 10
154.5145880227285
 20
139.9936887314206
 30
0.0
 11
152.5145880227285
 21
139.9936887314206
 31
0.0
  0
ARC
  5
1E4AD
  8
0
 10
152.2645880227285
 20
139.9936887314206
 30
0.0
 40
0.2499999999999964
 50
270.0
 51
0.0
  0
ARC
  5
1E4AE
  8
0
 10
152.2645880227285
 20
219.49368873142069
 30
0.0
 40
0.2499999999999929
 50
0.0
 51
90.0
  0
LINE
  5
1E4AF
  8
0
 10
147.0145880227285
 20
139.9936887314206
 30
0.0
 11
147.0145880227285
 21
219.49368873142069
 31
0.0
  0
LINE
  5
1E4B0
  8
0
 10
145.0145880227285
 20
139.9936887314206
 30
0.0
 11
145.0145880227285
 21
219.49368873142069
 31
0.0
  0
LINE
  5
1E4B1
  8
0
 10
141.68587559571239
 20
143.3216937913312
 30
0.0
 11
141.68587559571239
 21
216.1656836715101
 31
0.0
  0
LINE
  5
1E4B2
  8
0
 10
140.8525422623791
 20
144.11342513432641
 30
0.0
 11
140.8525422623791
 21
215.3739523285158
 31
0.0
  0
LINE
  5
1E4B3
  8
0
 10
140.01920892904579
 20
146.5336008657232
 30
0.0
 11
140.01920892904579
 21
212.953776597119
 31
0.0
  0
LINE
  5
1E4B4
  8
0
 10
137.2645880227285
 20
156.16204525412459
 30
0.0
 11
137.2645880227285
 21
203.32533220871761
 31
0.0
  0
LINE
  5
1E4B5
  8
0
 10
159.50996711641119
 20
146.5336008657232
 30
0.0
 11
159.50996711641119
 21
212.953776597119
 31
0.0
  0
LINE
  5
1E4B6
  8
0
 10
158.67663378307779
 20
144.11342513432641
 30
0.0
 11
158.67663378307779
 21
215.3739523285158
 31
0.0
  0
LINE
  5
1E4B7
  8
0
 10
157.8433004497445
 20
143.3216937913312
 30
0.0
 11
157.8433004497445
 21
216.1656836715101
 31
0.0
  0
LINE
  5
1E4B8
  8
0
 10
154.5145880227285
 20
139.9936887314206
 30
0.0
 11
154.5145880227285
 21
219.49368873142069
 31
0.0
  0
LINE
  5
1E4B9
  8
0
 10
152.5145880227285
 20
139.9936887314206
 30
0.0
 11
152.5145880227285
 21
219.49368873142069
 31
0.0
  0
LINE
  5
1E4BA
  8
0
 10
162.2645880227285
 20
156.16204525412459
 30
0.0
 11
162.2645880227285
 21
203.32533220871761
 31
0.0
  0
LINE
  5
1E4BB
  8
1
 10
200.37094206787791
 20
179.7436887314206
 30
0.0
 11
99.15823397757913
 21
179.7436887314206
 31
0.0
  0
LINE
  5
1E4BC
  8
1
 10
149.7645880227285
 20
129.137334686271
 30
0.0
 11
149.7645880227285
 21
257.35004277657021
 31
0.0
  0
LINE
  5
1E4BD
  8
3
 10
114.7645880227285
 20
176.5106887314214
 30
0.0
 11
117.2645880227285
 21
176.5106887314214
 31
0.0
  0
LINE
  5
1E4BE
  8
3
 10
114.7645880227285
 20
182.97668873142169
 30
0.0
 11
115.1966515321886
 21
182.9766887314226
 31
0.0
  0
ARC
  5
1E546
  8
0
 10
310.95048305371608
 20
179.7436887314206
 30
0.0
 40
20.00000000000005
 50
176.2240376911559
 51
3.7759623088440701
  0
POLYLINE
  5
1F7BF
  8
0
 66
     1
 10
0.0
 20
0.0
 30
0.0
  0
VERTEX
  5
27346
  8
0
 10
514.62814132451751
 20
194.7882579356683
 30
0.0
  0
VERTEX
  5
27347
  8
0
 10
514.62365363733795
 20
194.62505466348921
 30
0.0
  0
VERTEX
  5
27348
  8
0
 10
514.61801860327125
 20
194.46412317331209
 30
0.0
  0
VERTEX
  5
27349
  8
0
 10
514.61115343061283
 20
194.30555504232501
 30
0.0
  0
VERTEX
  5
2734A
  8
0
 10
514.60297630482683
 20
194.14943728061189
 30
0.0
  0
VERTEX
  5
2734B
  8
0
 10
514.59837049173132
 20
194.07232247330191
 30
0.0
  0
VERTEX
  5
2734C
  8
0
 10
514.59340658454528
 20
193.99585047878099
 30
0.0
  0
VERTEX
  5
2734D
  8
0
 10
514.58236549063759
 20
193.84487489909861
 30
0.0
  0
VERTEX
  5
2734E
  8
0
 10
514.56977653670447
 20
193.69658920147319
 30
0.0
  0
VERTEX
  5
2734F
  8
0
 10
514.55556595287896
 20
193.55106955875269
 30
0.0
  0
VERTEX
  5
27350
  8
0
 10
514.53966310721205
 20
193.4083890440088
 30
0.0
  0
VERTEX
  5
27351
  8
0
 10
514.52200090459951
 20
193.26861703083429
 30
0.0
  0
VERTEX
  5
27352
  8
0
 10
514.51249013564825
 20
193.1998422354481
 30
0.0
  0
VERTEX
  5
27353
  8
0
 10
514.50251615467914
 20
193.13181860711569
 30
0.0
  0
VERTEX
  5
27354
  8
0
 10
514.48114989919441
 20
192.9980540033493
 30
0.0
  0
VERTEX
  5
27355
  8
0
 10
514.45784768836074
 20
192.8673780372765
 30
0.0
  0
VERTEX
  5
27356
  8
0
 10
514.44545487104256
 20
192.80321381140669
 30
0.0
  0
SEQEND
  5
27357
  8
0
  0
TEXT
  5
26C19
  8
0
 62
     3
 10
0.0
 20
0.0
 30
0.0
 40
10.0
  1
CAE2-080PBL
  7
STANDARD1
  0
ENDSEC
  0
EOF
