  0
SECTION
  2
HEADER
  9
$ACADVER
  1
AC1009
  9
$INSBASE
 10
0.0
 20
0.0
 30
0.0
  9
$EXTMIN
 10
0.0
 20
-2.960436562073669
 30
0.0
  9
$EXTMAX
 10
555.31735534677023
 20
434.56908870836833
 30
0.0
  9
$LIMMIN
 10
0.0
 20
0.0
  9
$LIMMAX
 10
375.0
 20
270.0
  9
$ORTHOMODE
 70
     1
  9
$REGENMODE
 70
     1
  9
$FILLMODE
 70
     1
  9
$QTEXTMODE
 70
     0
  9
$MIRRTEXT
 70
     1
  9
$DRAGMODE
 70
     2
  9
$LTSCALE
 40
10.0
  9
$OSMODE
 70
  3071
  9
$ATTMODE
 70
     1
  9
$TEXTSIZE
 40
5.0
  9
$TRACEWID
 40
0.05
  9
$TEXTSTYLE
  7
STANDARD
  9
$CLAYER
  8
0
  9
$CELTYPE
  6
BYLAYER
  9
$CECOLOR
 62
     6
  9
$DIMSCALE
 40
2.0
  9
$DIMASZ
 40
3.0
  9
$DIMEXO
 40
2.0
  9
$DIMDLI
 40
0.38
  9
$DIMRND
 40
0.0
  9
$DIMDLE
 40
0.0
  9
$DIMEXE
 40
2.0
  9
$DIMTP
 40
0.0
  9
$DIMTM
 40
0.0
  9
$DIMTXT
 40
3.2000000000000002
  9
$DIMCEN
 40
0.0
  9
$DIMTSZ
 40
0.0
  9
$DIMTOL
 70
     0
  9
$DIMLIM
 70
     0
  9
$DIMTIH
 70
     0
  9
$DIMTOH
 70
     0
  9
$DIMSE1
 70
     0
  9
$DIMSE2
 70
     0
  9
$DIMTAD
 70
     1
  9
$DIMZIN
 70
     8
  9
$DIMBLK
  1

  9
$DIMASO
 70
     0
  9
$DIMSHO
 70
     0
  9
$DIMPOST
  1

  9
$DIMAPOST
  1

  9
$DIMALT
 70
     0
  9
$DIMALTD
 70
     2
  9
$DIMALTF
 40
25.399999999999999
  9
$DIMLFAC
 40
1.0
  9
$DIMTOFL
 70
     0
  9
$DIMTVP
 40
1.6000000000000001
  9
$DIMTIX
 70
     1
  9
$DIMSOXD
 70
     0
  9
$DIMSAH
 70
     0
  9
$DIMBLK1
  1

  9
$DIMBLK2
  1

  9
$DIMSTYLE
  2
STANDARD
  9
$DIMCLRD
 70
     0
  9
$DIMCLRE
 70
     0
  9
$DIMCLRT
 70
     0
  9
$DIMTFAC
 40
1.0
  9
$DIMGAP
 40
1.1999999999999991
  9
$LUNITS
 70
     2
  9
$LUPREC
 70
     4
  9
$SKETCHINC
 40
0.1
  9
$FILLETRAD
 40
0.0
  9
$AUNITS
 70
     0
  9
$AUPREC
 70
     4
  9
$MENU
  1
ACAD
  9
$ELEVATION
 40
0.0
  9
$PELEVATION
 40
0.0
  9
$THICKNESS
 40
0.0
  9
$LIMCHECK
 70
     0
  9
$BLIPMODE
 70
     0
  9
$CHAMFERA
 40
0.0
  9
$CHAMFERB
 40
0.0
  9
$SKPOLY
 70
     0
  9
$TDCREATE
 40
2448055.7149187499
  9
$TDUPDATE
 40
2456598.5582447462
  9
$TDINDWG
 40
2.7184562962999999
  9
$TDUSRTIMER
 40
2.7184562962999999
  9
$USRTIMER
 70
     1
  9
$ANGBASE
 50
0.0
  9
$ANGDIR
 70
     0
  9
$PDMODE
 70
     0
  9
$PDSIZE
 40
0.0
  9
$PLINEWID
 40
0.0
  9
$COORDS
 70
     1
  9
$SPLFRAME
 70
     0
  9
$SPLINETYPE
 70
     6
  9
$SPLINESEGS
 70
     8
  9
$ATTDIA
 70
     0
  9
$ATTREQ
 70
     1
  9
$HANDLING
 70
     1
  9
$HANDSEED
  5
271DC
  9
$SURFTAB1
 70
     6
  9
$SURFTAB2
 70
     6
  9
$SURFTYPE
 70
     6
  9
$SURFU
 70
     6
  9
$SURFV
 70
     6
  9
$UCSNAME
  2

  9
$UCSORG
 10
0.0
 20
0.0
 30
0.0
  9
$UCSXDIR
 10
1.0
 20
0.0
 30
0.0
  9
$UCSYDIR
 10
0.0
 20
1.0
 30
0.0
  9
$PUCSNAME
  2

  9
$PUCSORG
 10
0.0
 20
0.0
 30
0.0
  9
$PUCSXDIR
 10
1.0
 20
0.0
 30
0.0
  9
$PUCSYDIR
 10
0.0
 20
1.0
 30
0.0
  9
$USERI1
 70
     0
  9
$USERI2
 70
     0
  9
$USERI3
 70
     0
  9
$USERI4
 70
     0
  9
$USERI5
 70
     0
  9
$USERR1
 40
0.0
  9
$USERR2
 40
0.0
  9
$USERR3
 40
0.0
  9
$USERR4
 40
0.0
  9
$USERR5
 40
0.0
  9
$WORLDVIEW
 70
     1
  9
$SHADEDGE
 70
     3
  9
$SHADEDIF
 70
    70
  9
$TILEMODE
 70
     1
  9
$MAXACTVP
 70
    16
  9
$PLIMCHECK
 70
     0
  9
$PEXTMIN
 10
1.0000000000000000E+020
 20
1.0000000000000000E+020
 30
1.0000000000000000E+020
  9
$PEXTMAX
 10
-1.0000000000000000E+020
 20
-1.0000000000000000E+020
 30
-1.0000000000000000E+020
  9
$PLIMMIN
 10
0.0
 20
0.0
  9
$PLIMMAX
 10
12.0
 20
9.0
  9
$UNITMODE
 70
     0
  9
$VISRETAIN
 70
     0
  9
$PLINEGEN
 70
     1
  9
$PSLTSCALE
 70
     0
  0
ENDSEC
  0
SECTION
  2
TABLES
  0
TABLE
  2
VPORT
 70
     1
  0
VPORT
  2
*ACTIVE
 70
     0
 10
0.0
 20
0.0
 11
1.0
 21
1.0
 12
289.78261740868709
 22
215.80914829644189
 13
0.0
 23
0.0
 14
5.0
 24
5.0
 15
10.0
 25
10.0
 16
0.0
 26
0.0
 36
1.0
 17
0.0
 27
0.0
 37
0.0
 40
441.47058986071858
 41
1.831871345029239
 42
50.0
 43
0.0
 44
0.0
 50
0.0
 51
0.0
 71
     0
 72
   500
 73
     1
 74
     1
 75
     0
 76
     0
 77
     0
 78
     2
  0
ENDTAB
  0
TABLE
  2
LTYPE
 70
     3
  0
LTYPE
  2
CONTINUOUS
 70
     0
  3
実線
 72
    65
 73
     0
 40
0.0
  0
LTYPE
  2
CENTER
 70
     0
  3
____ _ ____ _ ____ _ ____ _ ____ _ ____ _ ____
 72
    65
 73
     4
 40
2.0
 49
1.25
 49
-0.25
 49
0.25
 49
-0.25
  0
LTYPE
  2
PHANTOM2
 70
     0
  3
___ _ _ ___ _ _ ___ _ _ ___ _ _
 72
    65
 73
     6
 40
1.25
 49
0.625
 49
-0.125
 49
0.125
 49
-0.125
 49
0.125
 49
-0.125
  0
ENDTAB
  0
TABLE
  2
LAYER
 70
     4
  0
LAYER
  2
0
 70
     0
 62
     7
  6
CONTINUOUS
  0
LAYER
  2
1
 70
     0
 62
     1
  6
CENTER
  0
LAYER
  2
DEFPOINTS
 70
     0
 62
     7
  6
CONTINUOUS
  0
LAYER
  2
3
 70
     0
 62
     3
  6
CONTINUOUS
  0
ENDTAB
  0
TABLE
  2
STYLE
 70
     3
  0
STYLE
  2
STANDARD
 70
     0
 40
0.0
 41
1.0
 50
0.0
 71
     0
 42
5.0
  3
simplex.shx
  4
bigfont.shx
  0
STYLE
  2
07500
 70
     0
 40
0.0
 41
0.75
 50
0.0
 71
     0
 42
0.2
  3
simplex.shx
  4
bigfont.shx
  0
STYLE
  2
STANDARD1
 70
     0
 40
0.0
 41
1.0
 50
0.0
 71
     0
 42
3.0
  3
txt
  4

  0
ENDTAB
  0
TABLE
  2
VIEW
 70
     2
  0
VIEW
  2
ALL
 70
     0
 40
270.0
 10
220.99159663865549
 20
135.0
 41
0.0
 11
0.0
 21
0.0
 31
1.0
 12
0.0
 22
0.0
 32
0.0
 42
0.0
 43
0.0
 44
0.0
 50
0.0
 71
     0
  0
VIEW
  2
OLE1
 70
     0
 40
168.2487151179721
 10
2892.3009567448912
 20
702.51600084347126
 41
162.5749581879237
 11
0.0
 21
0.0
 31
1.0
 12
0.0
 22
0.0
 32
0.0
 42
50.0
 43
0.0
 44
0.0
 50
0.0
 71
     0
  0
ENDTAB
  0
TABLE
  2
UCS
 70
     0
  0
ENDTAB
  0
TABLE
  2
APPID
 70
    48
  0
APPID
  2
ACAD
 70
     0
  0
APPID
  2
DCO15
 70
     0
  0
APPID
  2
GENIUS_GENOREF_13
 70
     0
  0
APPID
  2
GENIUS_GENOENT_13
 70
     0
  0
APPID
  2
GENIUS_GENBH_13
 70
     0
  0
APPID
  2
GENIUS_GENOBJ_13
 70
     0
  0
APPID
  2
GENIUS_GENODEF_13
 70
     0
  0
APPID
  2
GENIUS_GENOLIS_13
 70
     0
  0
APPID
  2
GENIUS_GENOBJ-NBEHI-BHF_13
 70
     0
  0
APPID
  2
GENIUS_GENOBJ-NBEHI-BHB_13
 70
     0
  0
APPID
  2
GENIUS_GENOBJ-F-PART_13
 70
     0
  0
APPID
  2
GENIUS_GEFSTDP_13
 70
     0
  0
APPID
  2
GENIUS_GENOBJ-N-RSSYM_13
 70
     0
  0
APPID
  2
GENIUS_GENSYMENT_13
 70
     0
  0
APPID
  2
GENIUS_GENOBJ-N-TIT_13
 70
     0
  0
APPID
  2
GENIUS_GENTITLE_13
 70
     0
  0
APPID
  2
GENIUS_GENZVEED_13
 70
     0
  0
APPID
  2
GENIUS_GENOBJ-N-LEADER_13
 70
     0
  0
APPID
  2
GENIUS_GENOBJ-N-FIL_13
 70
     0
  0
APPID
  2
GENIUS_GENOBJ-N-SEC_13
 70
     0
  0
APPID
  2
GENIUS_GENOBJ-N-CRS_13
 70
     0
  0
APPID
  2
GENIUS_GENOBJ-N-ZOO_13
 70
     0
  0
APPID
  2
GENIUS_GENZOO_13
 70
     0
  0
APPID
  2
GENIUS_GENOBJ-F-TOL_13
 70
     0
  0
APPID
  2
GENIUS_GENFIL_13
 70
     0
  0
APPID
  2
GENIUS_GENOBJ-N-CHA_13
 70
     0
  0
APPID
  2
_CALL_MAC$
 70
     0
  0
APPID
  2
ASM_BASE
 70
     0
  0
APPID
  2
ASM_EXPLO_VER_2_00
 70
     0
  0
APPID
  2
ASM_CADM_VER_12_00
 70
     0
  0
APPID
  2
ASM_BASEFORO
 70
     0
  0
APPID
  2
ASM_BASETRAVI
 70
     0
  0
APPID
  2
ASM_BASETRAVI1
 70
     0
  0
APPID
  2
ASM_GRUPPI
 70
     0
  0
APPID
  2
ASM_CADM_ALBERO
 70
     0
  0
APPID
  2
ASM_GOLE
 70
     0
  0
APPID
  2
ACAD_MLEADERVER
 70
     0
  0
APPID
  2
ACAD_DSTYLE_DIMJAG
 70
     0
  0
APPID
  2
ACAD_DSTYLE_DIMTALN
 70
     0
  0
APPID
  2
ACAD_EXEMPT_FROM_CAD_STANDARDS
 70
     0
  0
APPID
  2
ACAD_DSTYLE_DIMRADIAL_EXTENSION
 70
     0
  0
APPID
  2
ACAD_PSEXT
 70
     0
  0
APPID
  2
ACAD_DSTYLE_DIMBREAK
 70
     0
  0
APPID
  2
ACAECLAYERSTANDARD
 70
     0
  0
APPID
  2
ACCMTRANSPARENCY
 70
     0
  0
APPID
  2
GRADIENTCOLOR1ACI
 70
     0
  0
APPID
  2
GRADIENTCOLOR2ACI
 70
     0
  0
APPID
  2
ACAD_NAV_VCDISPLAY
 70
     0
  0
ENDTAB
  0
TABLE
  2
DIMSTYLE
 70
     1
  0
DIMSTYLE
  2
STANDARD
 70
     0
  3

  4

  5

  6

  7

 40
1.0
 41
0.18
 42
0.0625
 43
0.38
 44
0.18
 45
0.0
 46
0.0
 47
0.0
 48
0.0
140
0.18
141
0.09
142
0.0
143
25.399999999999999
144
1.0
145
0.0
146
1.0
147
0.09
 71
     0
 72
     0
 73
     1
 74
     1
 75
     0
 76
     0
 77
     0
 78
     0
170
     0
171
     2
172
     0
173
     0
174
     0
175
     0
176
     0
177
     0
178
     0
  0
ENDTAB
  0
ENDSEC
  0
SECTION
  2
BLOCKS
  0
BLOCK
  8
0
  2
$MODEL_SPACE
 70
     0
 10
0.0
 20
0.0
 30
0.0
  3
$MODEL_SPACE
  1

  0
ENDBLK
  5
36
  8
0
  0
BLOCK
 67
     1
  8
0
  2
$PAPER_SPACE
 70
     0
 10
0.0
 20
0.0
 30
0.0
  3
$PAPER_SPACE
  1

  0
ENDBLK
  5
34
 67
     1
  8
0
  0
ENDSEC
  0
SECTION
  2
ENTITIES
  0
LINE
  5
1FC6C
  8
0
 10
314.90231598404739
 20
417.07567298692811
 30
0.0
 11
314.90231598404739
 21
417.42977495317791
 31
0.0
  0
LINE
  5
1FC6D
  8
0
 10
316.37494199178241
 20
418.30867298692817
 30
0.0
 11
319.42992969561169
 21
418.30867298692817
 31
0.0
  0
LINE
  5
1FC6E
  8
0
 10
313.4077773109575
 20
353.77567298692799
 30
0.0
 11
322.54620446040508
 21
353.77567298692799
 31
0.0
  0
LINE
  5
1FC6F
  8
0
 10
314.62083309625251
 20
358.47567298692871
 30
0.0
 11
324.11550350620968
 21
358.47567298692871
 31
0.0
  0
POLYLINE
  5
1FC70
  8
0
 66
     1
 10
0.0
 20
0.0
 30
0.0
  0
VERTEX
  5
26DCA
  8
0
 10
322.031482650714
 20
358.47567298692871
 30
0.0
  0
VERTEX
  5
26DCB
  8
0
 10
321.52904489879847
 20
358.4684828533081
 30
0.0
  0
VERTEX
  5
26DCC
  8
0
 10
320.52028435488609
 20
358.4117082695239
 30
0.0
  0
VERTEX
  5
26DCD
  8
0
 10
319.46449446216229
 20
358.29709793077109
 30
0.0
  0
VERTEX
  5
26DCE
  8
0
 10
318.90231598404739
 20
358.21625327751281
 30
0.0
  0
SEQEND
  5
26DCF
  8
0
  0
POLYLINE
  5
1FC71
  8
0
 66
     1
 10
0.0
 20
0.0
 30
0.0
  0
VERTEX
  5
26DD0
  8
0
 10
318.90231598404739
 20
354.03509269634378
 30
0.0
  0
VERTEX
  5
26DD1
  8
0
 10
319.46449446216229
 20
353.9542480430855
 30
0.0
  0
VERTEX
  5
26DD2
  8
0
 10
320.52028435488609
 20
353.83963770433269
 30
0.0
  0
VERTEX
  5
26DD3
  8
0
 10
321.52904489879847
 20
353.78286312054843
 30
0.0
  0
VERTEX
  5
26DD4
  8
0
 10
322.031482650714
 20
353.77567298692799
 30
0.0
  0
SEQEND
  5
26DD5
  8
0
  0
POLYLINE
  5
1FC72
  8
0
 66
     1
 10
0.0
 20
0.0
 30
0.0
  0
VERTEX
  5
26DD6
  8
0
 10
322.031482650714
 20
353.77567298692799
 30
0.0
  0
VERTEX
  5
26DD7
  8
0
 10
322.11801082448869
 20
353.77588667973669
 30
0.0
  0
VERTEX
  5
26DD8
  8
0
 10
322.2905604601201
 20
353.77758775007078
 30
0.0
  0
VERTEX
  5
26DD9
  8
0
 10
322.46265455047109
 20
353.780971059271
 30
0.0
  0
VERTEX
  5
26DDA
  8
0
 10
322.54861195359581
 20
353.78328879041783
 30
0.0
  0
SEQEND
  5
26DDB
  8
0
  0
POLYLINE
  5
1FC73
  8
0
 66
     1
 10
0.0
 20
0.0
 30
0.0
  0
VERTEX
  5
26DDC
  8
0
 10
324.06949305328641
 20
358.36103752908463
 30
0.0
  0
VERTEX
  5
26DDD
  8
0
 10
323.72054164750512
 20
358.39612815492268
 30
0.0
  0
VERTEX
  5
26DDE
  8
0
 10
323.03939662588778
 20
358.44692268782819
 30
0.0
  0
VERTEX
  5
26DDF
  8
0
 10
322.36811276700291
 20
358.47244159081771
 30
0.0
  0
VERTEX
  5
26DE0
  8
0
 10
322.031482650714
 20
358.47567298692871
 30
0.0
  0
SEQEND
  5
26DE1
  8
0
  0
POLYLINE
  5
1FC74
  8
0
 66
     1
 10
0.0
 20
0.0
 30
0.0
  0
VERTEX
  5
26DE2
  8
0
 10
315.77314931738078
 20
358.47567298692871
 30
0.0
  0
VERTEX
  5
26DE3
  8
0
 10
315.5796105479597
 20
358.47460417799988
 30
0.0
  0
VERTEX
  5
26DE4
  8
0
 10
315.19425686177351
 20
358.46613482002158
 30
0.0
  0
VERTEX
  5
26DE5
  8
0
 10
314.80879371529733
 20
358.44933517441041
 30
0.0
  0
VERTEX
  5
26DE6
  8
0
 10
314.61513708870581
 20
358.43782392764479
 30
0.0
  0
SEQEND
  5
26DE7
  8
0
  0
POLYLINE
  5
1FC75
  8
0
 66
     1
 10
0.0
 20
0.0
 30
0.0
  0
VERTEX
  5
26DE8
  8
0
 10
313.40713805782229
 20
353.92849452097113
 30
0.0
  0
VERTEX
  5
26DE9
  8
0
 10
313.81738776880638
 20
353.88151082333928
 30
0.0
  0
VERTEX
  5
26DEA
  8
0
 10
314.61008255828671
 20
353.8138494912792
 30
0.0
  0
VERTEX
  5
26DEB
  8
0
 10
315.38509703502149
 20
353.77996565665308
 30
0.0
  0
VERTEX
  5
26DEC
  8
0
 10
315.77314931738078
 20
353.77567298692799
 30
0.0
  0
SEQEND
  5
26DED
  8
0
  0
POLYLINE
  5
1FC76
  8
0
 66
     1
 10
0.0
 20
0.0
 30
0.0
  0
VERTEX
  5
26DEE
  8
0
 10
315.77314931738078
 20
353.77567298692799
 30
0.0
  0
VERTEX
  5
26DEF
  8
0
 10
316.27558706929631
 20
353.78286312054843
 30
0.0
  0
VERTEX
  5
26DF0
  8
0
 10
317.28434761320858
 20
353.83963770433269
 30
0.0
  0
VERTEX
  5
26DF1
  8
0
 10
318.34013750593249
 20
353.9542480430855
 30
0.0
  0
VERTEX
  5
26DF2
  8
0
 10
318.90231598404739
 20
354.03509269634378
 30
0.0
  0
SEQEND
  5
26DF3
  8
0
  0
LINE
  5
1FC77
  8
0
 10
318.90231598404739
 20
354.03509269634378
 30
0.0
 11
318.90231598404739
 21
358.21625327751281
 31
0.0
  0
POLYLINE
  5
1FC78
  8
0
 66
     1
 10
0.0
 20
0.0
 30
0.0
  0
VERTEX
  5
26DF4
  8
0
 10
318.90231598404739
 20
358.21625327751281
 30
0.0
  0
VERTEX
  5
26DF5
  8
0
 10
318.34013750593249
 20
358.29709793077109
 30
0.0
  0
VERTEX
  5
26DF6
  8
0
 10
317.28434761320858
 20
358.4117082695239
 30
0.0
  0
VERTEX
  5
26DF7
  8
0
 10
316.27558706929631
 20
358.4684828533081
 30
0.0
  0
VERTEX
  5
26DF8
  8
0
 10
315.77314931738078
 20
358.47567298692871
 30
0.0
  0
SEQEND
  5
26DF9
  8
0
  0
LINE
  5
1FC79
  8
0
 10
314.543368010525
 20
417.07567298692811
 30
0.0
 11
321.25862308322348
 21
417.07567298692811
 31
0.0
  0
LINE
  5
1FC7A
  8
0
 10
313.42496704626268
 20
414.57567298692811
 30
0.0
 11
322.48055466888508
 21
414.57567298692811
 31
0.0
  0
POLYLINE
  5
1FC7B
  8
0
 66
     1
 10
0.0
 20
0.0
 30
0.0
  0
VERTEX
  5
26DFA
  8
0
 10
322.031482650714
 20
414.57567298692811
 30
0.0
  0
VERTEX
  5
26DFB
  8
0
 10
321.52904489879847
 20
414.56848285330841
 30
0.0
  0
VERTEX
  5
26DFC
  8
0
 10
320.52028435488609
 20
414.51170826952409
 30
0.0
  0
VERTEX
  5
26DFD
  8
0
 10
319.46449446216229
 20
414.39709793077049
 30
0.0
  0
VERTEX
  5
26DFE
  8
0
 10
318.90231598404739
 20
414.31625327751311
 30
0.0
  0
SEQEND
  5
26DFF
  8
0
  0
POLYLINE
  5
1FC7C
  8
0
 66
     1
 10
0.0
 20
0.0
 30
0.0
  0
VERTEX
  5
26E00
  8
0
 10
318.90231598404739
 20
409.33509269634391
 30
0.0
  0
VERTEX
  5
26E01
  8
0
 10
319.46449446215797
 20
409.25424804308648
 30
0.0
  0
VERTEX
  5
26E02
  8
0
 10
320.52028435487449
 20
409.13963770433378
 30
0.0
  0
VERTEX
  5
26E03
  8
0
 10
321.52904489877938
 20
409.08286312054861
 30
0.0
  0
VERTEX
  5
26E04
  8
0
 10
322.03148265069109
 20
409.07567298692811
 30
0.0
  0
SEQEND
  5
26E05
  8
0
  0
POLYLINE
  5
1FC7D
  8
0
 66
     1
 10
0.0
 20
0.0
 30
0.0
  0
VERTEX
  5
26E06
  8
0
 10
322.031482650714
 20
409.07567298692811
 30
0.0
  0
VERTEX
  5
26E07
  8
0
 10
322.3989414253777
 20
409.07952263947658
 30
0.0
  0
VERTEX
  5
26E08
  8
0
 10
323.13233028472467
 20
409.10991391143853
 30
0.0
  0
VERTEX
  5
26E09
  8
0
 10
323.87992545331122
 20
409.170515622106
 30
0.0
  0
VERTEX
  5
26E0A
  8
0
 10
324.26518587620689
 20
409.21250469008368
 30
0.0
  0
SEQEND
  5
26E0B
  8
0
  0
LINE
  5
1FC7E
  8
0
 10
322.48145287020998
 20
414.56990368047622
 30
0.0
 11
322.031482650714
 21
414.57567298692811
 31
0.0
  0
POLYLINE
  5
1FC7F
  8
0
 66
     1
 10
0.0
 20
0.0
 30
0.0
  0
VERTEX
  5
26E0C
  8
0
 10
315.77314931738078
 20
414.57567298692811
 30
0.0
  0
VERTEX
  5
26E0D
  8
0
 10
315.38676279175093
 20
414.57141704506279
 30
0.0
  0
VERTEX
  5
26E0E
  8
0
 10
314.61511976886072
 20
414.53782280794979
 30
0.0
  0
VERTEX
  5
26E0F
  8
0
 10
313.82609546976869
 20
414.4707478233413
 30
0.0
  0
VERTEX
  5
26E10
  8
0
 10
313.41789036121099
 20
414.4241798962729
 30
0.0
  0
SEQEND
  5
26E11
  8
0
  0
POLYLINE
  5
1FC80
  8
0
 66
     1
 10
0.0
 20
0.0
 30
0.0
  0
VERTEX
  5
26E12
  8
0
 10
314.8184937713832
 20
409.10148761733387
 30
0.0
  0
VERTEX
  5
26E13
  8
0
 10
314.97766211711308
 20
409.09363887392368
 30
0.0
  0
VERTEX
  5
26E14
  8
0
 10
315.29532607058968
 20
409.08217721291737
 30
0.0
  0
VERTEX
  5
26E15
  8
0
 10
315.61342560943717
 20
409.07640101312421
 30
0.0
  0
VERTEX
  5
26E16
  8
0
 10
315.77314931729597
 20
409.07567298692811
 30
0.0
  0
SEQEND
  5
26E17
  8
0
  0
POLYLINE
  5
1FC81
  8
0
 66
     1
 10
0.0
 20
0.0
 30
0.0
  0
VERTEX
  5
26E18
  8
0
 10
315.77314931738078
 20
409.07567298692811
 30
0.0
  0
VERTEX
  5
26E19
  8
0
 10
316.27558706929631
 20
409.08286312054861
 30
0.0
  0
VERTEX
  5
26E1A
  8
0
 10
317.28434761320858
 20
409.13963770433293
 30
0.0
  0
VERTEX
  5
26E1B
  8
0
 10
318.34013750593249
 20
409.25424804308562
 30
0.0
  0
VERTEX
  5
26E1C
  8
0
 10
318.90231598404739
 20
409.33509269634391
 30
0.0
  0
SEQEND
  5
26E1D
  8
0
  0
LINE
  5
1FC82
  8
0
 10
318.90231598404739
 20
409.33509269634391
 30
0.0
 11
318.90231598404739
 21
414.31625327751311
 31
0.0
  0
POLYLINE
  5
1FC83
  8
0
 66
     1
 10
0.0
 20
0.0
 30
0.0
  0
VERTEX
  5
26E1E
  8
0
 10
318.90231598404739
 20
414.31625327751311
 30
0.0
  0
VERTEX
  5
26E1F
  8
0
 10
318.34013750593249
 20
414.39709793077049
 30
0.0
  0
VERTEX
  5
26E20
  8
0
 10
317.28434761320858
 20
414.51170826952409
 30
0.0
  0
VERTEX
  5
26E21
  8
0
 10
316.27558706929631
 20
414.56848285330841
 30
0.0
  0
VERTEX
  5
26E22
  8
0
 10
315.77314931738078
 20
414.57567298692811
 30
0.0
  0
SEQEND
  5
26E23
  8
0
  0
LINE
  5
1FC84
  8
1
 10
390.67731598404748
 20
406.575672986928
 30
0.0
 11
400.12731598404719
 21
406.575672986928
 31
0.0
  0
LINE
  5
1FC85
  8
1
 10
395.40231598404739
 20
411.30067298692842
 30
0.0
 11
395.40231598404739
 21
401.8506729869286
 31
0.0
  0
LINE
  5
1FC86
  8
1
 10
393.17731598404748
 20
414.07567298692811
 30
0.0
 11
402.6273159840473
 21
414.07567298692811
 31
0.0
  0
LINE
  5
1FC87
  8
1
 10
397.90231598404739
 20
418.80067298692842
 30
0.0
 11
397.90231598404739
 21
409.3506729869286
 31
0.0
  0
LINE
  5
1FC88
  8
1
 10
390.67731598404748
 20
361.57567298692811
 30
0.0
 11
400.12731598404719
 21
361.57567298692811
 31
0.0
  0
LINE
  5
1FC89
  8
1
 10
395.40231598404739
 20
366.30067298692848
 30
0.0
 11
395.40231598404739
 21
356.8506729869286
 31
0.0
  0
LINE
  5
1FC8A
  8
1
 10
393.17731598404748
 20
354.07567298692811
 30
0.0
 11
402.6273159840473
 21
354.07567298692811
 31
0.0
  0
LINE
  5
1FC8B
  8
1
 10
397.90231598404739
 20
358.80067298692848
 30
0.0
 11
397.90231598404739
 21
349.35067298692871
 31
0.0
  0
LINE
  5
1FC8C
  8
1
 10
313.17731598404748
 20
414.07567298692811
 30
0.0
 11
322.6273159840473
 21
414.07567298692811
 31
0.0
  0
LINE
  5
1FC8D
  8
1
 10
317.90231598404739
 20
418.80067298692842
 30
0.0
 11
317.90231598404739
 21
409.3506729869286
 31
0.0
  0
LINE
  5
1FC8E
  8
1
 10
315.67731598404748
 20
406.575672986928
 30
0.0
 11
325.1273159840473
 21
406.575672986928
 31
0.0
  0
LINE
  5
1FC8F
  8
1
 10
320.40231598404739
 20
411.30067298692842
 30
0.0
 11
320.40231598404739
 21
401.8506729869286
 31
0.0
  0
LINE
  5
1FC90
  8
1
 10
313.17731598404748
 20
354.07567298692811
 30
0.0
 11
322.6273159840473
 21
354.07567298692811
 31
0.0
  0
LINE
  5
1FC91
  8
1
 10
317.90231598404739
 20
358.80067298692848
 30
0.0
 11
317.90231598404739
 21
349.35067298692871
 31
0.0
  0
LINE
  5
1FC92
  8
1
 10
315.67731598404748
 20
361.57567298692811
 30
0.0
 11
325.1273159840473
 21
361.57567298692811
 31
0.0
  0
LINE
  5
1FC93
  8
1
 10
320.40231598404739
 20
366.30067298692848
 30
0.0
 11
320.40231598404739
 21
356.8506729869286
 31
0.0
  0
LINE
  5
1FC94
  8
0
 10
304.2023159840474
 20
359.07567298692811
 30
0.0
 11
304.2023159840474
 21
361.57567060274232
 31
0.0
  0
LINE
  5
1FC96
  8
0
 10
307.90231598404739
 20
350.57567298692811
 30
0.0
 11
307.90231598404739
 21
417.57567298692811
 31
0.0
  0
ARC
  5
1FC97
  8
0
 10
316.90231598404739
 20
350.57567298692811
 30
0.0
 40
8.9999999999999911
 50
180.0
 51
270.0
  0
LINE
  5
1FC98
  8
0
 10
398.90231598404739
 20
341.57567298692811
 30
0.0
 11
316.90231598404739
 21
341.57567298692811
 31
0.0
  0
ARC
  5
1FC99
  8
0
 10
398.90231598404739
 20
350.57567298692811
 30
0.0
 40
9.0000000000000142
 50
270.0
 51
0.0
  0
LINE
  5
1FC9A
  8
0
 10
407.90231598404728
 20
417.57567298692811
 30
0.0
 11
407.90231598404728
 21
350.57567298692811
 31
0.0
  0
ARC
  5
1FC9B
  8
0
 10
398.90231598404739
 20
417.57567298692811
 30
0.0
 40
9.0
 50
0.0
 51
90.0
  0
LINE
  5
1FC9C
  8
0
 10
316.90231598404739
 20
426.57567298692811
 30
0.0
 11
398.90231598404739
 21
426.57567298692811
 31
0.0
  0
ARC
  5
1FC9D
  8
0
 10
316.90231598404739
 20
417.57567298692811
 30
0.0
 40
8.9999999999999947
 50
90.0
 51
180.0
  0
LINE
  5
1FC9E
  8
0
 10
402.17139082527473
 20
412.65264803985241
 30
0.0
 11
399.67139082527478
 21
405.15264803985241
 31
0.0
  0
ARC
  5
1FC9F
  8
0
 10
395.40231598404739
 20
406.575672986928
 30
0.0
 40
4.499999999999968
 50
161.56505117713979
 51
341.56505117713982
  0
LINE
  5
1FCA0
  8
0
 10
391.13324114282
 20
407.9986979340037
 30
0.0
 11
393.63324114282
 21
415.4986979340037
 31
0.0
  0
ARC
  5
1FCA1
  8
0
 10
397.90231598404739
 20
414.07567298692811
 30
0.0
 40
4.499999999999968
 50
341.56505117713982
 51
161.56505117713979
  0
LINE
  5
1FCA2
  8
0
 10
393.63324114282
 20
352.65264803985252
 30
0.0
 11
391.13324114282
 21
360.15264803985252
 31
0.0
  0
ARC
  5
1FCA3
  8
0
 10
395.40231598404739
 20
361.57567298692811
 30
0.0
 40
4.4999999999999938
 50
18.434948822860211
 51
198.43494882286021
  0
LINE
  5
1FCA4
  8
0
 10
399.67139082527478
 20
362.99869793400381
 30
0.0
 11
402.17139082527473
 21
355.4986979340037
 31
0.0
  0
ARC
  5
1FCA5
  8
0
 10
397.90231598404739
 20
354.07567298692811
 30
0.0
 40
4.4999999999999929
 50
198.43494882286021
 51
18.434948822860211
  0
LINE
  5
1FCA6
  8
0
 10
316.13324114282
 20
405.15264803985241
 30
0.0
 11
313.63324114282
 21
412.65264803985241
 31
0.0
  0
ARC
  5
1FCA7
  8
0
 10
317.90231598404739
 20
414.07567298692811
 30
0.0
 40
4.4999999999999956
 50
18.434948822860211
 51
198.43494882286021
  0
LINE
  5
1FCA8
  8
0
 10
322.17139082527478
 20
415.4986979340037
 30
0.0
 11
324.67139082527478
 21
407.9986979340037
 31
0.0
  0
ARC
  5
1FCA9
  8
0
 10
320.40231598404739
 20
406.575672986928
 30
0.0
 40
4.4999999999999973
 50
198.43494882286021
 51
18.434948822860211
  0
LINE
  5
1FCAA
  8
0
 10
324.67139082527478
 20
360.15264803985252
 30
0.0
 11
322.17139082527478
 21
352.65264803985252
 31
0.0
  0
ARC
  5
1FCAB
  8
0
 10
317.90231598404739
 20
354.07567298692811
 30
0.0
 40
4.4999999999999956
 50
161.56505117713979
 51
341.56505117713982
  0
LINE
  5
1FCAC
  8
0
 10
313.63324114282
 20
355.4986979340037
 30
0.0
 11
316.13324114282
 21
362.99869793400381
 31
0.0
  0
ARC
  5
1FCAD
  8
0
 10
320.40231598404739
 20
361.57567298692811
 30
0.0
 40
4.4999999999999947
 50
341.56505117713982
 51
161.56505117713979
  0
LINE
  5
1FCAE
  8
0
 10
324.31239914096659
 20
359.07567298692811
 30
0.0
 11
314.82556616046139
 21
359.07567298692811
 31
0.0
  0
LINE
  5
1FCAF
  8
0
 10
324.31239914096659
 20
409.07567298692811
 30
0.0
 11
314.82556616046139
 21
409.07567298692811
 31
0.0
  0
LINE
  5
1FCB0
  8
0
 10
304.2023159840474
 20
359.07567298692811
 30
0.0
 11
307.90231598404739
 21
359.07567298692811
 31
0.0
  0
LINE
  5
1FCB8
  8
1
 10
474.55235534677041
 20
179.7436887314206
 30
0.0
 11
551.0823553467701
 21
179.7436887314206
 31
0.0
  0
LINE
  5
1FCB9
  8
0
 10
487.81735534677023
 20
173.9286887314201
 30
0.0
 11
487.2173553467702
 21
173.9286887314201
 31
0.0
  0
LINE
  5
1FCBA
  8
0
 10
547.05035534677006
 20
175.7436887314206
 30
0.0
 11
545.81735534677023
 21
175.7436887314206
 31
0.0
  0
LINE
  5
1FCBB
  8
0
 10
545.81735534677023
 20
183.7436887314206
 30
0.0
 11
547.05035534677006
 21
183.7436887314206
 31
0.0
  0
LINE
  5
1FCBC
  8
0
 10
547.81735534677023
 20
176.51068873142049
 30
0.0
 11
547.05035534677006
 21
175.7436887314206
 31
0.0
  0
LINE
  5
1FCBD
  8
0
 10
547.05035534677006
 20
183.7436887314206
 30
0.0
 11
547.81735534677023
 21
182.97668873142081
 31
0.0
  0
LINE
  5
1FCBE
  8
0
 10
482.77677505618561
 20
172.51718786206399
 30
0.0
 11
482.51735534677027
 21
173.48535539808739
 31
0.0
  0
LINE
  5
1FCBF
  8
0
 10
487.2173553467702
 20
173.48535539808739
 30
0.0
 11
486.95793563735469
 21
172.51718786206399
 31
0.0
  0
LINE
  5
1FCC0
  8
0
 10
545.81735534677023
 20
173.9286887314201
 30
0.0
 11
543.31735534677023
 21
173.9286887314201
 31
0.0
  0
LINE
  5
1FCC1
  8
0
 10
543.32746727774133
 20
185.55868873142029
 30
0.0
 11
545.81735534677023
 21
185.55868873142029
 31
0.0
  0
LINE
  5
1FCC2
  8
0
 10
538.07677505618562
 20
172.51718786206399
 30
0.0
 11
537.81735534677023
 21
173.48535539808739
 31
0.0
  0
LINE
  5
1FCC3
  8
0
 10
543.31735534677023
 20
173.48535539808739
 30
0.0
 11
543.0579356373546
 21
172.51718786206399
 31
0.0
  0
LINE
  5
1FCC4
  8
0
 10
535.31735534677023
 20
173.7436887314206
 30
0.0
 11
525.31735534677023
 21
173.7436887314206
 31
0.0
  0
LINE
  5
1FCC5
  8
0
 10
500.31735534677023
 20
173.7436887314206
 30
0.0
 11
490.31735534677023
 21
173.7436887314206
 31
0.0
  0
LINE
  5
1FCC6
  8
0
 10
490.31735534677023
 20
185.7436887314206
 30
0.0
 11
500.31735534677023
 21
185.7436887314206
 31
0.0
  0
LINE
  5
1FCC7
  8
0
 10
525.31735534677023
 20
185.7436887314206
 30
0.0
 11
535.31735534677023
 21
185.7436887314206
 31
0.0
  0
LINE
  5
1FCC8
  8
0
 10
547.05035534677006
 20
183.7436887314206
 30
0.0
 11
547.05035534677006
 21
175.7436887314206
 31
0.0
  0
LINE
  5
1FCC9
  8
0
 10
547.81735534677023
 20
182.97668873142081
 30
0.0
 11
547.81735534677023
 21
176.51068873142049
 31
0.0
  0
LINE
  5
1FCCA
  8
0
 10
482.51735534677027
 20
185.12272048030351
 30
0.0
 11
482.51735534677027
 21
173.48535539808739
 31
0.0
  0
LINE
  5
1FCCB
  8
0
 10
487.2173553467702
 20
178.28823255389119
 30
0.0
 11
487.2173553467702
 21
173.48535539808739
 31
0.0
  0
POLYLINE
  5
1FCCC
  8
0
 66
     1
 10
0.0
 20
0.0
 30
0.0
  0
VERTEX
  5
26E24
  8
0
 10
482.77677505618561
 20
176.13043829674189
 30
0.0
  0
VERTEX
  5
26E25
  8
0
 10
482.6959304029275
 20
175.80586440106981
 30
0.0
  0
VERTEX
  5
26E26
  8
0
 10
482.58132006417441
 20
175.1963038222984
 30
0.0
  0
VERTEX
  5
26E27
  8
0
 10
482.52454548038997
 20
174.61389565072199
 30
0.0
  0
VERTEX
  5
26E28
  8
0
 10
482.51735534677027
 20
174.3238130794025
 30
0.0
  0
SEQEND
  5
26E29
  8
0
  0
POLYLINE
  5
1FCCD
  8
0
 66
     1
 10
0.0
 20
0.0
 30
0.0
  0
VERTEX
  5
26E2A
  8
0
 10
482.51735534677027
 20
174.3238130794025
 30
0.0
  0
VERTEX
  5
26E2B
  8
0
 10
482.52454548038997
 20
174.0337305080829
 30
0.0
  0
VERTEX
  5
26E2C
  8
0
 10
482.58132006417458
 20
173.4513223365075
 30
0.0
  0
VERTEX
  5
26E2D
  8
0
 10
482.6959304029275
 20
172.84176175773609
 30
0.0
  0
VERTEX
  5
26E2E
  8
0
 10
482.77677505618561
 20
172.51718786206399
 30
0.0
  0
SEQEND
  5
26E2F
  8
0
  0
POLYLINE
  5
1FCCE
  8
0
 66
     1
 10
0.0
 20
0.0
 30
0.0
  0
VERTEX
  5
26E30
  8
0
 10
486.95793563735469
 20
172.51718786206399
 30
0.0
  0
VERTEX
  5
26E31
  8
0
 10
487.03878029061269
 20
172.84176175773609
 30
0.0
  0
VERTEX
  5
26E32
  8
0
 10
487.15339062936602
 20
173.4513223365075
 30
0.0
  0
VERTEX
  5
26E33
  8
0
 10
487.21016521315028
 20
174.0337305080829
 30
0.0
  0
VERTEX
  5
26E34
  8
0
 10
487.2173553467702
 20
174.3238130794025
 30
0.0
  0
SEQEND
  5
26E35
  8
0
  0
POLYLINE
  5
1FCCF
  8
0
 66
     1
 10
0.0
 20
0.0
 30
0.0
  0
VERTEX
  5
26E36
  8
0
 10
487.2173553467702
 20
174.3238130794025
 30
0.0
  0
VERTEX
  5
26E37
  8
0
 10
487.21016521315028
 20
174.61389565072199
 30
0.0
  0
VERTEX
  5
26E38
  8
0
 10
487.15339062936602
 20
175.1963038222984
 30
0.0
  0
VERTEX
  5
26E39
  8
0
 10
487.03878029061269
 20
175.80586440106981
 30
0.0
  0
VERTEX
  5
26E3A
  8
0
 10
486.95793563735469
 20
176.13043829674189
 30
0.0
  0
SEQEND
  5
26E3B
  8
0
  0
LINE
  5
1FCD0
  8
0
 10
482.77677505618561
 20
172.51718786206399
 30
0.0
 11
486.95793563735469
 21
172.51718786206399
 31
0.0
  0
POLYLINE
  5
1FCD1
  8
0
 66
     1
 10
0.0
 20
0.0
 30
0.0
  0
VERTEX
  5
26E3C
  8
0
 10
482.5175225264112
 20
185.11937777792991
 30
0.0
  0
VERTEX
  5
26E3D
  8
0
 10
482.52646730704402
 20
184.83691398403241
 30
0.0
  0
VERTEX
  5
26E3E
  8
0
 10
482.5845883313952
 20
184.26863384442089
 30
0.0
  0
VERTEX
  5
26E3F
  8
0
 10
482.69777188650318
 20
183.67350288999481
 30
0.0
  0
VERTEX
  5
26E40
  8
0
 10
482.77677505618561
 20
183.3569391660985
 30
0.0
  0
SEQEND
  5
26E41
  8
0
  0
LINE
  5
1FCD2
  8
0
 10
482.77677505618561
 20
183.3569391660985
 30
0.0
 11
483.46123345961558
 21
183.3569391660985
 31
0.0
  0
POLYLINE
  5
1FCD3
  8
0
 66
     1
 10
0.0
 20
0.0
 30
0.0
  0
VERTEX
  5
26E42
  8
0
 10
482.77677505618561
 20
183.3569391660985
 30
0.0
  0
VERTEX
  5
26E43
  8
0
 10
482.6959304029275
 20
182.70779137475441
 30
0.0
  0
VERTEX
  5
26E44
  8
0
 10
482.58132006417441
 20
181.48867021721071
 30
0.0
  0
VERTEX
  5
26E45
  8
0
 10
482.52454548038997
 20
180.32385387405969
 30
0.0
  0
VERTEX
  5
26E46
  8
0
 10
482.51735534677027
 20
179.7436887314206
 30
0.0
  0
SEQEND
  5
26E47
  8
0
  0
POLYLINE
  5
1FCD4
  8
0
 66
     1
 10
0.0
 20
0.0
 30
0.0
  0
VERTEX
  5
26E48
  8
0
 10
482.51735534677027
 20
179.7436887314206
 30
0.0
  0
VERTEX
  5
26E49
  8
0
 10
482.52454548038997
 20
179.1635235887816
 30
0.0
  0
VERTEX
  5
26E4A
  8
0
 10
482.58132006417441
 20
177.99870724563061
 30
0.0
  0
VERTEX
  5
26E4B
  8
0
 10
482.6959304029275
 20
176.77958608808601
 30
0.0
  0
VERTEX
  5
26E4C
  8
0
 10
482.77677505618561
 20
176.13043829674189
 30
0.0
  0
SEQEND
  5
26E4D
  8
0
  0
LINE
  5
1FCD5
  8
0
 10
482.77677505618561
 20
176.13043829674189
 30
0.0
 11
486.95793563735469
 21
176.13043829674189
 31
0.0
  0
POLYLINE
  5
1FCD6
  8
0
 66
     1
 10
0.0
 20
0.0
 30
0.0
  0
VERTEX
  5
26E4E
  8
0
 10
486.95793563735469
 20
176.13043829674189
 30
0.0
  0
VERTEX
  5
26E4F
  8
0
 10
487.00813691049871
 20
176.52144467906959
 30
0.0
  0
VERTEX
  5
26E50
  8
0
 10
487.09116875839038
 20
177.2705706694814
 30
0.0
  0
VERTEX
  5
26E51
  8
0
 10
487.15257931045721
 20
177.98746716482489
 30
0.0
  0
VERTEX
  5
26E52
  8
0
 10
487.17556782198488
 20
178.33786684385271
 30
0.0
  0
SEQEND
  5
26E53
  8
0
  0
LINE
  5
1FCD7
  8
0
 10
545.81735534677023
 20
185.55868873142029
 30
0.0
 11
545.81735534677023
 21
173.9286887314201
 31
0.0
  0
LINE
  5
1FCD8
  8
0
 10
543.31735534677023
 20
185.5441002369007
 30
0.0
 11
543.31735534677023
 21
173.48535539808739
 31
0.0
  0
POLYLINE
  5
1FCD9
  8
0
 66
     1
 10
0.0
 20
0.0
 30
0.0
  0
VERTEX
  5
26E54
  8
0
 10
538.07677505618562
 20
176.13043829674189
 30
0.0
  0
VERTEX
  5
26E55
  8
0
 10
537.99593040292746
 20
175.80586440106981
 30
0.0
  0
VERTEX
  5
26E56
  8
0
 10
537.88132006417447
 20
175.1963038222984
 30
0.0
  0
VERTEX
  5
26E57
  8
0
 10
537.82454548039004
 20
174.61389565072199
 30
0.0
  0
VERTEX
  5
26E58
  8
0
 10
537.81735534677023
 20
174.3238130794025
 30
0.0
  0
SEQEND
  5
26E59
  8
0
  0
POLYLINE
  5
1FCDA
  8
0
 66
     1
 10
0.0
 20
0.0
 30
0.0
  0
VERTEX
  5
26E5A
  8
0
 10
537.81735534677023
 20
174.3238130794025
 30
0.0
  0
VERTEX
  5
26E5B
  8
0
 10
537.82454548039004
 20
174.0337305080829
 30
0.0
  0
VERTEX
  5
26E5C
  8
0
 10
537.88132006417447
 20
173.4513223365075
 30
0.0
  0
VERTEX
  5
26E5D
  8
0
 10
537.99593040292746
 20
172.84176175773609
 30
0.0
  0
VERTEX
  5
26E5E
  8
0
 10
538.07677505618562
 20
172.51718786206399
 30
0.0
  0
SEQEND
  5
26E5F
  8
0
  0
POLYLINE
  5
1FCDB
  8
0
 66
     1
 10
0.0
 20
0.0
 30
0.0
  0
VERTEX
  5
26E60
  8
0
 10
543.05793563735483
 20
172.51718786206399
 30
0.0
  0
VERTEX
  5
26E61
  8
0
 10
543.13878029061289
 20
172.84176175773609
 30
0.0
  0
VERTEX
  5
26E62
  8
0
 10
543.25339062936587
 20
173.4513223365075
 30
0.0
  0
VERTEX
  5
26E63
  8
0
 10
543.31016521315041
 20
174.0337305080829
 30
0.0
  0
VERTEX
  5
26E64
  8
0
 10
543.31735534677023
 20
174.3238130794025
 30
0.0
  0
SEQEND
  5
26E65
  8
0
  0
POLYLINE
  5
1FCDC
  8
0
 66
     1
 10
0.0
 20
0.0
 30
0.0
  0
VERTEX
  5
26E66
  8
0
 10
543.31735534677023
 20
174.3238130794025
 30
0.0
  0
VERTEX
  5
26E67
  8
0
 10
543.31016521315019
 20
174.61389565072199
 30
0.0
  0
VERTEX
  5
26E68
  8
0
 10
543.25339062936587
 20
175.1963038222984
 30
0.0
  0
VERTEX
  5
26E69
  8
0
 10
543.13878029061289
 20
175.80586440106981
 30
0.0
  0
VERTEX
  5
26E6A
  8
0
 10
543.05793563735483
 20
176.13043829674189
 30
0.0
  0
SEQEND
  5
26E6B
  8
0
  0
LINE
  5
1FCDD
  8
0
 10
538.07677505618562
 20
172.51718786206399
 30
0.0
 11
543.05793563735483
 21
172.51718786206399
 31
0.0
  0
POLYLINE
  5
1FCDE
  8
0
 66
     1
 10
0.0
 20
0.0
 30
0.0
  0
VERTEX
  5
26E6C
  8
0
 10
543.31735534677023
 20
185.16356438343789
 30
0.0
  0
VERTEX
  5
26E6D
  8
0
 10
543.31705958935595
 20
185.2223370086694
 30
0.0
  0
VERTEX
  5
26E6E
  8
0
 10
543.31470703874334
 20
185.33949594991009
 30
0.0
  0
VERTEX
  5
26E6F
  8
0
 10
543.3100310877287
 20
185.45634590875579
 30
0.0
  0
VERTEX
  5
26E70
  8
0
 10
543.30682872482271
 20
185.51473091980191
 30
0.0
  0
SEQEND
  5
26E71
  8
0
  0
POLYLINE
  5
1FCDF
  8
0
 66
     1
 10
0.0
 20
0.0
 30
0.0
  0
VERTEX
  5
26E72
  8
0
 10
543.05793563735483
 20
183.3569391660985
 30
0.0
  0
VERTEX
  5
26E73
  8
0
 10
543.13878029061289
 20
183.68151306177151
 30
0.0
  0
VERTEX
  5
26E74
  8
0
 10
543.25339062936587
 20
184.29107364054289
 30
0.0
  0
VERTEX
  5
26E75
  8
0
 10
543.31016521315019
 20
184.87348181211831
 30
0.0
  0
VERTEX
  5
26E76
  8
0
 10
543.31735534677023
 20
185.16356438343789
 30
0.0
  0
SEQEND
  5
26E77
  8
0
  0
POLYLINE
  5
1FCE0
  8
0
 66
     1
 10
0.0
 20
0.0
 30
0.0
  0
VERTEX
  5
26E78
  8
0
 10
543.31735534677023
 20
179.7436887314206
 30
0.0
  0
VERTEX
  5
26E79
  8
0
 10
543.31016521315019
 20
180.32385387405969
 30
0.0
  0
VERTEX
  5
26E7A
  8
0
 10
543.25339062936587
 20
181.48867021721071
 30
0.0
  0
VERTEX
  5
26E7B
  8
0
 10
543.13878029061289
 20
182.70779137475441
 30
0.0
  0
VERTEX
  5
26E7C
  8
0
 10
543.05793563735483
 20
183.3569391660985
 30
0.0
  0
SEQEND
  5
26E7D
  8
0
  0
LINE
  5
1FCE1
  8
0
 10
542.17347723392481
 20
183.3569391660985
 30
0.0
 11
543.05793563735483
 21
183.3569391660985
 31
0.0
  0
POLYLINE
  5
1FCE2
  8
0
 66
     1
 10
0.0
 20
0.0
 30
0.0
  0
VERTEX
  5
26E7E
  8
0
 10
537.90049972085285
 20
177.74864612710641
 30
0.0
  0
VERTEX
  5
26E7F
  8
0
 10
537.92275306970851
 20
177.49021352789981
 30
0.0
  0
VERTEX
  5
26E80
  8
0
 10
537.97556744378903
 20
176.9617517211372
 30
0.0
  0
VERTEX
  5
26E81
  8
0
 10
538.03997585255252
 20
176.4135963335811
 30
0.0
  0
VERTEX
  5
26E82
  8
0
 10
538.07677505618562
 20
176.13043829674189
 30
0.0
  0
SEQEND
  5
26E83
  8
0
  0
LINE
  5
1FCE3
  8
0
 10
538.07677505618562
 20
176.13043829674189
 30
0.0
 11
543.05793563735483
 21
176.13043829674189
 31
0.0
  0
POLYLINE
  5
1FCE4
  8
0
 66
     1
 10
0.0
 20
0.0
 30
0.0
  0
VERTEX
  5
26E84
  8
0
 10
543.05793563735483
 20
176.13043829674189
 30
0.0
  0
VERTEX
  5
26E85
  8
0
 10
543.13878029061289
 20
176.77958608808601
 30
0.0
  0
VERTEX
  5
26E86
  8
0
 10
543.25339062936587
 20
177.99870724563061
 30
0.0
  0
VERTEX
  5
26E87
  8
0
 10
543.31016521315019
 20
179.1635235887816
 30
0.0
  0
VERTEX
  5
26E88
  8
0
 10
543.31735534677023
 20
179.7436887314206
 30
0.0
  0
SEQEND
  5
26E89
  8
0
  0
LINE
  5
1FCE5
  8
1
 10
512.81735534677023
 20
254.73710445285991
 30
0.0
 11
512.81735534677023
 21
131.7502730099813
 31
0.0
  0
LINE
  5
1FCE6
  8
0
 10
478.01735534677027
 20
243.44368873142051
 30
0.0
 11
478.01735534677027
 21
244.24368873142069
 31
0.0
  0
LINE
  5
1FCE7
  8
0
 10
547.61735534677018
 20
244.24368873142069
 30
0.0
 11
547.61735534677018
 21
243.44368873142051
 31
0.0
  0
LINE
  5
1FCE8
  8
0
 10
478.3161346827921
 20
234.94368873142051
 30
0.0
 11
476.81735534677023
 21
243.44368873142051
 31
0.0
  0
LINE
  5
1FCE9
  8
0
 10
548.81735534677023
 20
243.44368873142051
 30
0.0
 11
547.31857601074819
 21
234.94368873142051
 31
0.0
  0
LINE
  5
1FCEA
  8
0
 10
479.81735534677023
 20
196.63984284281651
 30
0.0
 11
479.81735534677023
 21
234.94368873142051
 31
0.0
  0
LINE
  5
1FCEB
  8
0
 10
545.81735534677023
 20
234.94368873142051
 30
0.0
 11
545.81735534677023
 21
196.63984284281651
 31
0.0
  0
LINE
  5
1FCEC
  8
0
 10
470.31735534677023
 20
246.74368873142069
 30
0.0
 11
470.31735534677023
 21
244.24368873142069
 31
0.0
  0
LINE
  5
1FCED
  8
0
 10
555.31735534677023
 20
246.74368873142069
 30
0.0
 11
470.31735534677023
 21
246.74368873142069
 31
0.0
  0
LINE
  5
1FCEE
  8
0
 10
555.31735534677023
 20
244.24368873142069
 30
0.0
 11
470.31735534677023
 21
244.24368873142069
 31
0.0
  0
LINE
  5
1FCEF
  8
0
 10
555.31735534677023
 20
246.74368873142069
 30
0.0
 11
555.31735534677023
 21
244.24368873142069
 31
0.0
  0
LINE
  5
1FCF0
  8
0
 10
548.81735534677023
 20
243.44368873142051
 30
0.0
 11
476.81735534677023
 21
243.44368873142051
 31
0.0
  0
LINE
  5
1FCF1
  8
0
 10
547.31857601074819
 20
234.94368873142051
 30
0.0
 11
478.3161346827921
 21
234.94368873142051
 31
0.0
  0
LINE
  5
1FCF2
  8
0
 10
487.81735534677023
 20
177.6585365231895
 30
0.0
 11
487.81735534677023
 21
169.7436887314206
 31
0.0
  0
LINE
  5
1FCF3
  8
0
 10
490.31735534677023
 20
169.7436887314206
 30
0.0
 11
487.81735534677023
 21
169.7436887314206
 31
0.0
  0
LINE
  5
1FCF4
  8
0
 10
537.81735534677023
 20
169.7436887314206
 30
0.0
 11
537.81735534677023
 21
177.6585365231895
 31
0.0
  0
LINE
  5
1FCF5
  8
0
 10
537.81735534677023
 20
169.7436887314206
 30
0.0
 11
535.31735534677023
 21
169.7436887314206
 31
0.0
  0
POLYLINE
  5
1FCF6
  8
0
 66
     1
 10
0.0
 20
0.0
 30
0.0
  0
VERTEX
  5
26E8A
  8
0
 10
535.31735534677023
 20
178.49513265671791
 30
0.0
  0
VERTEX
  5
26E8B
  8
0
 10
535.73646971626067
 20
178.90712018347219
 30
0.0
  0
VERTEX
  5
26E8C
  8
0
 10
536.5453849398408
 20
179.7534633306814
 30
0.0
  0
VERTEX
  5
26E8D
  8
0
 10
537.31407977865899
 20
180.6284298694172
 30
0.0
  0
VERTEX
  5
26E8E
  8
0
 10
537.68293464749945
 20
181.0761852629775
 30
0.0
  0
VERTEX
  5
26E8F
  8
0
 10
538.04125125043151
 20
181.53053668070879
 30
0.0
  0
VERTEX
  5
26E90
  8
0
 10
538.72566675738756
 20
182.45825464125119
 30
0.0
  0
VERTEX
  5
26E91
  8
0
 10
539.36616617559355
 20
183.4100112153574
 30
0.0
  0
VERTEX
  5
26E92
  8
0
 10
539.96166382143065
 20
184.384193120497
 30
0.0
  0
VERTEX
  5
26E93
  8
0
 10
540.51115029189089
 20
185.37914906190409
 30
0.0
  0
VERTEX
  5
26E94
  8
0
 10
541.0136941755743
 20
186.39319253162009
 30
0.0
  0
VERTEX
  5
26E95
  8
0
 10
541.24709329842915
 20
186.90683612961669
 30
0.0
  0
VERTEX
  5
26E96
  8
0
 10
541.46844363148489
 20
187.42460466721781
 30
0.0
  0
VERTEX
  5
26E97
  8
0
 10
541.8746278329503
 20
188.4716371653758
 30
0.0
  0
VERTEX
  5
26E98
  8
0
 10
542.23155827421851
 20
189.53251524535511
 30
0.0
  0
VERTEX
  5
26E99
  8
0
 10
542.53862993751375
 20
190.6054406573503
 30
0.0
  0
VERTEX
  5
26E9A
  8
0
 10
542.79532231857786
 20
191.68859473063179
 30
0.0
  0
VERTEX
  5
26E9B
  8
0
 10
543.00120030895425
 20
192.78014145629729
 30
0.0
  0
VERTEX
  5
26E9C
  8
0
 10
543.08497147114838
 20
193.32848433544581
 30
0.0
  0
VERTEX
  5
26E9D
  8
0
 10
543.15591493352247
 20
193.8782305994109
 30
0.0
  0
VERTEX
  5
26E9E
  8
0
 10
543.25920394203081
 20
194.98100083526239
 30
0.0
  0
VERTEX
  5
26E9F
  8
0
 10
543.31089225362621
 20
196.08658290441591
 30
0.0
  0
VERTEX
  5
26EA0
  8
0
 10
543.31735534677023
 20
196.63984284281651
 30
0.0
  0
SEQEND
  5
26EA1
  8
0
  0
POLYLINE
  5
1FCF7
  8
0
 66
     1
 10
0.0
 20
0.0
 30
0.0
  0
VERTEX
  5
26EA2
  8
0
 10
543.31735534677023
 20
196.63984284281651
 30
0.0
  0
VERTEX
  5
26EA3
  8
0
 10
543.31412942054703
 20
197.03072671925841
 30
0.0
  0
VERTEX
  5
26EA4
  8
0
 10
543.28832610501695
 20
197.81216374536049
 30
0.0
  0
VERTEX
  5
26EA5
  8
0
 10
543.23674130613767
 20
198.5926088709393
 30
0.0
  0
VERTEX
  5
26EA6
  8
0
 10
543.20129363856825
 20
198.9822530684369
 30
0.0
  0
VERTEX
  5
26EA7
  8
0
 10
543.15941866979915
 20
199.37140176150291
 30
0.0
  0
VERTEX
  5
26EA8
  8
0
 10
543.05642361867149
 20
200.14788348051479
 30
0.0
  0
VERTEX
  5
26EA9
  8
0
 10
542.92784329685014
 20
200.92139704691911
 30
0.0
  0
VERTEX
  5
26EAA
  8
0
 10
542.77378649612433
 20
201.691287991016
 30
0.0
  0
VERTEX
  5
26EAB
  8
0
 10
542.5943835639282
 20
202.45690490820289
 30
0.0
  0
VERTEX
  5
26EAC
  8
0
 10
542.38978629305279
 20
203.2176000101326
 30
0.0
  0
VERTEX
  5
26EAD
  8
0
 10
542.2780930485867
 20
203.59590057028981
 30
0.0
  0
VERTEX
  5
26EAE
  8
0
 10
542.16016779321535
 20
203.97272967280509
 30
0.0
  0
VERTEX
  5
26EAF
  8
0
 10
541.90572234459114
 20
204.72165498113549
 30
0.0
  0
VERTEX
  5
26EB0
  8
0
 10
541.62666523343216
 20
205.46374226954501
 30
0.0
  0
VERTEX
  5
26EB1
  8
0
 10
541.32323256991435
 20
206.19836365809991
 30
0.0
  0
VERTEX
  5
26EB2
  8
0
 10
540.99568108836434
 20
206.9248975837645
 30
0.0
  0
VERTEX
  5
26EB3
  8
0
 10
540.64428793003697
 20
207.6427293263032
 30
0.0
  0
VERTEX
  5
26EB4
  8
0
 10
540.459742851388
 20
207.99819177802871
 30
0.0
  0
VERTEX
  5
26EB5
  8
0
 10
540.269350408626
 20
208.35125152839731
 30
0.0
  0
VERTEX
  5
26EB6
  8
0
 10
539.87118575870579
 20
209.04986470952829
 30
0.0
  0
VERTEX
  5
26EB7
  8
0
 10
539.45013086732217
 20
209.7379777731976
 30
0.0
  0
VERTEX
  5
26EB8
  8
0
 10
539.23113016219554
 20
210.0779144590652
 30
0.0
  0
VERTEX
  5
26EB9
  8
0
 10
539.00654198894904
 20
210.415008507056
 30
0.0
  0
VERTEX
  5
26EBA
  8
0
 10
538.54079444406329
 20
211.08038407551069
 30
0.0
  0
VERTEX
  5
26EBB
  8
0
 10
538.05328230158625
 20
211.7335415044017
 30
0.0
  0
VERTEX
  5
26EBC
  8
0
 10
537.80149269758454
 20
212.05536530097291
 30
0.0
  0
VERTEX
  5
26EBD
  8
0
 10
537.54441804546173
 20
212.3739281573371
 30
0.0
  0
VERTEX
  5
26EBE
  8
0
 10
537.0146322256528
 20
213.00100220327479
 30
0.0
  0
VERTEX
  5
26EBF
  8
0
 10
536.46437309385476
 20
213.61423307496719
 30
0.0
  0
VERTEX
  5
26EC0
  8
0
 10
535.89410622422884
 20
214.21310191787421
 30
0.0
  0
VERTEX
  5
26EC1
  8
0
 10
535.30431411947893
 20
214.79710202916789
 30
0.0
  0
VERTEX
  5
26EC2
  8
0
 10
534.69549580260855
 20
215.36573928644879
 30
0.0
  0
VERTEX
  5
26EC3
  8
0
 10
534.38411217295993
 20
215.6441459746566
 30
0.0
  0
VERTEX
  5
26EC4
  8
0
 10
534.06816639469525
 20
215.9185325658263
 30
0.0
  0
VERTEX
  5
26EC5
  8
0
 10
533.42285667904775
 20
216.45501414899991
 30
0.0
  0
VERTEX
  5
26EC6
  8
0
 10
532.76011265211082
 20
216.97473011898819
 30
0.0
  0
VERTEX
  5
26EC7
  8
0
 10
532.08049506149632
 20
217.477240744196
 30
0.0
  0
VERTEX
  5
26EC8
  8
0
 10
531.38457893153623
 20
217.96212085046409
 30
0.0
  0
VERTEX
  5
26EC9
  8
0
 10
530.67295307675329
 20
218.42896018081589
 30
0.0
  0
VERTEX
  5
26ECA
  8
0
 10
530.31143665547711
 20
218.6554905143212
 30
0.0
  0
VERTEX
  5
26ECB
  8
0
 10
529.94621960366669
 20
218.8773637425702
 30
0.0
  0
VERTEX
  5
26ECC
  8
0
 10
529.20499340134825
 20
219.3069521415473
 30
0.0
  0
VERTEX
  5
26ECD
  8
0
 10
528.44990162116608
 20
219.71736190307271
 30
0.0
  0
VERTEX
  5
26ECE
  8
0
 10
527.68158314615107
 20
220.1082457795155
 30
0.0
  0
VERTEX
  5
26ECF
  8
0
 10
526.90068805043859
 20
220.47927304409129
 30
0.0
  0
VERTEX
  5
26ED0
  8
0
 10
526.10787704924098
 20
220.8301297706939
 30
0.0
  0
VERTEX
  5
26ED1
  8
0
 10
525.70721232986136
 20
220.99790073994151
 30
0.0
  0
VERTEX
  5
26ED2
  8
0
 10
525.30382093981598
 20
221.16051909950329
 30
0.0
  0
VERTEX
  5
26ED3
  8
0
 10
524.48920003390549
 20
221.47016148816331
 30
0.0
  0
VERTEX
  5
26ED4
  8
0
 10
523.66470358212405
 20
221.7587949482986
 30
0.0
  0
VERTEX
  5
26ED5
  8
0
 10
522.83102919078385
 20
222.02617526718859
 30
0.0
  0
VERTEX
  5
26ED6
  8
0
 10
521.98888223165045
 20
222.2720762143872
 30
0.0
  0
VERTEX
  5
26ED7
  8
0
 10
521.13897524512765
 20
222.49628973314341
 30
0.0
  0
VERTEX
  5
26ED8
  8
0
 10
520.71133622239699
 20
222.6002037021299
 30
0.0
  0
VERTEX
  5
26ED9
  8
0
 10
520.28202733737703
 20
222.69862611643751
 30
0.0
  0
VERTEX
  5
26EDA
  8
0
 10
519.41876357188244
 20
222.87891416748789
 30
0.0
  0
VERTEX
  5
26EDB
  8
0
 10
518.54991435597356
 20
223.0370013446036
 30
0.0
  0
VERTEX
  5
26EDC
  8
0
 10
517.67621482282971
 20
223.1727538902505
 30
0.0
  0
VERTEX
  5
26EDD
  8
0
 10
516.79840420948165
 20
223.28605694422279
 30
0.0
  0
VERTEX
  5
26EDE
  8
0
 10
515.9172252313457
 20
223.3768146408247
 30
0.0
  0
VERTEX
  5
26EDF
  8
0
 10
515.47560550057392
 20
223.41371423618509
 30
0.0
  0
VERTEX
  5
26EE0
  8
0
 10
515.03342345380975
 20
223.4449501899835
 30
0.0
  0
VERTEX
  5
26EE1
  8
0
 10
514.14774666141295
 20
223.4904059422224
 30
0.0
  0
VERTEX
  5
26EE2
  8
0
 10
513.26094422514348
 20
223.513143437438
 30
0.0
  0
VERTEX
  5
26EE3
  8
0
 10
512.81735534677023
 20
223.51598607531469
 30
0.0
  0
VERTEX
  5
26EE4
  8
0
 10
512.37376646839698
 20
223.513143437438
 30
0.0
  0
VERTEX
  5
26EE5
  8
0
 10
511.48696403212728
 20
223.4904059422224
 30
0.0
  0
VERTEX
  5
26EE6
  8
0
 10
510.60128723973071
 20
223.4449501899835
 30
0.0
  0
VERTEX
  5
26EE7
  8
0
 10
510.15910519296648
 20
223.41371423618509
 30
0.0
  0
VERTEX
  5
26EE8
  8
0
 10
509.71748546219459
 20
223.3768146408247
 30
0.0
  0
VERTEX
  5
26EE9
  8
0
 10
508.8363064840587
 20
223.28605694422279
 30
0.0
  0
VERTEX
  5
26EEA
  8
0
 10
507.95849587071081
 20
223.1727538902505
 30
0.0
  0
VERTEX
  5
26EEB
  8
0
 10
507.08479633756667
 20
223.0370013446036
 30
0.0
  0
VERTEX
  5
26EEC
  8
0
 10
506.21594712165802
 20
222.87891416748789
 30
0.0
  0
VERTEX
  5
26EED
  8
0
 10
505.35268335616342
 20
222.69862611643751
 30
0.0
  0
VERTEX
  5
26EEE
  8
0
 10
504.9233744711434
 20
222.6002037021299
 30
0.0
  0
VERTEX
  5
26EEF
  8
0
 10
504.49573544841257
 20
222.49628973314341
 30
0.0
  0
VERTEX
  5
26EF0
  8
0
 10
503.64582846189001
 20
222.2720762143872
 30
0.0
  0
VERTEX
  5
26EF1
  8
0
 10
502.80368150275638
 20
222.02617526718859
 30
0.0
  0
VERTEX
  5
26EF2
  8
0
 10
501.97000711141641
 20
221.75879494829951
 30
0.0
  0
VERTEX
  5
26EF3
  8
0
 10
501.14551065963502
 20
221.47016148816331
 30
0.0
  0
VERTEX
  5
26EF4
  8
0
 10
500.33088975372448
 20
221.16051909950329
 30
0.0
  0
VERTEX
  5
26EF5
  8
0
 10
499.92749836367892
 20
220.99790073994151
 30
0.0
  0
VERTEX
  5
26EF6
  8
0
 10
499.5268336442993
 20
220.8301297706939
 30
0.0
  0
VERTEX
  5
26EF7
  8
0
 10
498.7340226431017
 20
220.47927304409129
 30
0.0
  0
VERTEX
  5
26EF8
  8
0
 10
497.95312754738939
 20
220.1082457795155
 30
0.0
  0
VERTEX
  5
26EF9
  8
0
 10
497.18480907237421
 20
219.71736190307271
 30
0.0
  0
VERTEX
  5
26EFA
  8
0
 10
496.42971729219221
 20
219.3069521415473
 30
0.0
  0
VERTEX
  5
26EFB
  8
0
 10
495.68849108987359
 20
218.8773637425702
 30
0.0
  0
VERTEX
  5
26EFC
  8
0
 10
495.32327403806329
 20
218.6554905143212
 30
0.0
  0
VERTEX
  5
26EFD
  8
0
 10
494.961757616787
 20
218.42896018081589
 30
0.0
  0
VERTEX
  5
26EFE
  8
0
 10
494.25013176200417
 20
217.96212085046409
 30
0.0
  0
VERTEX
  5
26EFF
  8
0
 10
493.55421563204408
 20
217.477240744196
 30
0.0
  0
VERTEX
  5
26F00
  8
0
 10
492.87459804142958
 20
216.97473011898819
 30
0.0
  0
VERTEX
  5
26F01
  8
0
 10
492.2118540144927
 20
216.45501414899991
 30
0.0
  0
VERTEX
  5
26F02
  8
0
 10
491.56654429884509
 20
215.9185325658263
 30
0.0
  0
VERTEX
  5
26F03
  8
0
 10
491.25059852058052
 20
215.6441459746566
 30
0.0
  0
VERTEX
  5
26F04
  8
0
 10
490.93921489093191
 20
215.36573928644879
 30
0.0
  0
VERTEX
  5
26F05
  8
0
 10
490.33039657406152
 20
214.79710202916789
 30
0.0
  0
VERTEX
  5
26F06
  8
0
 10
489.74060446931162
 20
214.21310191787421
 30
0.0
  0
VERTEX
  5
26F07
  8
0
 10
489.17033759968552
 20
213.61423307496719
 30
0.0
  0
VERTEX
  5
26F08
  8
0
 10
488.62007846788759
 20
213.00100220327479
 30
0.0
  0
VERTEX
  5
26F09
  8
0
 10
488.09029264807867
 20
212.3739281573371
 30
0.0
  0
VERTEX
  5
26F0A
  8
0
 10
487.83321799595592
 20
212.05536530097291
 30
0.0
  0
VERTEX
  5
26F0B
  8
0
 10
487.5814283919542
 20
211.7335415044017
 30
0.0
  0
VERTEX
  5
26F0C
  8
0
 10
487.0939162494771
 20
211.08038407551069
 30
0.0
  0
VERTEX
  5
26F0D
  8
0
 10
486.62816870459142
 20
210.415008507056
 30
0.0
  0
VERTEX
  5
26F0E
  8
0
 10
486.40358053134491
 20
210.0779144590652
 30
0.0
  0
VERTEX
  5
26F0F
  8
0
 10
486.18457982621811
 20
209.7379777731976
 30
0.0
  0
VERTEX
  5
26F10
  8
0
 10
485.76352493483449
 20
209.04986470952829
 30
0.0
  0
VERTEX
  5
26F11
  8
0
 10
485.3653602849144
 20
208.35125152839731
 30
0.0
  0
VERTEX
  5
26F12
  8
0
 10
485.17496784215251
 20
207.99819177802871
 30
0.0
  0
VERTEX
  5
26F13
  8
0
 10
484.99042276350332
 20
207.6427293263032
 30
0.0
  0
VERTEX
  5
26F14
  8
0
 10
484.63902960517612
 20
206.9248975837645
 30
0.0
  0
VERTEX
  5
26F15
  8
0
 10
484.3114781236261
 20
206.19836365809991
 30
0.0
  0
VERTEX
  5
26F16
  8
0
 10
484.00804546010812
 20
205.46374226954501
 30
0.0
  0
VERTEX
  5
26F17
  8
0
 10
483.72898834894931
 20
204.72165498113549
 30
0.0
  0
VERTEX
  5
26F18
  8
0
 10
483.4745429003251
 20
203.97272967280509
 30
0.0
  0
VERTEX
  5
26F19
  8
0
 10
483.3566176449537
 20
203.59590057028981
 30
0.0
  0
VERTEX
  5
26F1A
  8
0
 10
483.2449244004876
 20
203.2176000101326
 30
0.0
  0
VERTEX
  5
26F1B
  8
0
 10
483.04032712961219
 20
202.45690490820289
 30
0.0
  0
VERTEX
  5
26F1C
  8
0
 10
482.86092419741613
 20
201.691287991016
 30
0.0
  0
VERTEX
  5
26F1D
  8
0
 10
482.70686739669031
 20
200.92139704691911
 30
0.0
  0
VERTEX
  5
26F1E
  8
0
 10
482.57828707486891
 20
200.14788348051479
 30
0.0
  0
VERTEX
  5
26F1F
  8
0
 10
482.4752920237413
 20
199.37140176150291
 30
0.0
  0
VERTEX
  5
26F20
  8
0
 10
482.4334170549721
 20
198.9822530684369
 30
0.0
  0
VERTEX
  5
26F21
  8
0
 10
482.39796938740278
 20
198.5926088709393
 30
0.0
  0
VERTEX
  5
26F22
  8
0
 10
482.34638458852351
 20
197.81216374536049
 30
0.0
  0
VERTEX
  5
26F23
  8
0
 10
482.32058127299342
 20
197.03072671925841
 30
0.0
  0
VERTEX
  5
26F24
  8
0
 10
482.31735534677023
 20
196.63984284281651
 30
0.0
  0
SEQEND
  5
26F25
  8
0
  0
POLYLINE
  5
1FCF8
  8
0
 66
     1
 10
0.0
 20
0.0
 30
0.0
  0
VERTEX
  5
26F26
  8
0
 10
482.31735534677023
 20
196.63984284281651
 30
0.0
  0
VERTEX
  5
26F27
  8
0
 10
482.32381843991419
 20
196.08658290441591
 30
0.0
  0
VERTEX
  5
26F28
  8
0
 10
482.37550675150959
 20
194.98100083526239
 30
0.0
  0
VERTEX
  5
26F29
  8
0
 10
482.47879576001782
 20
193.8782305994109
 30
0.0
  0
VERTEX
  5
26F2A
  8
0
 10
482.54973922239191
 20
193.32848433544581
 30
0.0
  0
VERTEX
  5
26F2B
  8
0
 10
482.63351038458609
 20
192.78014145629729
 30
0.0
  0
VERTEX
  5
26F2C
  8
0
 10
482.83938837496243
 20
191.68859473063179
 30
0.0
  0
VERTEX
  5
26F2D
  8
0
 10
483.09608075602648
 20
190.6054406573503
 30
0.0
  0
VERTEX
  5
26F2E
  8
0
 10
483.40315241932188
 20
189.53251524535511
 30
0.0
  0
VERTEX
  5
26F2F
  8
0
 10
483.76008286058999
 20
188.4716371653758
 30
0.0
  0
VERTEX
  5
26F30
  8
0
 10
484.16626706205551
 20
187.42460466721781
 30
0.0
  0
VERTEX
  5
26F31
  8
0
 10
484.38761739511119
 20
186.90683612961669
 30
0.0
  0
VERTEX
  5
26F32
  8
0
 10
484.62101651796621
 20
186.39319253162009
 30
0.0
  0
VERTEX
  5
26F33
  8
0
 10
485.1235604016494
 20
185.37914906190409
 30
0.0
  0
VERTEX
  5
26F34
  8
0
 10
485.67304687210981
 20
184.384193120497
 30
0.0
  0
VERTEX
  5
26F35
  8
0
 10
486.26854451794679
 20
183.4100112153574
 30
0.0
  0
VERTEX
  5
26F36
  8
0
 10
486.90904393615273
 20
182.45825464125119
 30
0.0
  0
VERTEX
  5
26F37
  8
0
 10
487.59345944310888
 20
181.53053668070879
 30
0.0
  0
VERTEX
  5
26F38
  8
0
 10
487.951776046041
 20
181.0761852629775
 30
0.0
  0
VERTEX
  5
26F39
  8
0
 10
488.32063091488129
 20
180.6284298694172
 30
0.0
  0
VERTEX
  5
26F3A
  8
0
 10
489.08932575369948
 20
179.7534633306814
 30
0.0
  0
VERTEX
  5
26F3B
  8
0
 10
489.89824097727978
 20
178.90712018347219
 30
0.0
  0
VERTEX
  5
26F3C
  8
0
 10
490.31735534677023
 20
178.49513265671791
 30
0.0
  0
SEQEND
  5
26F3D
  8
0
  0
POLYLINE
  5
1FCF9
  8
0
 66
     1
 10
0.0
 20
0.0
 30
0.0
  0
VERTEX
  5
26F3E
  8
0
 10
537.81735534677023
 20
177.6585365231895
 30
0.0
  0
VERTEX
  5
26F3F
  8
0
 10
538.23800001036727
 20
178.0974228320319
 30
0.0
  0
VERTEX
  5
26F40
  8
0
 10
539.04936591982323
 20
178.9967312653198
 30
0.0
  0
VERTEX
  5
26F41
  8
0
 10
539.81978503816924
 20
179.92357966937291
 30
0.0
  0
VERTEX
  5
26F42
  8
0
 10
540.18926119450725
 20
180.3968808653371
 30
0.0
  0
VERTEX
  5
26F43
  8
0
 10
540.54805478161541
 20
180.87652128250011
 30
0.0
  0
VERTEX
  5
26F44
  8
0
 10
541.23303835933177
 20
181.85406861287899
 30
0.0
  0
VERTEX
  5
26F45
  8
0
 10
541.87366654792118
 20
182.85469576045671
 30
0.0
  0
VERTEX
  5
26F46
  8
0
 10
542.46893936041909
 20
183.87684079879821
 30
0.0
  0
VERTEX
  5
26F47
  8
0
 10
543.01792760722242
 20
184.9189082131679
 30
0.0
  0
VERTEX
  5
26F48
  8
0
 10
543.51977434650371
 20
185.9792713910492
 30
0.0
  0
VERTEX
  5
26F49
  8
0
 10
543.75277194328623
 20
186.51579769550969
 30
0.0
  0
VERTEX
  5
26F4A
  8
0
 10
543.9736962218542
 20
187.0562751612006
 30
0.0
  0
VERTEX
  5
26F4B
  8
0
 10
544.37898468506114
 20
188.14823837728721
 30
0.0
  0
VERTEX
  5
26F4C
  8
0
 10
544.73500710211408
 20
189.25345654206549
 30
0.0
  0
VERTEX
  5
26F4D
  8
0
 10
545.04120774071475
 20
190.3702044680139
 30
0.0
  0
VERTEX
  5
26F4E
  8
0
 10
545.2971086377438
 20
191.49673897025781
 30
0.0
  0
VERTEX
  5
26F4F
  8
0
 10
545.50231034533806
 20
192.63130158759211
 30
0.0
  0
VERTEX
  5
26F50
  8
0
 10
545.58579580062838
 20
193.20104041824291
 30
0.0
  0
VERTEX
  5
26F51
  8
0
 10
545.65649255440655
 20
193.77212132734439
 30
0.0
  0
VERTEX
  5
26F52
  8
0
 10
545.75941459461717
 20
194.91741742980409
 30
0.0
  0
VERTEX
  5
26F53
  8
0
 10
545.81091581006899
 20
196.06540214789129
 30
0.0
  0
VERTEX
  5
26F54
  8
0
 10
545.81735534677023
 20
196.63984284281651
 30
0.0
  0
SEQEND
  5
26F55
  8
0
  0
POLYLINE
  5
1FCFA
  8
0
 66
     1
 10
0.0
 20
0.0
 30
0.0
  0
VERTEX
  5
26F56
  8
0
 10
545.81735534677023
 20
196.63984284281651
 30
0.0
  0
VERTEX
  5
26F57
  8
0
 10
545.81386500036479
 20
197.06276638126201
 30
0.0
  0
VERTEX
  5
26F58
  8
0
 10
545.78594665897162
 20
197.9082556226185
 30
0.0
  0
VERTEX
  5
26F59
  8
0
 10
545.73013359788911
 20
198.75267166012961
 30
0.0
  0
VERTEX
  5
26F5A
  8
0
 10
545.69178038379778
 20
199.17425390660259
 30
0.0
  0
VERTEX
  5
26F5B
  8
0
 10
545.64647304053926
 20
199.5953000335266
 30
0.0
  0
VERTEX
  5
26F5C
  8
0
 10
545.53503577210597
 20
200.43542779508061
 30
0.0
  0
VERTEX
  5
26F5D
  8
0
 10
545.39591607964348
 20
201.2723441128301
 30
0.0
  0
VERTEX
  5
26F5E
  8
0
 10
545.22923167230101
 20
202.10534087201631
 30
0.0
  0
VERTEX
  5
26F5F
  8
0
 10
545.03512358172804
 20
202.93371327421849
 30
0.0
  0
VERTEX
  5
26F60
  8
0
 10
544.81375604274808
 20
203.7567604336837
 30
0.0
  0
VERTEX
  5
26F61
  8
0
 10
544.69290761430943
 20
204.16606923647581
 30
0.0
  0
VERTEX
  5
26F62
  8
0
 10
544.56531635439956
 20
204.573785970345
 30
0.0
  0
VERTEX
  5
26F63
  8
0
 10
544.2900147214616
 20
205.38409859903089
 30
0.0
  0
VERTEX
  5
26F64
  8
0
 10
543.98808407660113
 20
206.18701271435839
 30
0.0
  0
VERTEX
  5
26F65
  8
0
 10
543.65977988328677
 20
206.9818489708278
 30
0.0
  0
VERTEX
  5
26F66
  8
0
 10
543.30537991964275
 20
207.76793485761209
 30
0.0
  0
VERTEX
  5
26F67
  8
0
 10
542.92518404341956
 20
208.54460526757251
 30
0.0
  0
VERTEX
  5
26F68
  8
0
 10
542.72551231897955
 20
208.9292039858328
 30
0.0
  0
VERTEX
  5
26F69
  8
0
 10
542.51951393828631
 20
209.3112030600023
 30
0.0
  0
VERTEX
  5
26F6A
  8
0
 10
542.08871284165161
 20
210.06707961663591
 30
0.0
  0
VERTEX
  5
26F6B
  8
0
 10
541.63314525425255
 20
210.81159539044259
 30
0.0
  0
VERTEX
  5
26F6C
  8
0
 10
541.39619367165665
 20
211.17939573908549
 30
0.0
  0
VERTEX
  5
26F6D
  8
0
 10
541.15319663175035
 20
211.54412044674791
 30
0.0
  0
VERTEX
  5
26F6E
  8
0
 10
540.64927305859533
 20
212.26403499622299
 30
0.0
  0
VERTEX
  5
26F6F
  8
0
 10
540.12180090443997
 20
212.97072991928599
 30
0.0
  0
VERTEX
  5
26F70
  8
0
 10
539.84937280830695
 20
213.31893271557601
 30
0.0
  0
VERTEX
  5
26F71
  8
0
 10
539.57122646338735
 20
213.66360728147811
 30
0.0
  0
VERTEX
  5
26F72
  8
0
 10
538.99801557638102
 20
214.34208083937759
 30
0.0
  0
VERTEX
  5
26F73
  8
0
 10
538.40265323705853
 20
215.00557653661869
 30
0.0
  0
VERTEX
  5
26F74
  8
0
 10
537.78564318139752
 20
215.65353298960051
 30
0.0
  0
VERTEX
  5
26F75
  8
0
 10
537.14750746150435
 20
216.28540196247559
 30
0.0
  0
VERTEX
  5
26F76
  8
0
 10
536.48878600390685
 20
216.90064883100879
 30
0.0
  0
VERTEX
  5
26F77
  8
0
 10
536.15187912592626
 20
217.2018757395617
 30
0.0
  0
VERTEX
  5
26F78
  8
0
 10
535.81003615272175
 20
217.49875303492621
 30
0.0
  0
VERTEX
  5
26F79
  8
0
 10
535.11183219808697
 20
218.07920851835931
 30
0.0
  0
VERTEX
  5
26F7A
  8
0
 10
534.39476489025355
 20
218.64152415801891
 30
0.0
  0
VERTEX
  5
26F7B
  8
0
 10
533.65944093975259
 20
219.18522417873459
 30
0.0
  0
VERTEX
  5
26F7C
  8
0
 10
532.90648250405786
 20
219.70984855600909
 30
0.0
  0
VERTEX
  5
26F7D
  8
0
 10
532.13652666117832
 20
220.21495340524231
 30
0.0
  0
VERTEX
  5
26F7E
  8
0
 10
531.74537774635473
 20
220.4600517988701
 30
0.0
  0
VERTEX
  5
26F7F
  8
0
 10
531.35022487062542
 20
220.70011135730419
 30
0.0
  0
VERTEX
  5
26F80
  8
0
 10
530.54824242221537
 20
221.16491192013109
 30
0.0
  0
VERTEX
  5
26F81
  8
0
 10
529.73125787316565
 20
221.6089618260448
 30
0.0
  0
VERTEX
  5
26F82
  8
0
 10
528.89996247396925
 20
222.03188536449031
 30
0.0
  0
VERTEX
  5
26F83
  8
0
 10
528.05505958352626
 20
222.43332469993399
 30
0.0
  0
VERTEX
  5
26F84
  8
0
 10
527.1972640740338
 20
222.81294017461829
 30
0.0
  0
VERTEX
  5
26F85
  8
0
 10
526.76375798421327
 20
222.9944628626572
 30
0.0
  0
VERTEX
  5
26F86
  8
0
 10
526.32730172613128
 20
223.17041059595249
 30
0.0
  0
VERTEX
  5
26F87
  8
0
 10
525.44590861481799
 20
223.5054335082732
 30
0.0
  0
VERTEX
  5
26F88
  8
0
 10
524.55383048666113
 20
223.81772544874821
 30
0.0
  0
VERTEX
  5
26F89
  8
0
 10
523.65182212881768
 20
224.10702218721869
 30
0.0
  0
VERTEX
  5
26F8A
  8
0
 10
522.74064673041119
 20
224.37307894976129
 30
0.0
  0
VERTEX
  5
26F8B
  8
0
 10
521.82107523679645
 20
224.6156706257934
 30
0.0
  0
VERTEX
  5
26F8C
  8
0
 10
521.35838383515352
 20
224.72810213322191
 30
0.0
  0
VERTEX
  5
26F8D
  8
0
 10
520.89388569726293
 20
224.8345919585372
 30
0.0
  0
VERTEX
  5
26F8E
  8
0
 10
519.95986260672748
 20
225.02965771869009
 30
0.0
  0
VERTEX
  5
26F8F
  8
0
 10
519.01979624197384
 20
225.2007028611433
 30
0.0
  0
VERTEX
  5
26F90
  8
0
 10
518.07448199299847
 20
225.34758266463089
 30
0.0
  0
VERTEX
  5
26F91
  8
0
 10
517.12471969003195
 20
225.47017285417411
 30
0.0
  0
VERTEX
  5
26F92
  8
0
 10
516.17131292680256
 20
225.56836970623499
 30
0.0
  0
VERTEX
  5
26F93
  8
0
 10
515.69349485744283
 20
225.6082938585923
 30
0.0
  0
VERTEX
  5
26F94
  8
0
 10
515.21506838061634
 20
225.64209013647269
 30
0.0
  0
VERTEX
  5
26F95
  8
0
 10
514.25679512982617
 20
225.6912717700425
 30
0.0
  0
VERTEX
  5
26F96
  8
0
 10
513.29730396927243
 20
225.715872994374
 30
0.0
  0
VERTEX
  5
26F97
  8
0
 10
512.81735534677023
 20
225.7189486353555
 30
0.0
  0
VERTEX
  5
26F98
  8
0
 10
512.33740672426791
 20
225.715872994374
 30
0.0
  0
VERTEX
  5
26F99
  8
0
 10
511.37791556371411
 20
225.6912717700425
 30
0.0
  0
VERTEX
  5
26F9A
  8
0
 10
510.419642312924
 20
225.64209013647269
 30
0.0
  0
VERTEX
  5
26F9B
  8
0
 10
509.94121583609751
 20
225.6082938585923
 30
0.0
  0
VERTEX
  5
26F9C
  8
0
 10
509.46339776673773
 20
225.56836970623499
 30
0.0
  0
VERTEX
  5
26F9D
  8
0
 10
508.5099910035085
 20
225.47017285417411
 30
0.0
  0
VERTEX
  5
26F9E
  8
0
 10
507.56022870054198
 20
225.34758266463089
 30
0.0
  0
VERTEX
  5
26F9F
  8
0
 10
506.61491445156662
 20
225.2007028611433
 30
0.0
  0
VERTEX
  5
26FA0
  8
0
 10
505.67484808681269
 20
225.02965771869009
 30
0.0
  0
VERTEX
  5
26FA1
  8
0
 10
504.74082499627752
 20
224.8345919585372
 30
0.0
  0
VERTEX
  5
26FA2
  8
0
 10
504.27632685838688
 20
224.72810213322191
 30
0.0
  0
VERTEX
  5
26FA3
  8
0
 10
503.8136354567439
 20
224.6156706257934
 30
0.0
  0
VERTEX
  5
26FA4
  8
0
 10
502.8940639631291
 20
224.37307894976129
 30
0.0
  0
VERTEX
  5
26FA5
  8
0
 10
501.98288856472271
 20
224.10702218721869
 30
0.0
  0
VERTEX
  5
26FA6
  8
0
 10
501.08088020687933
 20
223.81772544874821
 30
0.0
  0
VERTEX
  5
26FA7
  8
0
 10
500.18880207872229
 20
223.5054335082732
 30
0.0
  0
VERTEX
  5
26FA8
  8
0
 10
499.30740896740917
 20
223.17041059595249
 30
0.0
  0
VERTEX
  5
26FA9
  8
0
 10
498.87095270932718
 20
222.9944628626572
 30
0.0
  0
VERTEX
  5
26FAA
  8
0
 10
498.43744661950649
 20
222.81294017461829
 30
0.0
  0
VERTEX
  5
26FAB
  8
0
 10
497.57965111001403
 20
222.43332469993399
 30
0.0
  0
VERTEX
  5
26FAC
  8
0
 10
496.73474821957109
 20
222.03188536449031
 30
0.0
  0
VERTEX
  5
26FAD
  8
0
 10
495.9034528203747
 20
221.6089618260448
 30
0.0
  0
VERTEX
  5
26FAE
  8
0
 10
495.08646827132492
 20
221.16491192013109
 30
0.0
  0
VERTEX
  5
26FAF
  8
0
 10
494.28448582291492
 20
220.70011135730419
 30
0.0
  0
VERTEX
  5
26FB0
  8
0
 10
493.88933294718572
 20
220.4600517988701
 30
0.0
  0
VERTEX
  5
26FB1
  8
0
 10
493.49818403236208
 20
220.21495340524231
 30
0.0
  0
VERTEX
  5
26FB2
  8
0
 10
492.72822818948242
 20
219.70984855600909
 30
0.0
  0
VERTEX
  5
26FB3
  8
0
 10
491.97526975378781
 20
219.18522417873459
 30
0.0
  0
VERTEX
  5
26FB4
  8
0
 10
491.2399458032869
 20
218.64152415801891
 30
0.0
  0
VERTEX
  5
26FB5
  8
0
 10
490.52287849545331
 20
218.07920851835931
 30
0.0
  0
VERTEX
  5
26FB6
  8
0
 10
489.82467454081871
 20
217.49875303492621
 30
0.0
  0
VERTEX
  5
26FB7
  8
0
 10
489.48283156761403
 20
217.2018757395617
 30
0.0
  0
VERTEX
  5
26FB8
  8
0
 10
489.1459246896336
 20
216.90064883100879
 30
0.0
  0
VERTEX
  5
26FB9
  8
0
 10
488.48720323203611
 20
216.28540196247559
 30
0.0
  0
VERTEX
  5
26FBA
  8
0
 10
487.84906751214288
 20
215.65353298960051
 30
0.0
  0
VERTEX
  5
26FBB
  8
0
 10
487.23205745648193
 20
215.00557653661869
 30
0.0
  0
VERTEX
  5
26FBC
  8
0
 10
486.63669511715938
 20
214.34208083937759
 30
0.0
  0
VERTEX
  5
26FBD
  8
0
 10
486.06348423015299
 20
213.66360728147811
 30
0.0
  0
VERTEX
  5
26FBE
  8
0
 10
485.78533788523339
 20
213.31893271557601
 30
0.0
  0
VERTEX
  5
26FBF
  8
0
 10
485.51290978910032
 20
212.97072991928599
 30
0.0
  0
VERTEX
  5
26FC0
  8
0
 10
484.98543763494507
 20
212.26403499622299
 30
0.0
  0
VERTEX
  5
26FC1
  8
0
 10
484.48151406178999
 20
211.54412044674791
 30
0.0
  0
VERTEX
  5
26FC2
  8
0
 10
484.23851702188381
 20
211.17939573908549
 30
0.0
  0
VERTEX
  5
26FC3
  8
0
 10
484.00156543928767
 20
210.81159539044259
 30
0.0
  0
VERTEX
  5
26FC4
  8
0
 10
483.54599785188879
 20
210.06707961663591
 30
0.0
  0
VERTEX
  5
26FC5
  8
0
 10
483.11519675525409
 20
209.3112030600023
 30
0.0
  0
VERTEX
  5
26FC6
  8
0
 10
482.9091983745609
 20
208.9292039858328
 30
0.0
  0
VERTEX
  5
26FC7
  8
0
 10
482.70952665012072
 20
208.54460526757251
 30
0.0
  0
VERTEX
  5
26FC8
  8
0
 10
482.32933077389771
 20
207.76793485761209
 30
0.0
  0
VERTEX
  5
26FC9
  8
0
 10
481.97493081025368
 20
206.9818489708278
 30
0.0
  0
VERTEX
  5
26FCA
  8
0
 10
481.64662661693927
 20
206.18701271435839
 30
0.0
  0
VERTEX
  5
26FCB
  8
0
 10
481.3446959720788
 20
205.38409859903089
 30
0.0
  0
VERTEX
  5
26FCC
  8
0
 10
481.0693943391409
 20
204.573785970345
 30
0.0
  0
VERTEX
  5
26FCD
  8
0
 10
480.94180307923102
 20
204.16606923647581
 30
0.0
  0
VERTEX
  5
26FCE
  8
0
 10
480.82095465079232
 20
203.7567604336837
 30
0.0
  0
VERTEX
  5
26FCF
  8
0
 10
480.59958711181218
 20
202.93371327421849
 30
0.0
  0
VERTEX
  5
26FD0
  8
0
 10
480.40547902123939
 20
202.10534087201631
 30
0.0
  0
VERTEX
  5
26FD1
  8
0
 10
480.23879461389703
 20
201.2723441128301
 30
0.0
  0
VERTEX
  5
26FD2
  8
0
 10
480.09967492143431
 20
200.43542779508061
 30
0.0
  0
VERTEX
  5
26FD3
  8
0
 10
479.98823765300102
 20
199.5953000335266
 30
0.0
  0
VERTEX
  5
26FD4
  8
0
 10
479.94293030974268
 20
199.17425390660259
 30
0.0
  0
VERTEX
  5
26FD5
  8
0
 10
479.90457709565129
 20
198.75267166012961
 30
0.0
  0
VERTEX
  5
26FD6
  8
0
 10
479.84876403456877
 20
197.9082556226185
 30
0.0
  0
VERTEX
  5
26FD7
  8
0
 10
479.82084569317573
 20
197.06276638126201
 30
0.0
  0
VERTEX
  5
26FD8
  8
0
 10
479.81735534677023
 20
196.63984284281651
 30
0.0
  0
SEQEND
  5
26FD9
  8
0
  0
POLYLINE
  5
1FCFB
  8
0
 66
     1
 10
0.0
 20
0.0
 30
0.0
  0
VERTEX
  5
26FDA
  8
0
 10
479.81735534677023
 20
196.63984284281651
 30
0.0
  0
VERTEX
  5
26FDB
  8
0
 10
479.82379488347152
 20
196.06540214789129
 30
0.0
  0
VERTEX
  5
26FDC
  8
0
 10
479.87529609892312
 20
194.91741742980409
 30
0.0
  0
VERTEX
  5
26FDD
  8
0
 10
479.97821813913367
 20
193.77212132734439
 30
0.0
  0
VERTEX
  5
26FDE
  8
0
 10
480.04891489291208
 20
193.20104041824291
 30
0.0
  0
VERTEX
  5
26FDF
  8
0
 10
480.13240034820222
 20
192.63130158759211
 30
0.0
  0
VERTEX
  5
26FE0
  8
0
 10
480.33760205579659
 20
191.49673897025781
 30
0.0
  0
VERTEX
  5
26FE1
  8
0
 10
480.5935029528257
 20
190.3702044680139
 30
0.0
  0
VERTEX
  5
26FE2
  8
0
 10
480.8997035914262
 20
189.25345654206549
 30
0.0
  0
VERTEX
  5
26FE3
  8
0
 10
481.25572600847931
 20
188.14823837728721
 30
0.0
  0
VERTEX
  5
26FE4
  8
0
 10
481.6610144716862
 20
187.0562751612006
 30
0.0
  0
VERTEX
  5
26FE5
  8
0
 10
481.88193875025422
 20
186.51579769550969
 30
0.0
  0
VERTEX
  5
26FE6
  8
0
 10
482.11493634703669
 20
185.9792713910492
 30
0.0
  0
VERTEX
  5
26FE7
  8
0
 10
482.61678308631798
 20
184.9189082131679
 30
0.0
  0
VERTEX
  5
26FE8
  8
0
 10
483.1657713331212
 20
183.87684079879821
 30
0.0
  0
VERTEX
  5
26FE9
  8
0
 10
483.76104414561928
 20
182.85469576045671
 30
0.0
  0
VERTEX
  5
26FEA
  8
0
 10
484.40167233420851
 20
181.85406861287899
 30
0.0
  0
VERTEX
  5
26FEB
  8
0
 10
485.08665591192488
 20
180.87652128250011
 30
0.0
  0
VERTEX
  5
26FEC
  8
0
 10
485.44544949903309
 20
180.3968808653371
 30
0.0
  0
VERTEX
  5
26FED
  8
0
 10
485.81492565537098
 20
179.92357966937291
 30
0.0
  0
VERTEX
  5
26FEE
  8
0
 10
486.58534477371722
 20
178.9967312653198
 30
0.0
  0
VERTEX
  5
26FEF
  8
0
 10
487.39671068317301
 20
178.0974228320319
 30
0.0
  0
VERTEX
  5
26FF0
  8
0
 10
487.81735534677023
 20
177.6585365231895
 30
0.0
  0
SEQEND
  5
26FF1
  8
0
  0
LINE
  5
1FCFC
  8
0
 10
490.31735534677023
 20
214.7845820825751
 30
0.0
 11
490.31735534677023
 21
169.7436887314206
 31
0.0
  0
LINE
  5
1FCFD
  8
0
 10
535.31735534677023
 20
169.7436887314206
 30
0.0
 11
535.31735534677023
 21
214.7845820825751
 31
0.0
  0
LINE
  5
1FCFE
  8
0
 10
493.34928994622732
 20
217.3288741656979
 30
0.0
 11
504.99510982345259
 21
217.3288741656979
 31
0.0
  0
LINE
  5
1FCFF
  8
0
 10
520.63960087008797
 20
217.3288741656979
 30
0.0
 11
532.28542074731297
 21
217.3288741656979
 31
0.0
  0
LINE
  5
1FD03
  8
0
 10
509.81735534677011
 20
219.74368873142069
 30
0.0
 11
515.81735534677023
 21
219.74368873142069
 31
0.0
  0
LINE
  5
1FD04
  8
0
 10
515.81735534677023
 20
139.7436887314206
 30
0.0
 11
509.81735534677011
 21
139.7436887314206
 31
0.0
  0
ARC
  5
1FD05
  8
0
 10
509.81735534677011
 20
140.04368873142079
 30
0.0
 40
0.3000000000000185
 50
179.99999914622629
 51
270.0
  0
ARC
  5
1FD06
  8
0
 10
509.81735534677011
 20
219.44368873142051
 30
0.0
 40
0.3000000000000145
 50
90.0
 51
179.99999914622629
  0
LINE
  5
1FD07
  8
0
 10
507.11735534677013
 20
219.44368873142051
 30
0.0
 11
509.51735534677022
 21
219.44368873142051
 31
0.0
  0
LINE
  5
1FD08
  8
0
 10
509.51735534677022
 20
140.04368873142079
 30
0.0
 11
507.11735534677013
 21
140.04368873142079
 31
0.0
  0
ARC
  5
1FD09
  8
0
 10
506.81735534677023
 20
140.04368873142079
 30
0.0
 40
0.2999999999999998
 50
270.0
 51
0.0
  0
ARC
  5
1FD0A
  8
0
 10
506.81735534677023
 20
219.44368873142051
 30
0.0
 40
0.2999999999999971
 50
0.0
 51
90.0
  0
LINE
  5
1FD0B
  8
0
 10
506.53989022730178
 20
219.74368873142069
 30
0.0
 11
506.81735534677023
 21
219.74368873142069
 31
0.0
  0
LINE
  5
1FD0C
  8
0
 10
506.81735534677023
 20
139.7436887314206
 30
0.0
 11
506.53989022730178
 21
139.7436887314206
 31
0.0
  0
ARC
  5
1FD0D
  8
0
 10
506.53989022730178
 20
140.7436887314206
 30
0.0
 40
1.0000000000000211
 50
198.99999999998761
 51
270.0
  0
ARC
  5
1FD0E
  8
0
 10
506.53989022730178
 20
218.7436887314206
 30
0.0
 40
1.0000000000000191
 50
90.0
 51
161.00000000001231
  0
LINE
  5
1FD0F
  8
0
 10
504.90208719295617
 20
217.0587168303409
 30
0.0
 11
505.59437165170237
 21
219.06925688587759
 31
0.0
  0
LINE
  5
1FD10
  8
0
 10
505.59437165170237
 20
140.4181205769637
 30
0.0
 11
504.90208719295617
 21
142.4286606325004
 31
0.0
  0
ARC
  5
1FD11
  8
0
 10
507.738642919754
 20
143.40536509587119
 30
0.0
 40
2.9999999999997642
 50
180.0
 51
198.99999999998761
  0
ARC
  5
1FD12
  8
0
 10
507.73864291975428
 20
216.0820123669692
 30
0.0
 40
3.0000000000000191
 50
161.00000000001231
 51
180.0
  0
ARC
  5
1FD13
  8
0
 10
504.32197625308748
 20
144.1134251343255
 30
0.0
 40
0.4166666666666679
 50
180.0
 51
0.0
  0
ARC
  5
1FD14
  8
0
 10
504.32197625308748
 20
215.37395232851489
 30
0.0
 40
0.4166666666666679
 50
0.0
 51
180.0
  0
ARC
  5
1FD15
  8
0
 10
503.48864291975423
 20
146.53360086572229
 30
0.0
 40
0.4166666666666661
 50
180.0
 51
0.0
  0
ARC
  5
1FD16
  8
0
 10
503.48864291975423
 20
212.953776597119
 30
0.0
 40
0.4166666666666661
 50
0.0
 51
180.0
  0
LINE
  5
1FD17
  8
0
 10
500.48079961997217
 20
204.21836536754751
 30
0.0
 11
503.07197625308748
 21
211.74368873142069
 31
0.0
  0
LINE
  5
1FD18
  8
0
 10
503.07197625308748
 20
147.7436887314206
 30
0.0
 11
500.48079961997217
 21
155.26901209529291
 31
0.0
  0
ARC
  5
1FD19
  8
0
 10
503.31735534677023
 20
156.2457165586647
 30
0.0
 40
3.0000000000000591
 50
179.99999914622629
 51
198.99999999998761
  0
ARC
  5
1FD1A
  8
0
 10
503.31735534677023
 20
203.2416609041766
 30
0.0
 40
3.00000000000006
 50
161.00000000001231
 51
179.99999914622629
  0
ARC
  5
1FD1B
  8
0
 10
522.31735534677011
 20
156.2457165586647
 30
0.0
 40
3.0000000000000102
 50
341.00000000001239
 51
0.0
  0
ARC
  5
1FD1C
  8
0
 10
522.31735534677046
 20
203.2416609041766
 30
0.0
 40
2.9999999999998201
 50
0.0
 51
18.999999999987629
  0
LINE
  5
1FD1D
  8
0
 10
522.56273444045291
 20
211.74368873142069
 30
0.0
 11
525.15391107356822
 21
204.21836536754751
 31
0.0
  0
LINE
  5
1FD1E
  8
0
 10
525.15391107356822
 20
155.26901209529291
 30
0.0
 11
522.56273444045291
 21
147.7436887314206
 31
0.0
  0
ARC
  5
1FD1F
  8
0
 10
522.14606777378606
 20
146.53360086572229
 30
0.0
 40
0.4166666666666679
 50
180.0
 51
0.0
  0
ARC
  5
1FD20
  8
0
 10
522.14606777378606
 20
212.953776597119
 30
0.0
 40
0.4166666666666679
 50
0.0
 51
180.0
  0
ARC
  5
1FD21
  8
0
 10
521.3127344404528
 20
144.1134251343255
 30
0.0
 40
0.4166666666666661
 50
180.0
 51
0.0
  0
ARC
  5
1FD22
  8
0
 10
521.3127344404528
 20
215.37395232851489
 30
0.0
 40
0.4166666666666661
 50
0.0
 51
180.0
  0
ARC
  5
1FD23
  8
0
 10
517.8960677737864
 20
143.40536509587119
 30
0.0
 40
2.9999999999997882
 50
341.00000000001239
 51
0.0000008537736463
  0
ARC
  5
1FD24
  8
0
 10
517.8960677737864
 20
216.0820123669692
 30
0.0
 40
2.9999999999997882
 50
0.0
 51
18.999999999987629
  0
LINE
  5
1FD25
  8
0
 10
520.04033904183791
 20
219.06925688587759
 30
0.0
 11
520.73262350058405
 21
217.0587168303409
 31
0.0
  0
LINE
  5
1FD26
  8
0
 10
520.73262350058405
 20
142.4286606325004
 30
0.0
 11
520.04033904183791
 21
140.4181205769637
 31
0.0
  0
ARC
  5
1FD27
  8
0
 10
519.09482046623862
 20
140.7436887314206
 30
0.0
 40
1.000000000000018
 50
270.0
 51
341.00000000001239
  0
ARC
  5
1FD28
  8
0
 10
519.09482046623862
 20
218.7436887314206
 30
0.0
 40
1.0000000000000211
 50
18.999999999987629
 51
90.0
  0
LINE
  5
1FD29
  8
0
 10
518.81735534677023
 20
219.74368873142069
 30
0.0
 11
519.09482046623862
 21
219.74368873142069
 31
0.0
  0
LINE
  5
1FD2A
  8
0
 10
519.09482046623862
 20
139.7436887314206
 30
0.0
 11
518.81735534677023
 21
139.7436887314206
 31
0.0
  0
ARC
  5
1FD2B
  8
0
 10
518.81735534677023
 20
140.04368873142079
 30
0.0
 40
0.2999999999999971
 50
180.0
 51
270.0
  0
ARC
  5
1FD2C
  8
0
 10
518.81735534677023
 20
219.44368873142051
 30
0.0
 40
0.299999999999998
 50
90.0
 51
180.0
  0
LINE
  5
1FD2D
  8
0
 10
516.11735534677007
 20
219.44368873142051
 30
0.0
 11
518.51735534677016
 21
219.44368873142051
 31
0.0
  0
LINE
  5
1FD2E
  8
0
 10
518.51735534677016
 20
140.04368873142079
 30
0.0
 11
516.11735534677007
 21
140.04368873142079
 31
0.0
  0
ARC
  5
1FD2F
  8
0
 10
515.81735534677023
 20
140.04368873142079
 30
0.0
 40
0.2999999999999985
 50
270.0
 51
0.0000008537736463
  0
ARC
  5
1FD30
  8
0
 10
515.81735534677023
 20
219.44368873142051
 30
0.0
 40
0.2999999999999971
 50
0.0000008537736463
 51
90.0
  0
LINE
  5
1FD31
  8
0
 10
509.51735534677022
 20
140.04368873142079
 30
0.0
 11
509.51735534677022
 21
219.44368873142051
 31
0.0
  0
LINE
  5
1FD32
  8
0
 10
507.11735534677013
 20
140.04368873142079
 30
0.0
 11
507.11735534677013
 21
219.44368873142051
 31
0.0
  0
LINE
  5
1FD33
  8
0
 10
504.73864291975423
 20
143.40536509587119
 30
0.0
 11
504.73864291975423
 21
216.0820123669692
 31
0.0
  0
LINE
  5
1FD34
  8
0
 10
503.9053095864208
 20
144.1134251343255
 30
0.0
 11
503.9053095864208
 21
215.37395232851489
 31
0.0
  0
LINE
  5
1FD35
  8
0
 10
503.07197625308748
 20
146.53360086572229
 30
0.0
 11
503.07197625308748
 21
212.953776597119
 31
0.0
  0
LINE
  5
1FD36
  8
0
 10
500.31735534677023
 20
156.2457165586647
 30
0.0
 11
500.31735534677023
 21
203.2416609041766
 31
0.0
  0
LINE
  5
1FD37
  8
0
 10
522.56273444045291
 20
146.53360086572229
 30
0.0
 11
522.56273444045291
 21
212.953776597119
 31
0.0
  0
LINE
  5
1FD38
  8
0
 10
521.72940110711966
 20
144.1134251343255
 30
0.0
 11
521.72940110711966
 21
215.37395232851489
 31
0.0
  0
LINE
  5
1FD39
  8
0
 10
520.89606777378606
 20
143.40536509587119
 30
0.0
 11
520.89606777378606
 21
216.0820123669692
 31
0.0
  0
LINE
  5
1FD3A
  8
0
 10
518.51735534677016
 20
140.04368873142079
 30
0.0
 11
518.51735534677016
 21
219.44368873142051
 31
0.0
  0
LINE
  5
1FD3B
  8
0
 10
516.11735534677007
 20
140.04368873142079
 30
0.0
 11
516.11735534677007
 21
219.44368873142051
 31
0.0
  0
LINE
  5
1FD3C
  8
0
 10
525.31735534677023
 20
156.2457165586647
 30
0.0
 11
525.31735534677023
 21
203.2416609041766
 31
0.0
  0
LINE
  5
1FD3D
  8
0
 10
318.90231598404739
 20
172.51718786206399
 30
0.0
 11
325.1606493173806
 21
176.13043829674189
 31
0.0
  0
LINE
  5
1FD3E
  8
0
 10
312.64398265071418
 20
176.13043829674189
 30
0.0
 11
318.90231598404739
 21
172.51718786206399
 31
0.0
  0
LINE
  5
1FD3F
  8
0
 10
312.64398265071418
 20
183.3569391660985
 30
0.0
 11
312.64398265071418
 21
176.13043829674189
 31
0.0
  0
LINE
  5
1FD40
  8
0
 10
325.1606493173806
 20
183.3569391660985
 30
0.0
 11
318.90231598404739
 21
186.9701896007773
 31
0.0
  0
LINE
  5
1FD41
  8
0
 10
318.90231598404739
 20
186.9701896007773
 30
0.0
 11
312.64398265071418
 21
183.3569391660985
 31
0.0
  0
LINE
  5
1FD42
  8
0
 10
325.1606493173806
 20
176.13043829674189
 30
0.0
 11
325.1606493173806
 21
183.3569391660985
 31
0.0
  0
CIRCLE
  5
1FD43
  8
0
 10
318.90231598404739
 20
179.7436887314206
 30
0.0
 40
6.2583333333333311
  0
LINE
  5
1FD44
  8
1
 10
357.90231598404739
 20
254.73710445285991
 30
0.0
 11
357.90231598404739
 21
215.5572688819193
 31
0.0
  0
LINE
  5
1FD45
  8
0
 10
392.70231598404729
 20
243.44368873142051
 30
0.0
 11
392.70231598404729
 21
244.24368873142069
 31
0.0
  0
LINE
  5
1FD46
  8
0
 10
323.10231598404749
 20
244.24368873142069
 30
0.0
 11
323.10231598404749
 21
243.44368873142051
 31
0.0
  0
LINE
  5
1FD47
  8
0
 10
392.40353664802541
 20
234.94368873142051
 30
0.0
 11
393.90231598404739
 21
243.44368873142051
 31
0.0
  0
LINE
  5
1FD48
  8
0
 10
321.90231598404739
 20
243.44368873142051
 30
0.0
 11
323.40109532006932
 21
234.94368873142051
 31
0.0
  0
LINE
  5
1FD49
  8
0
 10
390.90231598404739
 20
225.7189486353555
 30
0.0
 11
390.90231598404739
 21
234.94368873142051
 31
0.0
  0
LINE
  5
1FD4A
  8
0
 10
324.90231598404739
 20
234.94368873142051
 30
0.0
 11
324.90231598404739
 21
232.94368873142051
 31
0.0
  0
LINE
  5
1FD4B
  8
0
 10
407.90231598404728
 20
246.74368873142069
 30
0.0
 11
407.90231598404728
 21
244.24368873142069
 31
0.0
  0
LINE
  5
1FD4C
  8
0
 10
307.90231598404739
 20
246.74368873142069
 30
0.0
 11
307.90231598404739
 21
244.24368873142069
 31
0.0
  0
LINE
  5
1FD4D
  8
0
 10
307.90231598404739
 20
246.74368873142069
 30
0.0
 11
407.90231598404728
 21
246.74368873142069
 31
0.0
  0
LINE
  5
1FD4E
  8
0
 10
307.90231598404739
 20
244.24368873142069
 30
0.0
 11
407.90231598404728
 21
244.24368873142069
 31
0.0
  0
LINE
  5
1FD4F
  8
0
 10
321.90231598404739
 20
243.44368873142051
 30
0.0
 11
393.90231598404739
 21
243.44368873142051
 31
0.0
  0
LINE
  5
1FD50
  8
0
 10
323.40109532006932
 20
234.94368873142051
 30
0.0
 11
392.40353664802541
 21
234.94368873142051
 31
0.0
  0
LINE
  5
1FD51
  8
0
 10
336.36165675550927
 20
232.94368873142051
 30
0.0
 11
310.90231598404739
 21
232.94368873142051
 31
0.0
  0
LINE
  5
1FD52
  8
0
 10
336.36165675550927
 20
232.94368873142051
 30
0.0
 11
336.36165675550927
 21
177.6585365231895
 31
0.0
  0
LINE
  5
1FD53
  8
0
 10
310.90231598404739
 20
232.94368873142051
 30
0.0
 11
310.90231598404739
 21
229.2436887314206
 31
0.0
  0
ARC
  5
1FD54
  8
0
 10
323.60231598404738
 20
179.7436887314206
 30
0.0
 40
9.9999999999999662
 50
270.0
 51
311.38601943388272
  0
LINE
  5
1FD55
  8
0
 10
330.21360411759088
 20
172.24096461179121
 30
0.0
 11
390.90231598404739
 21
225.7189486353555
 31
0.0
  0
ARC
  5
1FD56
  8
0
 10
314.20231598404729
 20
179.7436887314206
 30
0.0
 40
10.0
 50
172.18513004293081
 51
270.0
  0
LINE
  5
1FD57
  8
0
 10
310.90231598404739
 20
229.2436887314206
 30
0.0
 11
304.29519013522417
 21
181.1034156950345
 31
0.0
  0
LINE
  5
1FD5C
  8
1
 10
270.90890026260809
 20
179.7436887314206
 30
0.0
 11
366.8957317054867
 21
179.7436887314206
 31
0.0
  0
LINE
  5
1FD5D
  8
1
 10
318.90231598404739
 20
131.7502730099813
 30
0.0
 11
318.90231598404739
 21
221.74368873142069
 31
0.0
  0
ARC
  5
1FD5E
  8
0
 10
318.90231598404739
 20
179.7436887314206
 30
0.0
 40
40.000000000000021
 50
103.6794340613688
 51
22.257838318798271
  0
CIRCLE
  5
1FD5F
  8
0
 10
357.90231598404739
 20
384.07567298692902
 30
0.0
 40
8.9249999999999972
  0
CIRCLE
  5
1FD60
  8
0
 10
357.90231598404739
 20
384.07567298692902
 30
0.0
 40
13.579006893609151
  0
CIRCLE
  5
1FD61
  8
0
 10
357.90231598404739
 20
384.07567298692902
 30
0.0
 40
20.175000000000001
  0
CIRCLE
  5
1FD62
  8
0
 10
357.90231598404739
 20
384.07567298692902
 30
0.0
 40
25.668546822706869
  0
CIRCLE
  5
1FD63
  8
0
 10
357.90231598404739
 20
384.07567298692902
 30
0.0
 40
27.174999999999962
  0
CIRCLE
  5
1FD64
  8
0
 10
357.90231598404739
 20
384.07567298692902
 30
0.0
 40
31.175000000000001
  0
LINE
  5
1FD65
  8
1
 10
270.90890026260809
 20
384.0756729869272
 30
0.0
 11
415.89573170548749
 21
384.07567298692811
 31
0.0
  0
LINE
  5
1FD66
  8
1
 10
357.90231598404739
 20
434.56908870836833
 30
0.0
 11
357.90231598404739
 21
333.58225726548881
 31
0.0
  0
LINE
  5
1FD67
  8
1
 10
318.90231598404739
 20
336.07221254493101
 30
0.0
 11
318.90231598404739
 21
432.07913342892522
 31
0.0
  0
LINE
  5
1FD68
  8
3
 10
547.81735534677023
 20
182.97668873142081
 30
0.0
 11
545.81735534677023
 21
182.97668873142081
 31
0.0
  0
LINE
  5
1FD69
  8
3
 10
547.81735534677023
 20
176.51068873142049
 30
0.0
 11
545.81735534677023
 21
176.51068873142049
 31
0.0
  0
LINE
  5
1FD6A
  8
0
 10
314.20231598404729
 20
169.7436887314206
 30
0.0
 11
323.60231598404738
 21
169.7436887314206
 31
0.0
  0
ARC
  5
1FD6B
  8
0
 10
318.90231598404739
 20
179.7436887314206
 30
0.0
 40
33.626754532364927
 50
108.02476575592139
 51
18.444710596195939
  0
ARC
  5
1FD6C
  8
0
 10
318.90231598404739
 20
179.7436887314206
 30
0.0
 40
36.046930263761439
 50
106.1759815241589
 51
20.063475045754831
  0
ARC
  5
1FD6D
  8
0
 10
318.90231598404779
 20
180.05763330244551
 30
0.0
 40
24.308207062973381
 50
119.1397431136609
 51
8.0942282522586062
  0
ARC
  5
1FD6E
  8
0
 10
318.90231598404739
 20
179.7436887314206
 30
0.0
 40
31.999999999999989
 50
109.4439595599199
 51
17.206102616196389
  0
ARC
  5
1FD6F
  8
0
 10
318.90231598404688
 20
179.7436887314206
 30
0.0
 40
20.00000000000005
 50
129.3082444632652
 51
0.4386668823184119
  0
LINE
  5
1FD85
  8
0
 10
114.0813520383124
 20
173.7436898043043
 30
0.0
 11
104.0813503991846
 21
173.7436898043043
 31
0.0
  0
LINE
  5
1FD86
  8
0
 10
104.0813503991846
 20
185.74368804596719
 30
0.0
 11
114.0813520383124
 21
185.74368804596719
 31
0.0
  0
LINE
  5
1FD87
  8
0
 10
149.081352187324
 20
173.7436898043043
 30
0.0
 11
139.08135241084139
 21
173.7436898043043
 31
0.0
  0
LINE
  5
1FD88
  8
0
 10
139.08135241084139
 20
185.74368804596719
 30
0.0
 11
149.081352187324
 21
185.74368804596719
 31
0.0
  0
LINE
  5
1FD89
  8
0
 10
96.081352813172771
 20
173.92868772052589
 30
0.0
 11
93.581351472068263
 21
173.92868772052589
 31
0.0
  0
LINE
  5
1FD8A
  8
0
 10
93.581351472068263
 20
185.5586901297456
 30
0.0
 11
96.081352813172771
 21
185.5586901297456
 31
0.0
  0
LINE
  5
1FD8B
  8
0
 10
152.18135227635841
 20
173.92868772052589
 30
0.0
 11
151.58135213144459
 21
173.92868772052589
 31
0.0
  0
LINE
  5
1FD8C
  8
0
 10
151.58135213144459
 20
185.5586901297456
 30
0.0
 11
152.18135227635841
 21
185.5586901297456
 31
0.0
  0
LINE
  5
1FD8D
  8
0
 10
93.581351472068263
 20
175.74368640683949
 30
0.0
 11
92.348351163793041
 21
175.74368640683949
 31
0.0
  0
LINE
  5
1FD8E
  8
0
 10
92.348351163793041
 20
183.7436877181417
 30
0.0
 11
93.581351472068263
 21
183.7436877181417
 31
0.0
  0
LINE
  5
1FD8F
  8
0
 10
92.348351163793041
 20
175.74368640683949
 30
0.0
 11
91.581351144242717
 21
176.51068642638981
 31
0.0
  0
LINE
  5
1FD90
  8
0
 10
91.581351144242717
 20
182.97668769859141
 30
0.0
 11
92.348351163793041
 21
183.7436877181417
 31
0.0
  0
LINE
  5
1FD91
  8
0
 10
96.081352813172771
 20
186.00202202700439
 30
0.0
 11
96.340770853686763
 21
186.97019144796189
 31
0.0
  0
LINE
  5
1FD92
  8
0
 10
96.340770853686763
 20
172.5171901275998
 30
0.0
 11
96.081352813172771
 21
173.4853558232671
 31
0.0
  0
LINE
  5
1FD93
  8
0
 10
101.3219310175661
 20
186.97019144796189
 30
0.0
 11
101.58135278337041
 21
186.00202202700439
 31
0.0
  0
LINE
  5
1FD94
  8
0
 10
101.58135278337041
 20
173.4853558232671
 30
0.0
 11
101.3219310175661
 21
172.5171901275998
 31
0.0
  0
LINE
  5
1FD95
  8
0
 10
152.44077194668691
 20
172.5171901275998
 30
0.0
 11
152.18135227635841
 21
173.4853558232671
 31
0.0
  0
LINE
  5
1FD96
  8
0
 10
152.18135227635841
 20
186.00202202700439
 30
0.0
 11
152.44077194668691
 21
186.97019144796189
 31
0.0
  0
LINE
  5
1FD97
  8
0
 10
156.88135197572751
 20
173.4853558232671
 30
0.0
 11
156.6219325382296
 21
172.5171901275998
 31
0.0
  0
LINE
  5
1FD98
  8
0
 10
156.6219325382296
 20
186.97019144796189
 30
0.0
 11
156.88135197572751
 21
186.00202202700439
 31
0.0
  0
LINE
  5
1FD99
  8
0
 10
162.58135253750081
 20
243.44368874930211
 30
0.0
 11
161.082573255527
 21
234.94368828736609
 31
0.0
  0
LINE
  5
1FD9A
  8
0
 10
92.080130262303314
 20
234.94368828736609
 30
0.0
 11
90.581352842974624
 21
243.44368874930211
 31
0.0
  0
LINE
  5
1FD9B
  8
0
 10
161.3813517820119
 20
244.24368878729999
 30
0.0
 11
161.3813517820119
 21
243.44368874930211
 31
0.0
  0
LINE
  5
1FD9C
  8
0
 10
91.781350804495787
 20
243.44368874930211
 30
0.0
 11
91.781350804495787
 21
244.24368878729999
 31
0.0
  0
LINE
  5
1FD9D
  8
0
 10
159.58135204576249
 20
234.94368828736609
 30
0.0
 11
159.58135204576249
 21
196.63984179400271
 31
0.0
  0
LINE
  5
1FD9E
  8
0
 10
93.581351472067794
 20
196.63984179400271
 30
0.0
 11
93.581351472067794
 21
234.94368828736609
 31
0.0
  0
LINE
  5
1FD9F
  8
0
 10
104.0813503991846
 20
169.7436891486532
 30
0.0
 11
101.58135278337041
 21
169.7436891486532
 31
0.0
  0
LINE
  5
1FDA0
  8
0
 10
151.58135213144459
 20
169.7436891486532
 30
0.0
 11
149.081352187324
 21
169.7436891486532
 31
0.0
  0
LINE
  5
1FDA1
  8
0
 10
104.0813503991846
 20
229.24368865691491
 30
0.0
 11
104.0813503991846
 21
169.7436891486532
 31
0.0
  0
LINE
  5
1FDA2
  8
0
 10
101.58135278337041
 20
229.24368865691491
 30
0.0
 11
101.58135278337041
 21
169.7436891486532
 31
0.0
  0
LINE
  5
1FDA3
  8
0
 10
151.58135213144459
 20
169.7436891486532
 30
0.0
 11
151.58135213144459
 21
229.24368865691491
 31
0.0
  0
LINE
  5
1FDA4
  8
0
 10
149.081352187324
 20
169.7436891486532
 30
0.0
 11
149.081352187324
 21
229.24368865691491
 31
0.0
  0
LINE
  5
1FDA5
  8
0
 10
84.081354571509792
 20
244.24368878729999
 30
0.0
 11
84.081354571509792
 21
246.74368873142069
 31
0.0
  0
LINE
  5
1FDA6
  8
0
 10
169.08135174028911
 20
244.24368878729999
 30
0.0
 11
84.081354571509792
 21
244.24368878729999
 31
0.0
  0
LINE
  5
1FDA7
  8
0
 10
169.08135174028911
 20
246.74368873142069
 30
0.0
 11
84.081354571509792
 21
246.74368873142069
 31
0.0
  0
LINE
  5
1FDA8
  8
0
 10
169.08135174028911
 20
244.24368878729999
 30
0.0
 11
169.08135174028911
 21
246.74368873142069
 31
0.0
  0
LINE
  5
1FDA9
  8
0
 10
149.081352187324
 20
229.24368865691491
 30
0.0
 11
104.0813503991846
 21
229.24368865691491
 31
0.0
  0
LINE
  5
1FDAA
  8
0
 10
101.58135278337041
 20
232.94368889086309
 30
0.0
 11
151.58135213144459
 21
232.94368889086309
 31
0.0
  0
LINE
  5
1FDAB
  8
0
 10
151.58135213144459
 20
229.24368865691491
 30
0.0
 11
151.58135213144459
 21
232.94368889086309
 31
0.0
  0
LINE
  5
1FDAC
  8
0
 10
101.58135278337041
 20
232.94368889086309
 30
0.0
 11
101.58135278337041
 21
229.24368865691491
 31
0.0
  0
POLYLINE
  5
1FDAD
  8
0
 66
     1
 10
0.0
 20
0.0
 30
0.0
 70
   128
  0
VERTEX
  5
26FF2
  8
0
 10
101.3219310175661
 20
176.13043859504521
 30
0.0
  0
VERTEX
  5
26FF3
  8
0
 10
101.43069831841029
 20
177.0319364955312
 30
0.0
  0
VERTEX
  5
26FF4
  8
0
 10
101.58135278337041
 20
179.74368706249061
 30
0.0
  0
SEQEND
  5
26FF5
  8
0
  0
POLYLINE
  5
1FDAE
  8
0
 66
     1
 10
0.0
 20
0.0
 30
0.0
 70
   128
  0
VERTEX
  5
26FF6
  8
0
 10
101.58135278337041
 20
174.32381436132249
 30
0.0
  0
VERTEX
  5
26FF7
  8
0
 10
101.51287822239441
 20
175.22712275289359
 30
0.0
  0
VERTEX
  5
26FF8
  8
0
 10
101.3219310175661
 20
176.13043859504521
 30
0.0
  0
SEQEND
  5
26FF9
  8
0
  0
POLYLINE
  5
1FDAF
  8
0
 66
     1
 10
0.0
 20
0.0
 30
0.0
 70
   128
  0
VERTEX
  5
26FFA
  8
0
 10
101.3219310175661
 20
183.35693552993601
 30
0.0
  0
VERTEX
  5
26FFB
  8
0
 10
101.5122747253661
 20
184.2561908056623
 30
0.0
  0
VERTEX
  5
26FFC
  8
0
 10
101.58135278337041
 20
185.16356348894899
 30
0.0
  0
SEQEND
  5
26FFD
  8
0
  0
POLYLINE
  5
1FDB0
  8
0
 66
     1
 10
0.0
 20
0.0
 30
0.0
 70
   128
  0
VERTEX
  5
26FFE
  8
0
 10
101.58135278337041
 20
179.74368706249061
 30
0.0
  0
VERTEX
  5
26FFF
  8
0
 10
101.51287822239441
 20
181.55031129621329
 30
0.0
  0
VERTEX
  5
27000
  8
0
 10
101.3219310175661
 20
183.35693552993601
 30
0.0
  0
SEQEND
  5
27001
  8
0
  0
POLYLINE
  5
1FDB1
  8
0
 66
     1
 10
0.0
 20
0.0
 30
0.0
 70
   128
  0
VERTEX
  5
27002
  8
0
 10
96.340770853686763
 20
183.35693552993601
 30
0.0
  0
VERTEX
  5
27003
  8
0
 10
96.15043087117715
 20
181.55843987964451
 30
0.0
  0
VERTEX
  5
27004
  8
0
 10
96.081352813172771
 20
179.74368706249061
 30
0.0
  0
SEQEND
  5
27005
  8
0
  0
POLYLINE
  5
1FDB2
  8
0
 66
     1
 10
0.0
 20
0.0
 30
0.0
 70
   128
  0
VERTEX
  5
27006
  8
0
 10
96.081352813172771
 20
185.16356348894899
 30
0.0
  0
VERTEX
  5
27007
  8
0
 10
96.149827374148799
 20
184.26025137208759
 30
0.0
  0
VERTEX
  5
27008
  8
0
 10
96.340770853686763
 20
183.35693552993601
 30
0.0
  0
SEQEND
  5
27009
  8
0
  0
POLYLINE
  5
1FDB3
  8
0
 66
     1
 10
0.0
 20
0.0
 30
0.0
 70
   128
  0
VERTEX
  5
2700A
  8
0
 10
96.340770853686763
 20
176.13043859504521
 30
0.0
  0
VERTEX
  5
2700B
  8
0
 10
96.15043087117715
 20
175.23119076989951
 30
0.0
  0
VERTEX
  5
2700C
  8
0
 10
96.081352813172771
 20
174.32381436132249
 30
0.0
  0
SEQEND
  5
2700D
  8
0
  0
POLYLINE
  5
1FDB4
  8
0
 66
     1
 10
0.0
 20
0.0
 30
0.0
 70
   128
  0
VERTEX
  5
2700E
  8
0
 10
96.081352813172771
 20
179.74368706249061
 30
0.0
  0
VERTEX
  5
2700F
  8
0
 10
96.232007278132869
 20
177.0319364955312
 30
0.0
  0
VERTEX
  5
27010
  8
0
 10
96.340770853686763
 20
176.13043859504521
 30
0.0
  0
SEQEND
  5
27011
  8
0
  0
LINE
  5
1FDB5
  8
0
 10
96.340770853686763
 20
183.35693552993601
 30
0.0
 11
101.3219310175661
 21
183.35693552993601
 31
0.0
  0
LINE
  5
1FDB6
  8
0
 10
96.340770853686763
 20
176.13043859504521
 30
0.0
 11
101.3219310175661
 21
176.13043859504521
 31
0.0
  0
POLYLINE
  5
1FDB7
  8
0
 66
     1
 10
0.0
 20
0.0
 30
0.0
 70
   128
  0
VERTEX
  5
27012
  8
0
 10
101.58135278337041
 20
185.16356348894899
 30
0.0
  0
VERTEX
  5
27013
  8
0
 10
101.51287822239441
 20
186.06687560581031
 30
0.0
  0
VERTEX
  5
27014
  8
0
 10
101.3219310175661
 20
186.97019144796189
 30
0.0
  0
SEQEND
  5
27015
  8
0
  0
LINE
  5
1FDB8
  8
0
 10
96.340770853686763
 20
186.97019144796189
 30
0.0
 11
101.3219310175661
 21
186.97019144796189
 31
0.0
  0
POLYLINE
  5
1FDB9
  8
0
 66
     1
 10
0.0
 20
0.0
 30
0.0
 70
   128
  0
VERTEX
  5
27016
  8
0
 10
96.340770853686763
 20
186.97019144796189
 30
0.0
  0
VERTEX
  5
27017
  8
0
 10
96.15043087117715
 20
186.0709398975259
 30
0.0
  0
VERTEX
  5
27018
  8
0
 10
96.081352813172771
 20
185.16356348894899
 30
0.0
  0
SEQEND
  5
27019
  8
0
  0
POLYLINE
  5
1FDBA
  8
0
 66
     1
 10
0.0
 20
0.0
 30
0.0
 70
   128
  0
VERTEX
  5
2701A
  8
0
 10
101.3219310175661
 20
172.5171901275998
 30
0.0
  0
VERTEX
  5
2701B
  8
0
 10
101.5122747253661
 20
173.41643795274561
 30
0.0
  0
VERTEX
  5
2701C
  8
0
 10
101.58135278337041
 20
174.32381436132249
 30
0.0
  0
SEQEND
  5
2701D
  8
0
  0
POLYLINE
  5
1FDBB
  8
0
 66
     1
 10
0.0
 20
0.0
 30
0.0
 70
   128
  0
VERTEX
  5
2701E
  8
0
 10
96.081352813172771
 20
174.32381436132249
 30
0.0
  0
VERTEX
  5
2701F
  8
0
 10
96.149827374148799
 20
173.42049851917091
 30
0.0
  0
VERTEX
  5
27020
  8
0
 10
96.340770853686763
 20
172.5171901275998
 30
0.0
  0
SEQEND
  5
27021
  8
0
  0
LINE
  5
1FDBC
  8
0
 10
96.340770853686763
 20
172.5171901275998
 30
0.0
 11
101.3219310175661
 21
172.5171901275998
 31
0.0
  0
POLYLINE
  5
1FDBD
  8
0
 66
     1
 10
0.0
 20
0.0
 30
0.0
 70
   128
  0
VERTEX
  5
27022
  8
0
 10
152.18135227635841
 20
179.74368706249061
 30
0.0
  0
VERTEX
  5
27023
  8
0
 10
152.24982567318119
 20
181.55031129621329
 30
0.0
  0
VERTEX
  5
27024
  8
0
 10
152.44077194668691
 20
183.35693552993601
 30
0.0
  0
SEQEND
  5
27025
  8
0
  0
POLYLINE
  5
1FDBE
  8
0
 66
     1
 10
0.0
 20
0.0
 30
0.0
 70
   128
  0
VERTEX
  5
27026
  8
0
 10
152.44077194668691
 20
183.35693552993601
 30
0.0
  0
VERTEX
  5
27027
  8
0
 10
152.2504305671934
 20
184.2561908056623
 30
0.0
  0
VERTEX
  5
27028
  8
0
 10
152.18135227635841
 20
185.16356348894899
 30
0.0
  0
SEQEND
  5
27029
  8
0
  0
POLYLINE
  5
1FDBF
  8
0
 66
     1
 10
0.0
 20
0.0
 30
0.0
 70
   128
  0
VERTEX
  5
2702A
  8
0
 10
152.44077194668691
 20
176.13043859504521
 30
0.0
  0
VERTEX
  5
2702B
  8
0
 10
152.33200627565719
 20
177.0319364955312
 30
0.0
  0
VERTEX
  5
2702C
  8
0
 10
152.18135227635841
 20
179.74368706249061
 30
0.0
  0
SEQEND
  5
2702D
  8
0
  0
POLYLINE
  5
1FDC0
  8
0
 66
     1
 10
0.0
 20
0.0
 30
0.0
 70
   128
  0
VERTEX
  5
2702E
  8
0
 10
152.18135227635841
 20
174.32381436132249
 30
0.0
  0
VERTEX
  5
2702F
  8
0
 10
152.24982567318119
 20
175.22712275289359
 30
0.0
  0
VERTEX
  5
27030
  8
0
 10
152.44077194668691
 20
176.13043859504521
 30
0.0
  0
SEQEND
  5
27031
  8
0
  0
LINE
  5
1FDC1
  8
0
 10
152.44077194668691
 20
183.35693552993601
 30
0.0
 11
156.6219325382296
 21
183.35693552993601
 31
0.0
  0
LINE
  5
1FDC2
  8
0
 10
152.44077194668691
 20
176.13043859504521
 30
0.0
 11
156.6219325382296
 21
176.13043859504521
 31
0.0
  0
POLYLINE
  5
1FDC3
  8
0
 66
     1
 10
0.0
 20
0.0
 30
0.0
 70
   128
  0
VERTEX
  5
27032
  8
0
 10
156.88135197572751
 20
179.74368706249061
 30
0.0
  0
VERTEX
  5
27033
  8
0
 10
156.7306979764287
 20
177.0319364955312
 30
0.0
  0
VERTEX
  5
27034
  8
0
 10
156.6219325382296
 20
176.13043859504521
 30
0.0
  0
SEQEND
  5
27035
  8
0
  0
POLYLINE
  5
1FDC4
  8
0
 66
     1
 10
0.0
 20
0.0
 30
0.0
 70
   128
  0
VERTEX
  5
27036
  8
0
 10
156.6219325382296
 20
183.35693552993601
 30
0.0
  0
VERTEX
  5
27037
  8
0
 10
156.8122739177231
 20
181.55843987964451
 30
0.0
  0
VERTEX
  5
27038
  8
0
 10
156.88135197572751
 20
179.74368706249061
 30
0.0
  0
SEQEND
  5
27039
  8
0
  0
POLYLINE
  5
1FDC5
  8
0
 66
     1
 10
0.0
 20
0.0
 30
0.0
 70
   128
  0
VERTEX
  5
2703A
  8
0
 10
152.44077194668691
 20
172.5171901275998
 30
0.0
  0
VERTEX
  5
2703B
  8
0
 10
152.2504305671934
 20
173.41643795274561
 30
0.0
  0
VERTEX
  5
2703C
  8
0
 10
152.18135227635841
 20
174.32381436132249
 30
0.0
  0
SEQEND
  5
2703D
  8
0
  0
LINE
  5
1FDC6
  8
0
 10
152.44077194668691
 20
172.5171901275998
 30
0.0
 11
156.6219325382296
 21
172.5171901275998
 31
0.0
  0
POLYLINE
  5
1FDC7
  8
0
 66
     1
 10
0.0
 20
0.0
 30
0.0
 70
   128
  0
VERTEX
  5
2703E
  8
0
 10
156.88135197572751
 20
174.32381436132249
 30
0.0
  0
VERTEX
  5
2703F
  8
0
 10
156.81287881173529
 20
173.42049851917091
 30
0.0
  0
VERTEX
  5
27040
  8
0
 10
156.6219325382296
 20
172.5171901275998
 30
0.0
  0
SEQEND
  5
27041
  8
0
  0
POLYLINE
  5
1FDC8
  8
0
 66
     1
 10
0.0
 20
0.0
 30
0.0
 70
   128
  0
VERTEX
  5
27042
  8
0
 10
156.6219325382296
 20
176.13043859504521
 30
0.0
  0
VERTEX
  5
27043
  8
0
 10
156.8122739177231
 20
175.23119076989951
 30
0.0
  0
VERTEX
  5
27044
  8
0
 10
156.88135197572751
 20
174.32381436132249
 30
0.0
  0
SEQEND
  5
27045
  8
0
  0
LINE
  5
1FDC9
  8
0
 10
152.44077194668691
 20
186.97019144796189
 30
0.0
 11
156.6219325382296
 21
186.97019144796189
 31
0.0
  0
POLYLINE
  5
1FDCA
  8
0
 66
     1
 10
0.0
 20
0.0
 30
0.0
 70
   128
  0
VERTEX
  5
27046
  8
0
 10
152.18135227635841
 20
185.16356348894899
 30
0.0
  0
VERTEX
  5
27047
  8
0
 10
152.24982567318119
 20
186.06687560581031
 30
0.0
  0
VERTEX
  5
27048
  8
0
 10
152.44077194668691
 20
186.97019144796189
 30
0.0
  0
SEQEND
  5
27049
  8
0
  0
POLYLINE
  5
1FDCB
  8
0
 66
     1
 10
0.0
 20
0.0
 30
0.0
 70
   128
  0
VERTEX
  5
2704A
  8
0
 10
156.88135197572751
 20
185.16356348894899
 30
0.0
  0
VERTEX
  5
2704B
  8
0
 10
156.81287881173529
 20
184.26025137208759
 30
0.0
  0
VERTEX
  5
2704C
  8
0
 10
156.6219325382296
 20
183.35693552993601
 30
0.0
  0
SEQEND
  5
2704D
  8
0
  0
POLYLINE
  5
1FDCC
  8
0
 66
     1
 10
0.0
 20
0.0
 30
0.0
 70
   128
  0
VERTEX
  5
2704E
  8
0
 10
156.6219325382296
 20
186.97019144796189
 30
0.0
  0
VERTEX
  5
2704F
  8
0
 10
156.8122739177231
 20
186.0709398975259
 30
0.0
  0
VERTEX
  5
27050
  8
0
 10
156.88135197572751
 20
185.16356348894899
 30
0.0
  0
SEQEND
  5
27051
  8
0
  0
LINE
  5
1FDCD
  8
0
 10
93.581351472068263
 20
173.92868772052589
 30
0.0
 11
93.581351472068263
 21
185.5586901297456
 31
0.0
  0
LINE
  5
1FDCE
  8
0
 10
92.348351163793041
 20
175.74368640683949
 30
0.0
 11
92.348351163793041
 21
183.74368771814261
 31
0.0
  0
LINE
  5
1FDCF
  8
0
 10
91.581351144242717
 20
176.51068642638981
 30
0.0
 11
91.581351144242944
 21
182.97668769859229
 31
0.0
  0
LINE
  5
1FDD0
  8
0
 10
96.081352813172771
 20
173.4853558232671
 30
0.0
 11
96.081352813172771
 21
186.00202202700439
 31
0.0
  0
LINE
  5
1FDD1
  8
0
 10
152.18135227635841
 20
173.4853558232671
 30
0.0
 11
152.18135227635841
 21
186.00202202700439
 31
0.0
  0
LINE
  5
1FDD2
  8
0
 10
156.88135197572751
 20
173.4853558232671
 30
0.0
 11
156.88135197572751
 21
186.00202202700439
 31
0.0
  0
LINE
  5
1FDD3
  8
0
 10
162.58135253750081
 20
243.44368874930211
 30
0.0
 11
90.581352842974624
 21
243.44368874930211
 31
0.0
  0
LINE
  5
1FDD4
  8
0
 10
161.082573255527
 20
234.94368828736609
 30
0.0
 11
92.080130262303314
 21
234.94368828736609
 31
0.0
  0
POLYLINE
  5
1FDD5
  8
0
 10
159.58135218732349
 20
196.63984284281651
 30
0.0
 66
     1
 70
     8
  0
VERTEX
  8
0
  5
27056
 10
159.581
 20
196.640
 30
0.000000
  70
    32
  0
VERTEX
  8
0
  5
27057
 10
159.581
 20
196.547
 30
0.000000
  70
    32
  0
VERTEX
  8
0
  5
27058
 10
159.581
 20
196.455
 30
0.000000
  70
    32
  0
VERTEX
  8
0
  5
27059
 10
159.580
 20
196.362
 30
0.000000
  70
    32
  0
VERTEX
  8
0
  5
2705A
 10
159.579
 20
196.270
 30
0.000000
  70
    32
  0
VERTEX
  8
0
  5
2705B
 10
159.577
 20
196.177
 30
0.000000
  70
    32
  0
VERTEX
  8
0
  5
2705C
 10
159.575
 20
196.085
 30
0.000000
  70
    32
  0
VERTEX
  8
0
  5
2705D
 10
159.573
 20
195.992
 30
0.000000
  70
    32
  0
VERTEX
  8
0
  5
2705E
 10
159.571
 20
195.900
 30
0.000000
  70
    32
  0
VERTEX
  8
0
  5
2705F
 10
159.568
 20
195.807
 30
0.000000
  70
    32
  0
VERTEX
  8
0
  5
27060
 10
159.565
 20
195.715
 30
0.000000
  70
    32
  0
VERTEX
  8
0
  5
27061
 10
159.561
 20
195.622
 30
0.000000
  70
    32
  0
VERTEX
  8
0
  5
27062
 10
159.557
 20
195.530
 30
0.000000
  70
    32
  0
VERTEX
  8
0
  5
27063
 10
159.553
 20
195.437
 30
0.000000
  70
    32
  0
VERTEX
  8
0
  5
27064
 10
159.549
 20
195.345
 30
0.000000
  70
    32
  0
VERTEX
  8
0
  5
27065
 10
159.544
 20
195.252
 30
0.000000
  70
    32
  0
VERTEX
  8
0
  5
27066
 10
159.539
 20
195.160
 30
0.000000
  70
    32
  0
VERTEX
  8
0
  5
27067
 10
159.533
 20
195.067
 30
0.000000
  70
    32
  0
VERTEX
  8
0
  5
27068
 10
159.527
 20
194.975
 30
0.000000
  70
    32
  0
VERTEX
  8
0
  5
27069
 10
159.521
 20
194.883
 30
0.000000
  70
    32
  0
VERTEX
  8
0
  5
2706A
 10
159.515
 20
194.790
 30
0.000000
  70
    32
  0
VERTEX
  8
0
  5
2706B
 10
159.508
 20
194.698
 30
0.000000
  70
    32
  0
VERTEX
  8
0
  5
2706C
 10
159.501
 20
194.606
 30
0.000000
  70
    32
  0
VERTEX
  8
0
  5
2706D
 10
159.493
 20
194.513
 30
0.000000
  70
    32
  0
VERTEX
  8
0
  5
2706E
 10
159.485
 20
194.421
 30
0.000000
  70
    32
  0
VERTEX
  8
0
  5
2706F
 10
159.477
 20
194.329
 30
0.000000
  70
    32
  0
VERTEX
  8
0
  5
27070
 10
159.468
 20
194.237
 30
0.000000
  70
    32
  0
VERTEX
  8
0
  5
27071
 10
159.460
 20
194.144
 30
0.000000
  70
    32
  0
VERTEX
  8
0
  5
27072
 10
159.450
 20
194.052
 30
0.000000
  70
    32
  0
VERTEX
  8
0
  5
27073
 10
159.441
 20
193.960
 30
0.000000
  70
    32
  0
VERTEX
  8
0
  5
27074
 10
159.431
 20
193.868
 30
0.000000
  70
    32
  0
VERTEX
  8
0
  5
27075
 10
159.421
 20
193.776
 30
0.000000
  70
    32
  0
VERTEX
  8
0
  5
27076
 10
159.410
 20
193.684
 30
0.000000
  70
    32
  0
VERTEX
  8
0
  5
27077
 10
159.400
 20
193.592
 30
0.000000
  70
    32
  0
VERTEX
  8
0
  5
27078
 10
159.388
 20
193.500
 30
0.000000
  70
    32
  0
VERTEX
  8
0
  5
27079
 10
159.377
 20
193.408
 30
0.000000
  70
    32
  0
VERTEX
  8
0
  5
2707A
 10
159.365
 20
193.316
 30
0.000000
  70
    32
  0
VERTEX
  8
0
  5
2707B
 10
159.353
 20
193.224
 30
0.000000
  70
    32
  0
VERTEX
  8
0
  5
2707C
 10
159.340
 20
193.132
 30
0.000000
  70
    32
  0
VERTEX
  8
0
  5
2707D
 10
159.328
 20
193.040
 30
0.000000
  70
    32
  0
VERTEX
  8
0
  5
2707E
 10
159.314
 20
192.948
 30
0.000000
  70
    32
  0
VERTEX
  8
0
  5
2707F
 10
159.301
 20
192.857
 30
0.000000
  70
    32
  0
VERTEX
  8
0
  5
27080
 10
159.287
 20
192.765
 30
0.000000
  70
    32
  0
VERTEX
  8
0
  5
27081
 10
159.273
 20
192.673
 30
0.000000
  70
    32
  0
VERTEX
  8
0
  5
27082
 10
159.258
 20
192.581
 30
0.000000
  70
    32
  0
VERTEX
  8
0
  5
27083
 10
159.244
 20
192.490
 30
0.000000
  70
    32
  0
VERTEX
  8
0
  5
27084
 10
159.228
 20
192.398
 30
0.000000
  70
    32
  0
VERTEX
  8
0
  5
27085
 10
159.213
 20
192.307
 30
0.000000
  70
    32
  0
VERTEX
  8
0
  5
27086
 10
159.197
 20
192.215
 30
0.000000
  70
    32
  0
VERTEX
  8
0
  5
27087
 10
159.181
 20
192.124
 30
0.000000
  70
    32
  0
VERTEX
  8
0
  5
27088
 10
159.165
 20
192.032
 30
0.000000
  70
    32
  0
VERTEX
  8
0
  5
27089
 10
159.148
 20
191.941
 30
0.000000
  70
    32
  0
VERTEX
  8
0
  5
2708A
 10
159.131
 20
191.850
 30
0.000000
  70
    32
  0
VERTEX
  8
0
  5
2708B
 10
159.113
 20
191.759
 30
0.000000
  70
    32
  0
VERTEX
  8
0
  5
2708C
 10
159.095
 20
191.667
 30
0.000000
  70
    32
  0
VERTEX
  8
0
  5
2708D
 10
159.077
 20
191.576
 30
0.000000
  70
    32
  0
VERTEX
  8
0
  5
2708E
 10
159.059
 20
191.485
 30
0.000000
  70
    32
  0
VERTEX
  8
0
  5
2708F
 10
159.040
 20
191.394
 30
0.000000
  70
    32
  0
VERTEX
  8
0
  5
27090
 10
159.021
 20
191.303
 30
0.000000
  70
    32
  0
VERTEX
  8
0
  5
27091
 10
159.001
 20
191.212
 30
0.000000
  70
    32
  0
VERTEX
  8
0
  5
27092
 10
158.982
 20
191.121
 30
0.000000
  70
    32
  0
VERTEX
  8
0
  5
27093
 10
158.962
 20
191.030
 30
0.000000
  70
    32
  0
VERTEX
  8
0
  5
27094
 10
158.941
 20
190.940
 30
0.000000
  70
    32
  0
VERTEX
  8
0
  5
27095
 10
158.920
 20
190.849
 30
0.000000
  70
    32
  0
VERTEX
  8
0
  5
27096
 10
158.899
 20
190.758
 30
0.000000
  70
    32
  0
VERTEX
  8
0
  5
27097
 10
158.878
 20
190.668
 30
0.000000
  70
    32
  0
VERTEX
  8
0
  5
27098
 10
158.856
 20
190.577
 30
0.000000
  70
    32
  0
VERTEX
  8
0
  5
27099
 10
158.834
 20
190.487
 30
0.000000
  70
    32
  0
VERTEX
  8
0
  5
2709A
 10
158.812
 20
190.396
 30
0.000000
  70
    32
  0
VERTEX
  8
0
  5
2709B
 10
158.789
 20
190.306
 30
0.000000
  70
    32
  0
VERTEX
  8
0
  5
2709C
 10
158.766
 20
190.216
 30
0.000000
  70
    32
  0
VERTEX
  8
0
  5
2709D
 10
158.743
 20
190.125
 30
0.000000
  70
    32
  0
VERTEX
  8
0
  5
2709E
 10
158.719
 20
190.035
 30
0.000000
  70
    32
  0
VERTEX
  8
0
  5
2709F
 10
158.695
 20
189.945
 30
0.000000
  70
    32
  0
VERTEX
  8
0
  5
270A0
 10
158.671
 20
189.855
 30
0.000000
  70
    32
  0
VERTEX
  8
0
  5
270A1
 10
158.646
 20
189.765
 30
0.000000
  70
    32
  0
VERTEX
  8
0
  5
270A2
 10
158.621
 20
189.675
 30
0.000000
  70
    32
  0
VERTEX
  8
0
  5
270A3
 10
158.596
 20
189.586
 30
0.000000
  70
    32
  0
VERTEX
  8
0
  5
270A4
 10
158.570
 20
189.496
 30
0.000000
  70
    32
  0
VERTEX
  8
0
  5
270A5
 10
158.544
 20
189.406
 30
0.000000
  70
    32
  0
VERTEX
  8
0
  5
270A6
 10
158.518
 20
189.317
 30
0.000000
  70
    32
  0
VERTEX
  8
0
  5
270A7
 10
158.491
 20
189.227
 30
0.000000
  70
    32
  0
VERTEX
  8
0
  5
270A8
 10
158.464
 20
189.138
 30
0.000000
  70
    32
  0
VERTEX
  8
0
  5
270A9
 10
158.437
 20
189.048
 30
0.000000
  70
    32
  0
VERTEX
  8
0
  5
270AA
 10
158.409
 20
188.959
 30
0.000000
  70
    32
  0
VERTEX
  8
0
  5
270AB
 10
158.381
 20
188.870
 30
0.000000
  70
    32
  0
VERTEX
  8
0
  5
270AC
 10
158.353
 20
188.781
 30
0.000000
  70
    32
  0
VERTEX
  8
0
  5
270AD
 10
158.325
 20
188.692
 30
0.000000
  70
    32
  0
VERTEX
  8
0
  5
270AE
 10
158.296
 20
188.603
 30
0.000000
  70
    32
  0
VERTEX
  8
0
  5
270AF
 10
158.267
 20
188.514
 30
0.000000
  70
    32
  0
VERTEX
  8
0
  5
270B0
 10
158.237
 20
188.425
 30
0.000000
  70
    32
  0
VERTEX
  8
0
  5
270B1
 10
158.207
 20
188.336
 30
0.000000
  70
    32
  0
VERTEX
  8
0
  5
270B2
 10
158.177
 20
188.247
 30
0.000000
  70
    32
  0
VERTEX
  8
0
  5
270B3
 10
158.147
 20
188.159
 30
0.000000
  70
    32
  0
VERTEX
  8
0
  5
270B4
 10
158.116
 20
188.070
 30
0.000000
  70
    32
  0
VERTEX
  8
0
  5
270B5
 10
158.085
 20
187.982
 30
0.000000
  70
    32
  0
VERTEX
  8
0
  5
270B6
 10
158.053
 20
187.894
 30
0.000000
  70
    32
  0
VERTEX
  8
0
  5
270B7
 10
158.022
 20
187.806
 30
0.000000
  70
    32
  0
VERTEX
  8
0
  5
270B8
 10
157.990
 20
187.717
 30
0.000000
  70
    32
  0
VERTEX
  8
0
  5
270B9
 10
157.957
 20
187.629
 30
0.000000
  70
    32
  0
VERTEX
  8
0
  5
270BA
 10
157.924
 20
187.541
 30
0.000000
  70
    32
  0
VERTEX
  8
0
  5
270BB
 10
157.891
 20
187.454
 30
0.000000
  70
    32
  0
VERTEX
  8
0
  5
270BC
 10
157.858
 20
187.366
 30
0.000000
  70
    32
  0
VERTEX
  8
0
  5
270BD
 10
157.824
 20
187.278
 30
0.000000
  70
    32
  0
VERTEX
  8
0
  5
270BE
 10
157.791
 20
187.191
 30
0.000000
  70
    32
  0
VERTEX
  8
0
  5
270BF
 10
157.756
 20
187.103
 30
0.000000
  70
    32
  0
VERTEX
  8
0
  5
270C0
 10
157.722
 20
187.016
 30
0.000000
  70
    32
  0
VERTEX
  8
0
  5
270C1
 10
157.687
 20
186.929
 30
0.000000
  70
    32
  0
VERTEX
  8
0
  5
270C2
 10
157.651
 20
186.841
 30
0.000000
  70
    32
  0
VERTEX
  8
0
  5
270C3
 10
157.616
 20
186.754
 30
0.000000
  70
    32
  0
VERTEX
  8
0
  5
270C4
 10
157.580
 20
186.667
 30
0.000000
  70
    32
  0
VERTEX
  8
0
  5
270C5
 10
157.544
 20
186.580
 30
0.000000
  70
    32
  0
VERTEX
  8
0
  5
270C6
 10
157.507
 20
186.494
 30
0.000000
  70
    32
  0
VERTEX
  8
0
  5
270C7
 10
157.471
 20
186.407
 30
0.000000
  70
    32
  0
VERTEX
  8
0
  5
270C8
 10
157.434
 20
186.320
 30
0.000000
  70
    32
  0
VERTEX
  8
0
  5
270C9
 10
157.396
 20
186.234
 30
0.000000
  70
    32
  0
VERTEX
  8
0
  5
270CA
 10
157.358
 20
186.148
 30
0.000000
  70
    32
  0
VERTEX
  8
0
  5
270CB
 10
157.320
 20
186.061
 30
0.000000
  70
    32
  0
VERTEX
  8
0
  5
270CC
 10
157.282
 20
185.975
 30
0.000000
  70
    32
  0
VERTEX
  8
0
  5
270CD
 10
157.243
 20
185.889
 30
0.000000
  70
    32
  0
VERTEX
  8
0
  5
270CE
 10
157.204
 20
185.803
 30
0.000000
  70
    32
  0
VERTEX
  8
0
  5
270CF
 10
157.165
 20
185.717
 30
0.000000
  70
    32
  0
VERTEX
  8
0
  5
270D0
 10
157.125
 20
185.632
 30
0.000000
  70
    32
  0
VERTEX
  8
0
  5
270D1
 10
157.086
 20
185.546
 30
0.000000
  70
    32
  0
VERTEX
  8
0
  5
270D2
 10
157.045
 20
185.461
 30
0.000000
  70
    32
  0
VERTEX
  8
0
  5
270D3
 10
157.005
 20
185.375
 30
0.000000
  70
    32
  0
VERTEX
  8
0
  5
270D4
 10
156.964
 20
185.290
 30
0.000000
  70
    32
  0
VERTEX
  8
0
  5
270D5
 10
156.923
 20
185.205
 30
0.000000
  70
    32
  0
VERTEX
  8
0
  5
270D6
 10
156.881
 20
185.120
 30
0.000000
  70
    32
  0
SEQEND
  8
0
  5
270D7
  0
POLYLINE
  5
1FDD6
  8
0
 10
96.071318261418654
 20
185.55868873142114
 30
0.0
 66
     1
 70
     8
  0
VERTEX
  8
0
  5
270D8
 10
96.0713
 20
185.559
 30
0.000000
  70
    32
  0
VERTEX
  8
0
  5
270D9
 10
96.0331
 20
185.641
 30
0.000000
  70
    32
  0
VERTEX
  8
0
  5
270DA
 10
95.9951
 20
185.723
 30
0.000000
  70
    32
  0
VERTEX
  8
0
  5
270DB
 10
95.9574
 20
185.805
 30
0.000000
  70
    32
  0
VERTEX
  8
0
  5
270DC
 10
95.9200
 20
185.888
 30
0.000000
  70
    32
  0
VERTEX
  8
0
  5
270DD
 10
95.8828
 20
185.971
 30
0.000000
  70
    32
  0
VERTEX
  8
0
  5
270DE
 10
95.8460
 20
186.053
 30
0.000000
  70
    32
  0
VERTEX
  8
0
  5
270DF
 10
95.8094
 20
186.136
 30
0.000000
  70
    32
  0
VERTEX
  8
0
  5
270E0
 10
95.7732
 20
186.219
 30
0.000000
  70
    32
  0
VERTEX
  8
0
  5
270E1
 10
95.7372
 20
186.302
 30
0.000000
  70
    32
  0
VERTEX
  8
0
  5
270E2
 10
95.7015
 20
186.385
 30
0.000000
  70
    32
  0
VERTEX
  8
0
  5
270E3
 10
95.6661
 20
186.468
 30
0.000000
  70
    32
  0
VERTEX
  8
0
  5
270E4
 10
95.6310
 20
186.551
 30
0.000000
  70
    32
  0
VERTEX
  8
0
  5
270E5
 10
95.5962
 20
186.635
 30
0.000000
  70
    32
  0
VERTEX
  8
0
  5
270E6
 10
95.5616
 20
186.718
 30
0.000000
  70
    32
  0
VERTEX
  8
0
  5
270E7
 10
95.5274
 20
186.802
 30
0.000000
  70
    32
  0
VERTEX
  8
0
  5
270E8
 10
95.4934
 20
186.885
 30
0.000000
  70
    32
  0
VERTEX
  8
0
  5
270E9
 10
95.4598
 20
186.969
 30
0.000000
  70
    32
  0
VERTEX
  8
0
  5
270EA
 10
95.4264
 20
187.053
 30
0.000000
  70
    32
  0
VERTEX
  8
0
  5
270EB
 10
95.3933
 20
187.137
 30
0.000000
  70
    32
  0
VERTEX
  8
0
  5
270EC
 10
95.3605
 20
187.221
 30
0.000000
  70
    32
  0
VERTEX
  8
0
  5
270ED
 10
95.3280
 20
187.305
 30
0.000000
  70
    32
  0
VERTEX
  8
0
  5
270EE
 10
95.2958
 20
187.389
 30
0.000000
  70
    32
  0
VERTEX
  8
0
  5
270EF
 10
95.2639
 20
187.473
 30
0.000000
  70
    32
  0
VERTEX
  8
0
  5
270F0
 10
95.2323
 20
187.557
 30
0.000000
  70
    32
  0
VERTEX
  8
0
  5
270F1
 10
95.2009
 20
187.642
 30
0.000000
  70
    32
  0
VERTEX
  8
0
  5
270F2
 10
95.1699
 20
187.726
 30
0.000000
  70
    32
  0
VERTEX
  8
0
  5
270F3
 10
95.1391
 20
187.811
 30
0.000000
  70
    32
  0
VERTEX
  8
0
  5
270F4
 10
95.1087
 20
187.896
 30
0.000000
  70
    32
  0
VERTEX
  8
0
  5
270F5
 10
95.0785
 20
187.980
 30
0.000000
  70
    32
  0
VERTEX
  8
0
  5
270F6
 10
95.0487
 20
188.065
 30
0.000000
  70
    32
  0
VERTEX
  8
0
  5
270F7
 10
95.0191
 20
188.150
 30
0.000000
  70
    32
  0
VERTEX
  8
0
  5
270F8
 10
94.9898
 20
188.235
 30
0.000000
  70
    32
  0
VERTEX
  8
0
  5
270F9
 10
94.9608
 20
188.320
 30
0.000000
  70
    32
  0
VERTEX
  8
0
  5
270FA
 10
94.9321
 20
188.405
 30
0.000000
  70
    32
  0
VERTEX
  8
0
  5
270FB
 10
94.9037
 20
188.491
 30
0.000000
  70
    32
  0
VERTEX
  8
0
  5
270FC
 10
94.8756
 20
188.576
 30
0.000000
  70
    32
  0
VERTEX
  8
0
  5
270FD
 10
94.8478
 20
188.661
 30
0.000000
  70
    32
  0
VERTEX
  8
0
  5
270FE
 10
94.8203
 20
188.747
 30
0.000000
  70
    32
  0
VERTEX
  8
0
  5
270FF
 10
94.7931
 20
188.832
 30
0.000000
  70
    32
  0
VERTEX
  8
0
  5
27100
 10
94.7662
 20
188.918
 30
0.000000
  70
    32
  0
VERTEX
  8
0
  5
27101
 10
94.7396
 20
189.003
 30
0.000000
  70
    32
  0
VERTEX
  8
0
  5
27102
 10
94.7133
 20
189.089
 30
0.000000
  70
    32
  0
VERTEX
  8
0
  5
27103
 10
94.6872
 20
189.175
 30
0.000000
  70
    32
  0
VERTEX
  8
0
  5
27104
 10
94.6615
 20
189.261
 30
0.000000
  70
    32
  0
VERTEX
  8
0
  5
27105
 10
94.6361
 20
189.347
 30
0.000000
  70
    32
  0
VERTEX
  8
0
  5
27106
 10
94.6110
 20
189.433
 30
0.000000
  70
    32
  0
VERTEX
  8
0
  5
27107
 10
94.5861
 20
189.519
 30
0.000000
  70
    32
  0
VERTEX
  8
0
  5
27108
 10
94.5616
 20
189.605
 30
0.000000
  70
    32
  0
VERTEX
  8
0
  5
27109
 10
94.5374
 20
189.691
 30
0.000000
  70
    32
  0
VERTEX
  8
0
  5
2710A
 10
94.5134
 20
189.777
 30
0.000000
  70
    32
  0
VERTEX
  8
0
  5
2710B
 10
94.4898
 20
189.864
 30
0.000000
  70
    32
  0
VERTEX
  8
0
  5
2710C
 10
94.4664
 20
189.950
 30
0.000000
  70
    32
  0
VERTEX
  8
0
  5
2710D
 10
94.4434
 20
190.037
 30
0.000000
  70
    32
  0
VERTEX
  8
0
  5
2710E
 10
94.4207
 20
190.123
 30
0.000000
  70
    32
  0
VERTEX
  8
0
  5
2710F
 10
94.3982
 20
190.210
 30
0.000000
  70
    32
  0
VERTEX
  8
0
  5
27110
 10
94.3761
 20
190.296
 30
0.000000
  70
    32
  0
VERTEX
  8
0
  5
27111
 10
94.3543
 20
190.383
 30
0.000000
  70
    32
  0
VERTEX
  8
0
  5
27112
 10
94.3327
 20
190.470
 30
0.000000
  70
    32
  0
VERTEX
  8
0
  5
27113
 10
94.3115
 20
190.557
 30
0.000000
  70
    32
  0
VERTEX
  8
0
  5
27114
 10
94.2906
 20
190.644
 30
0.000000
  70
    32
  0
VERTEX
  8
0
  5
27115
 10
94.2699
 20
190.731
 30
0.000000
  70
    32
  0
VERTEX
  8
0
  5
27116
 10
94.2496
 20
190.818
 30
0.000000
  70
    32
  0
VERTEX
  8
0
  5
27117
 10
94.2296
 20
190.905
 30
0.000000
  70
    32
  0
VERTEX
  8
0
  5
27118
 10
94.2098
 20
190.992
 30
0.000000
  70
    32
  0
VERTEX
  8
0
  5
27119
 10
94.1904
 20
191.079
 30
0.000000
  70
    32
  0
VERTEX
  8
0
  5
2711A
 10
94.1713
 20
191.166
 30
0.000000
  70
    32
  0
VERTEX
  8
0
  5
2711B
 10
94.1525
 20
191.253
 30
0.000000
  70
    32
  0
VERTEX
  8
0
  5
2711C
 10
94.1339
 20
191.341
 30
0.000000
  70
    32
  0
VERTEX
  8
0
  5
2711D
 10
94.1157
 20
191.428
 30
0.000000
  70
    32
  0
VERTEX
  8
0
  5
2711E
 10
94.0978
 20
191.515
 30
0.000000
  70
    32
  0
VERTEX
  8
0
  5
2711F
 10
94.0802
 20
191.603
 30
0.000000
  70
    32
  0
VERTEX
  8
0
  5
27120
 10
94.0629
 20
191.690
 30
0.000000
  70
    32
  0
VERTEX
  8
0
  5
27121
 10
94.0459
 20
191.778
 30
0.000000
  70
    32
  0
VERTEX
  8
0
  5
27122
 10
94.0292
 20
191.865
 30
0.000000
  70
    32
  0
VERTEX
  8
0
  5
27123
 10
94.0128
 20
191.953
 30
0.000000
  70
    32
  0
VERTEX
  8
0
  5
27124
 10
93.9967
 20
192.041
 30
0.000000
  70
    32
  0
VERTEX
  8
0
  5
27125
 10
93.9809
 20
192.128
 30
0.000000
  70
    32
  0
VERTEX
  8
0
  5
27126
 10
93.9654
 20
192.216
 30
0.000000
  70
    32
  0
VERTEX
  8
0
  5
27127
 10
93.9502
 20
192.304
 30
0.000000
  70
    32
  0
VERTEX
  8
0
  5
27128
 10
93.9354
 20
192.392
 30
0.000000
  70
    32
  0
VERTEX
  8
0
  5
27129
 10
93.9208
 20
192.480
 30
0.000000
  70
    32
  0
VERTEX
  8
0
  5
2712A
 10
93.9065
 20
192.568
 30
0.000000
  70
    32
  0
VERTEX
  8
0
  5
2712B
 10
93.8926
 20
192.656
 30
0.000000
  70
    32
  0
VERTEX
  8
0
  5
2712C
 10
93.8789
 20
192.744
 30
0.000000
  70
    32
  0
VERTEX
  8
0
  5
2712D
 10
93.8656
 20
192.832
 30
0.000000
  70
    32
  0
VERTEX
  8
0
  5
2712E
 10
93.8525
 20
192.920
 30
0.000000
  70
    32
  0
VERTEX
  8
0
  5
2712F
 10
93.8398
 20
193.008
 30
0.000000
  70
    32
  0
VERTEX
  8
0
  5
27130
 10
93.8273
 20
193.096
 30
0.000000
  70
    32
  0
VERTEX
  8
0
  5
27131
 10
93.8152
 20
193.184
 30
0.000000
  70
    32
  0
VERTEX
  8
0
  5
27132
 10
93.8034
 20
193.272
 30
0.000000
  70
    32
  0
VERTEX
  8
0
  5
27133
 10
93.7919
 20
193.361
 30
0.000000
  70
    32
  0
VERTEX
  8
0
  5
27134
 10
93.7806
 20
193.449
 30
0.000000
  70
    32
  0
VERTEX
  8
0
  5
27135
 10
93.7697
 20
193.537
 30
0.000000
  70
    32
  0
VERTEX
  8
0
  5
27136
 10
93.7591
 20
193.625
 30
0.000000
  70
    32
  0
VERTEX
  8
0
  5
27137
 10
93.7488
 20
193.714
 30
0.000000
  70
    32
  0
VERTEX
  8
0
  5
27138
 10
93.7388
 20
193.802
 30
0.000000
  70
    32
  0
VERTEX
  8
0
  5
27139
 10
93.7292
 20
193.891
 30
0.000000
  70
    32
  0
VERTEX
  8
0
  5
2713A
 10
93.7198
 20
193.979
 30
0.000000
  70
    32
  0
VERTEX
  8
0
  5
2713B
 10
93.7107
 20
194.068
 30
0.000000
  70
    32
  0
VERTEX
  8
0
  5
2713C
 10
93.7020
 20
194.156
 30
0.000000
  70
    32
  0
VERTEX
  8
0
  5
2713D
 10
93.6935
 20
194.245
 30
0.000000
  70
    32
  0
VERTEX
  8
0
  5
2713E
 10
93.6854
 20
194.333
 30
0.000000
  70
    32
  0
VERTEX
  8
0
  5
2713F
 10
93.6775
 20
194.422
 30
0.000000
  70
    32
  0
VERTEX
  8
0
  5
27140
 10
93.6700
 20
194.510
 30
0.000000
  70
    32
  0
VERTEX
  8
0
  5
27141
 10
93.6627
 20
194.599
 30
0.000000
  70
    32
  0
VERTEX
  8
0
  5
27142
 10
93.6558
 20
194.687
 30
0.000000
  70
    32
  0
VERTEX
  8
0
  5
27143
 10
93.6492
 20
194.776
 30
0.000000
  70
    32
  0
VERTEX
  8
0
  5
27144
 10
93.6429
 20
194.865
 30
0.000000
  70
    32
  0
VERTEX
  8
0
  5
27145
 10
93.6369
 20
194.953
 30
0.000000
  70
    32
  0
VERTEX
  8
0
  5
27146
 10
93.6312
 20
195.042
 30
0.000000
  70
    32
  0
VERTEX
  8
0
  5
27147
 10
93.6258
 20
195.131
 30
0.000000
  70
    32
  0
VERTEX
  8
0
  5
27148
 10
93.6207
 20
195.219
 30
0.000000
  70
    32
  0
VERTEX
  8
0
  5
27149
 10
93.6160
 20
195.308
 30
0.000000
  70
    32
  0
VERTEX
  8
0
  5
2714A
 10
93.6115
 20
195.397
 30
0.000000
  70
    32
  0
VERTEX
  8
0
  5
2714B
 10
93.6074
 20
195.486
 30
0.000000
  70
    32
  0
VERTEX
  8
0
  5
2714C
 10
93.6035
 20
195.574
 30
0.000000
  70
    32
  0
VERTEX
  8
0
  5
2714D
 10
93.6000
 20
195.663
 30
0.000000
  70
    32
  0
VERTEX
  8
0
  5
2714E
 10
93.5967
 20
195.752
 30
0.000000
  70
    32
  0
VERTEX
  8
0
  5
2714F
 10
93.5938
 20
195.841
 30
0.000000
  70
    32
  0
VERTEX
  8
0
  5
27150
 10
93.5912
 20
195.929
 30
0.000000
  70
    32
  0
VERTEX
  8
0
  5
27151
 10
93.5889
 20
196.018
 30
0.000000
  70
    32
  0
VERTEX
  8
0
  5
27152
 10
93.5869
 20
196.107
 30
0.000000
  70
    32
  0
VERTEX
  8
0
  5
27153
 10
93.5852
 20
196.196
 30
0.000000
  70
    32
  0
VERTEX
  8
0
  5
27154
 10
93.5838
 20
196.285
 30
0.000000
  70
    32
  0
VERTEX
  8
0
  5
27155
 10
93.5827
 20
196.373
 30
0.000000
  70
    32
  0
VERTEX
  8
0
  5
27156
 10
93.5820
 20
196.462
 30
0.000000
  70
    32
  0
VERTEX
  8
0
  5
27157
 10
93.5815
 20
196.551
 30
0.000000
  70
    32
  0
VERTEX
  8
0
  5
27158
 10
93.5814
 20
196.640
 30
0.000000
  70
    32
  0
SEQEND
  8
0
  5
27159
  0
POLYLINE
  5
1FDD7
  8
0
 10
104.08135218732349
 20
214.78455302891504
 30
0.0
 66
     1
 70
     8
  0
VERTEX
  8
0
  5
2715A
 10
104.081
 20
214.785
 30
0.000000
  70
    32
  0
VERTEX
  8
0
  5
2715B
 10
104.350
 20
215.040
 30
0.000000
  70
    32
  0
VERTEX
  8
0
  5
2715C
 10
104.623
 20
215.292
 30
0.000000
  70
    32
  0
VERTEX
  8
0
  5
2715D
 10
104.899
 20
215.542
 30
0.000000
  70
    32
  0
VERTEX
  8
0
  5
2715E
 10
105.179
 20
215.788
 30
0.000000
  70
    32
  0
VERTEX
  8
0
  5
2715F
 10
105.462
 20
216.031
 30
0.000000
  70
    32
  0
VERTEX
  8
0
  5
27160
 10
105.749
 20
216.270
 30
0.000000
  70
    32
  0
VERTEX
  8
0
  5
27161
 10
106.040
 20
216.507
 30
0.000000
  70
    32
  0
VERTEX
  8
0
  5
27162
 10
106.334
 20
216.740
 30
0.000000
  70
    32
  0
VERTEX
  8
0
  5
27163
 10
106.631
 20
216.969
 30
0.000000
  70
    32
  0
VERTEX
  8
0
  5
27164
 10
106.932
 20
217.195
 30
0.000000
  70
    32
  0
VERTEX
  8
0
  5
27165
 10
107.236
 20
217.418
 30
0.000000
  70
    32
  0
VERTEX
  8
0
  5
27166
 10
107.543
 20
217.637
 30
0.000000
  70
    32
  0
VERTEX
  8
0
  5
27167
 10
107.854
 20
217.853
 30
0.000000
  70
    32
  0
VERTEX
  8
0
  5
27168
 10
108.167
 20
218.065
 30
0.000000
  70
    32
  0
VERTEX
  8
0
  5
27169
 10
108.484
 20
218.274
 30
0.000000
  70
    32
  0
VERTEX
  8
0
  5
2716A
 10
108.804
 20
218.479
 30
0.000000
  70
    32
  0
VERTEX
  8
0
  5
2716B
 10
109.127
 20
218.680
 30
0.000000
  70
    32
  0
VERTEX
  8
0
  5
2716C
 10
109.452
 20
218.877
 30
0.000000
  70
    32
  0
VERTEX
  8
0
  5
2716D
 10
109.781
 20
219.071
 30
0.000000
  70
    32
  0
VERTEX
  8
0
  5
2716E
 10
110.112
 20
219.261
 30
0.000000
  70
    32
  0
VERTEX
  8
0
  5
2716F
 10
110.447
 20
219.447
 30
0.000000
  70
    32
  0
VERTEX
  8
0
  5
27170
 10
110.783
 20
219.630
 30
0.000000
  70
    32
  0
VERTEX
  8
0
  5
27171
 10
111.123
 20
219.808
 30
0.000000
  70
    32
  0
VERTEX
  8
0
  5
27172
 10
111.465
 20
219.983
 30
0.000000
  70
    32
  0
VERTEX
  8
0
  5
27173
 10
111.810
 20
220.154
 30
0.000000
  70
    32
  0
VERTEX
  8
0
  5
27174
 10
112.157
 20
220.320
 30
0.000000
  70
    32
  0
VERTEX
  8
0
  5
27175
 10
112.507
 20
220.483
 30
0.000000
  70
    32
  0
VERTEX
  8
0
  5
27176
 10
112.859
 20
220.642
 30
0.000000
  70
    32
  0
VERTEX
  8
0
  5
27177
 10
113.213
 20
220.797
 30
0.000000
  70
    32
  0
VERTEX
  8
0
  5
27178
 10
113.569
 20
220.947
 30
0.000000
  70
    32
  0
VERTEX
  8
0
  5
27179
 10
113.928
 20
221.094
 30
0.000000
  70
    32
  0
VERTEX
  8
0
  5
2717A
 10
114.289
 20
221.236
 30
0.000000
  70
    32
  0
VERTEX
  8
0
  5
2717B
 10
114.652
 20
221.375
 30
0.000000
  70
    32
  0
VERTEX
  8
0
  5
2717C
 10
115.016
 20
221.509
 30
0.000000
  70
    32
  0
VERTEX
  8
0
  5
2717D
 10
115.383
 20
221.639
 30
0.000000
  70
    32
  0
VERTEX
  8
0
  5
2717E
 10
115.752
 20
221.765
 30
0.000000
  70
    32
  0
VERTEX
  8
0
  5
2717F
 10
116.123
 20
221.886
 30
0.000000
  70
    32
  0
VERTEX
  8
0
  5
27180
 10
116.495
 20
222.004
 30
0.000000
  70
    32
  0
VERTEX
  8
0
  5
27181
 10
116.869
 20
222.117
 30
0.000000
  70
    32
  0
VERTEX
  8
0
  5
27182
 10
117.244
 20
222.226
 30
0.000000
  70
    32
  0
VERTEX
  8
0
  5
27183
 10
117.622
 20
222.330
 30
0.000000
  70
    32
  0
VERTEX
  8
0
  5
27184
 10
118.000
 20
222.430
 30
0.000000
  70
    32
  0
VERTEX
  8
0
  5
27185
 10
118.380
 20
222.526
 30
0.000000
  70
    32
  0
VERTEX
  8
0
  5
27186
 10
118.762
 20
222.618
 30
0.000000
  70
    32
  0
VERTEX
  8
0
  5
27187
 10
119.145
 20
222.705
 30
0.000000
  70
    32
  0
VERTEX
  8
0
  5
27188
 10
119.529
 20
222.788
 30
0.000000
  70
    32
  0
VERTEX
  8
0
  5
27189
 10
119.914
 20
222.866
 30
0.000000
  70
    32
  0
VERTEX
  8
0
  5
2718A
 10
120.300
 20
222.940
 30
0.000000
  70
    32
  0
VERTEX
  8
0
  5
2718B
 10
120.688
 20
223.009
 30
0.000000
  70
    32
  0
VERTEX
  8
0
  5
2718C
 10
121.076
 20
223.075
 30
0.000000
  70
    32
  0
VERTEX
  8
0
  5
2718D
 10
121.466
 20
223.135
 30
0.000000
  70
    32
  0
VERTEX
  8
0
  5
2718E
 10
121.856
 20
223.191
 30
0.000000
  70
    32
  0
VERTEX
  8
0
  5
2718F
 10
122.247
 20
223.243
 30
0.000000
  70
    32
  0
VERTEX
  8
0
  5
27190
 10
122.639
 20
223.290
 30
0.000000
  70
    32
  0
VERTEX
  8
0
  5
27191
 10
123.031
 20
223.333
 30
0.000000
  70
    32
  0
VERTEX
  8
0
  5
27192
 10
123.424
 20
223.372
 30
0.000000
  70
    32
  0
VERTEX
  8
0
  5
27193
 10
123.817
 20
223.405
 30
0.000000
  70
    32
  0
VERTEX
  8
0
  5
27194
 10
124.211
 20
223.435
 30
0.000000
  70
    32
  0
VERTEX
  8
0
  5
27195
 10
124.606
 20
223.460
 30
0.000000
  70
    32
  0
VERTEX
  8
0
  5
27196
 10
125.001
 20
223.480
 30
0.000000
  70
    32
  0
VERTEX
  8
0
  5
27197
 10
125.395
 20
223.496
 30
0.000000
  70
    32
  0
VERTEX
  8
0
  5
27198
 10
125.791
 20
223.507
 30
0.000000
  70
    32
  0
VERTEX
  8
0
  5
27199
 10
126.186
 20
223.514
 30
0.000000
  70
    32
  0
VERTEX
  8
0
  5
2719A
 10
126.581
 20
223.516
 30
0.000000
  70
    32
  0
VERTEX
  8
0
  5
2719B
 10
126.977
 20
223.514
 30
0.000000
  70
    32
  0
VERTEX
  8
0
  5
2719C
 10
127.372
 20
223.507
 30
0.000000
  70
    32
  0
VERTEX
  8
0
  5
2719D
 10
127.767
 20
223.496
 30
0.000000
  70
    32
  0
VERTEX
  8
0
  5
2719E
 10
128.162
 20
223.480
 30
0.000000
  70
    32
  0
VERTEX
  8
0
  5
2719F
 10
128.557
 20
223.460
 30
0.000000
  70
    32
  0
VERTEX
  8
0
  5
271A0
 10
128.951
 20
223.435
 30
0.000000
  70
    32
  0
VERTEX
  8
0
  5
271A1
 10
129.345
 20
223.405
 30
0.000000
  70
    32
  0
VERTEX
  8
0
  5
271A2
 10
129.739
 20
223.372
 30
0.000000
  70
    32
  0
VERTEX
  8
0
  5
271A3
 10
130.132
 20
223.333
 30
0.000000
  70
    32
  0
VERTEX
  8
0
  5
271A4
 10
130.524
 20
223.290
 30
0.000000
  70
    32
  0
VERTEX
  8
0
  5
271A5
 10
130.916
 20
223.243
 30
0.000000
  70
    32
  0
VERTEX
  8
0
  5
271A6
 10
131.307
 20
223.191
 30
0.000000
  70
    32
  0
VERTEX
  8
0
  5
271A7
 10
131.697
 20
223.135
 30
0.000000
  70
    32
  0
VERTEX
  8
0
  5
271A8
 10
132.086
 20
223.075
 30
0.000000
  70
    32
  0
VERTEX
  8
0
  5
271A9
 10
132.475
 20
223.009
 30
0.000000
  70
    32
  0
VERTEX
  8
0
  5
271AA
 10
132.862
 20
222.940
 30
0.000000
  70
    32
  0
VERTEX
  8
0
  5
271AB
 10
133.249
 20
222.866
 30
0.000000
  70
    32
  0
VERTEX
  8
0
  5
271AC
 10
133.634
 20
222.788
 30
0.000000
  70
    32
  0
VERTEX
  8
0
  5
271AD
 10
134.018
 20
222.705
 30
0.000000
  70
    32
  0
VERTEX
  8
0
  5
271AE
 10
134.401
 20
222.618
 30
0.000000
  70
    32
  0
VERTEX
  8
0
  5
271AF
 10
134.782
 20
222.526
 30
0.000000
  70
    32
  0
VERTEX
  8
0
  5
271B0
 10
135.162
 20
222.430
 30
0.000000
  70
    32
  0
VERTEX
  8
0
  5
271B1
 10
135.541
 20
222.330
 30
0.000000
  70
    32
  0
VERTEX
  8
0
  5
271B2
 10
135.918
 20
222.226
 30
0.000000
  70
    32
  0
VERTEX
  8
0
  5
271B3
 10
136.294
 20
222.117
 30
0.000000
  70
    32
  0
VERTEX
  8
0
  5
271B4
 10
136.668
 20
222.004
 30
0.000000
  70
    32
  0
VERTEX
  8
0
  5
271B5
 10
137.040
 20
221.886
 30
0.000000
  70
    32
  0
VERTEX
  8
0
  5
271B6
 10
137.411
 20
221.765
 30
0.000000
  70
    32
  0
VERTEX
  8
0
  5
271B7
 10
137.779
 20
221.639
 30
0.000000
  70
    32
  0
VERTEX
  8
0
  5
271B8
 10
138.146
 20
221.509
 30
0.000000
  70
    32
  0
VERTEX
  8
0
  5
271B9
 10
138.511
 20
221.375
 30
0.000000
  70
    32
  0
VERTEX
  8
0
  5
271BA
 10
138.874
 20
221.236
 30
0.000000
  70
    32
  0
VERTEX
  8
0
  5
271BB
 10
139.235
 20
221.094
 30
0.000000
  70
    32
  0
VERTEX
  8
0
  5
271BC
 10
139.593
 20
220.947
 30
0.000000
  70
    32
  0
VERTEX
  8
0
  5
271BD
 10
139.950
 20
220.797
 30
0.000000
  70
    32
  0
VERTEX
  8
0
  5
271BE
 10
140.304
 20
220.642
 30
0.000000
  70
    32
  0
VERTEX
  8
0
  5
271BF
 10
140.656
 20
220.483
 30
0.000000
  70
    32
  0
VERTEX
  8
0
  5
271C0
 10
141.006
 20
220.320
 30
0.000000
  70
    32
  0
VERTEX
  8
0
  5
271C1
 10
141.353
 20
220.154
 30
0.000000
  70
    32
  0
VERTEX
  8
0
  5
271C2
 10
141.698
 20
219.983
 30
0.000000
  70
    32
  0
VERTEX
  8
0
  5
271C3
 10
142.040
 20
219.808
 30
0.000000
  70
    32
  0
VERTEX
  8
0
  5
271C4
 10
142.379
 20
219.630
 30
0.000000
  70
    32
  0
VERTEX
  8
0
  5
271C5
 10
142.716
 20
219.447
 30
0.000000
  70
    32
  0
VERTEX
  8
0
  5
271C6
 10
143.050
 20
219.261
 30
0.000000
  70
    32
  0
VERTEX
  8
0
  5
271C7
 10
143.382
 20
219.071
 30
0.000000
  70
    32
  0
VERTEX
  8
0
  5
271C8
 10
143.710
 20
218.877
 30
0.000000
  70
    32
  0
VERTEX
  8
0
  5
271C9
 10
144.036
 20
218.680
 30
0.000000
  70
    32
  0
VERTEX
  8
0
  5
271CA
 10
144.359
 20
218.479
 30
0.000000
  70
    32
  0
VERTEX
  8
0
  5
271CB
 10
144.678
 20
218.274
 30
0.000000
  70
    32
  0
VERTEX
  8
0
  5
271CC
 10
144.995
 20
218.065
 30
0.000000
  70
    32
  0
VERTEX
  8
0
  5
271CD
 10
145.309
 20
217.853
 30
0.000000
  70
    32
  0
VERTEX
  8
0
  5
271CE
 10
145.619
 20
217.637
 30
0.000000
  70
    32
  0
VERTEX
  8
0
  5
271CF
 10
145.927
 20
217.418
 30
0.000000
  70
    32
  0
VERTEX
  8
0
  5
271D0
 10
146.231
 20
217.195
 30
0.000000
  70
    32
  0
VERTEX
  8
0
  5
271D1
 10
146.531
 20
216.969
 30
0.000000
  70
    32
  0
VERTEX
  8
0
  5
271D2
 10
146.829
 20
216.740
 30
0.000000
  70
    32
  0
VERTEX
  8
0
  5
271D3
 10
147.123
 20
216.507
 30
0.000000
  70
    32
  0
VERTEX
  8
0
  5
271D4
 10
147.413
 20
216.270
 30
0.000000
  70
    32
  0
VERTEX
  8
0
  5
271D5
 10
147.700
 20
216.031
 30
0.000000
  70
    32
  0
VERTEX
  8
0
  5
271D6
 10
147.984
 20
215.788
 30
0.000000
  70
    32
  0
VERTEX
  8
0
  5
271D7
 10
148.264
 20
215.542
 30
0.000000
  70
    32
  0
VERTEX
  8
0
  5
271D8
 10
148.540
 20
215.292
 30
0.000000
  70
    32
  0
VERTEX
  8
0
  5
271D9
 10
148.813
 20
215.040
 30
0.000000
  70
    32
  0
VERTEX
  8
0
  5
271DA
 10
149.081
 20
214.785
 30
0.000000
  70
    32
  0
SEQEND
  8
0
  5
271DB
  0
LINE
  5
1FDD8
  8
1
 10
164.8463512932542
 20
179.7436887314206
 30
0.0
 11
88.316351293254456
 21
179.7436887314206
 31
0.0
  0
LINE
  5
1FDD9
  8
1
 10
126.5813512932543
 20
254.73710445285991
 30
0.0
 11
126.5813512932543
 21
131.7502730099813
 31
0.0
  0
LINE
  5
1FDDA
  8
0
 10
123.5813512932543
 20
219.74368873142069
 30
0.0
 11
129.5813512932543
 21
219.74368873142069
 31
0.0
  0
LINE
  5
1FDDB
  8
0
 10
129.5813512932543
 20
139.7436887314206
 30
0.0
 11
123.5813512932543
 21
139.7436887314206
 31
0.0
  0
ARC
  5
1FDDC
  8
0
 10
123.5813512932543
 20
140.04368873142079
 30
0.0
 40
0.3000000000000185
 50
179.99999914622629
 51
270.0
  0
ARC
  5
1FDDD
  8
0
 10
123.5813512932543
 20
219.44368873142051
 30
0.0
 40
0.3000000000000145
 50
90.0
 51
179.99999914622629
  0
LINE
  5
1FDDE
  8
0
 10
120.8813512932543
 20
219.44368873142051
 30
0.0
 11
123.2813512932543
 21
219.44368873142051
 31
0.0
  0
LINE
  5
1FDDF
  8
0
 10
123.2813512932543
 20
140.04368873142079
 30
0.0
 11
120.8813512932543
 21
140.04368873142079
 31
0.0
  0
ARC
  5
1FDE0
  8
0
 10
120.5813512932543
 20
140.04368873142079
 30
0.0
 40
0.2999999999999998
 50
270.0
 51
0.0
  0
ARC
  5
1FDE1
  8
0
 10
120.5813512932543
 20
219.44368873142051
 30
0.0
 40
0.2999999999999971
 50
0.0
 51
90.0
  0
LINE
  5
1FDE2
  8
0
 10
120.3038861737859
 20
219.74368873142069
 30
0.0
 11
120.5813512932543
 21
219.74368873142069
 31
0.0
  0
LINE
  5
1FDE3
  8
0
 10
120.5813512932543
 20
139.7436887314206
 30
0.0
 11
120.3038861737859
 21
139.7436887314206
 31
0.0
  0
ARC
  5
1FDE4
  8
0
 10
120.3038861737859
 20
140.7436887314206
 30
0.0
 40
1.0000000000000211
 50
198.99999999998761
 51
270.0
  0
ARC
  5
1FDE5
  8
0
 10
120.3038861737859
 20
218.7436887314206
 30
0.0
 40
1.0000000000000191
 50
90.0
 51
161.00000000001231
  0
LINE
  5
1FDE6
  8
0
 10
118.6660831394404
 20
217.0587168303409
 30
0.0
 11
119.3583675981865
 21
219.06925688587759
 31
0.0
  0
LINE
  5
1FDE7
  8
0
 10
119.3583675981865
 20
140.4181205769637
 30
0.0
 11
118.6660831394404
 21
142.4286606325004
 31
0.0
  0
ARC
  5
1FDE8
  8
0
 10
121.5026388662381
 20
143.40536509587119
 30
0.0
 40
2.9999999999997642
 50
180.0
 51
198.99999999998761
  0
ARC
  5
1FDE9
  8
0
 10
121.5026388662383
 20
216.0820123669692
 30
0.0
 40
3.0000000000000191
 50
161.00000000001231
 51
180.0
  0
ARC
  5
1FDEA
  8
0
 10
118.0859721995716
 20
144.1134251343255
 30
0.0
 40
0.4166666666666679
 50
180.0
 51
0.0
  0
ARC
  5
1FDEB
  8
0
 10
118.0859721995716
 20
215.37395232851489
 30
0.0
 40
0.4166666666666679
 50
0.0
 51
180.0
  0
ARC
  5
1FDEC
  8
0
 10
117.2526388662384
 20
146.53360086572229
 30
0.0
 40
0.4166666666666661
 50
180.0
 51
0.0
  0
ARC
  5
1FDED
  8
0
 10
117.2526388662384
 20
212.953776597119
 30
0.0
 40
0.4166666666666661
 50
0.0
 51
180.0
  0
LINE
  5
1FDEE
  8
0
 10
114.2447955664563
 20
204.21836536754751
 30
0.0
 11
116.8359721995716
 21
211.74368873142069
 31
0.0
  0
LINE
  5
1FDEF
  8
0
 10
116.8359721995716
 20
147.7436887314206
 30
0.0
 11
114.2447955664563
 21
155.26901209529291
 31
0.0
  0
ARC
  5
1FDF0
  8
0
 10
117.0813512932543
 20
156.2457165586647
 30
0.0
 40
3.0000000000000591
 50
179.99999914622629
 51
198.99999999998761
  0
ARC
  5
1FDF1
  8
0
 10
117.0813512932543
 20
203.2416609041766
 30
0.0
 40
3.00000000000006
 50
161.00000000001231
 51
179.99999914622629
  0
ARC
  5
1FDF2
  8
0
 10
136.0813512932543
 20
156.2457165586647
 30
0.0
 40
3.0000000000000102
 50
341.00000000001239
 51
0.0
  0
ARC
  5
1FDF3
  8
0
 10
136.0813512932545
 20
203.2416609041766
 30
0.0
 40
2.9999999999998201
 50
0.0
 51
18.999999999987629
  0
LINE
  5
1FDF4
  8
0
 10
136.32673038693699
 20
211.74368873142069
 30
0.0
 11
138.9179070200523
 21
204.21836536754751
 31
0.0
  0
LINE
  5
1FDF5
  8
0
 10
138.9179070200523
 20
155.26901209529291
 30
0.0
 11
136.32673038693699
 21
147.7436887314206
 31
0.0
  0
ARC
  5
1FDF6
  8
0
 10
135.9100637202703
 20
146.53360086572229
 30
0.0
 40
0.4166666666666679
 50
180.0
 51
0.0
  0
ARC
  5
1FDF7
  8
0
 10
135.9100637202703
 20
212.953776597119
 30
0.0
 40
0.4166666666666679
 50
0.0
 51
180.0
  0
ARC
  5
1FDF8
  8
0
 10
135.07673038693699
 20
144.1134251343255
 30
0.0
 40
0.4166666666666661
 50
180.0
 51
0.0
  0
ARC
  5
1FDF9
  8
0
 10
135.07673038693699
 20
215.37395232851489
 30
0.0
 40
0.4166666666666661
 50
0.0
 51
180.0
  0
ARC
  5
1FDFA
  8
0
 10
131.6600637202705
 20
143.40536509587119
 30
0.0
 40
2.9999999999997882
 50
341.00000000001239
 51
0.0000008537736463
  0
ARC
  5
1FDFB
  8
0
 10
131.6600637202705
 20
216.0820123669692
 30
0.0
 40
2.9999999999997882
 50
0.0
 51
18.999999999987629
  0
LINE
  5
1FDFC
  8
0
 10
133.8043349883221
 20
219.06925688587759
 30
0.0
 11
134.49661944706821
 21
217.0587168303409
 31
0.0
  0
LINE
  5
1FDFD
  8
0
 10
134.49661944706821
 20
142.4286606325004
 30
0.0
 11
133.8043349883221
 21
140.4181205769637
 31
0.0
  0
ARC
  5
1FDFE
  8
0
 10
132.85881641272269
 20
140.7436887314206
 30
0.0
 40
1.000000000000018
 50
270.0
 51
341.00000000001239
  0
ARC
  5
1FDFF
  8
0
 10
132.85881641272269
 20
218.7436887314206
 30
0.0
 40
1.0000000000000211
 50
18.999999999987629
 51
90.0
  0
LINE
  5
1FE00
  8
0
 10
132.5813512932543
 20
219.74368873142069
 30
0.0
 11
132.85881641272269
 21
219.74368873142069
 31
0.0
  0
LINE
  5
1FE01
  8
0
 10
132.85881641272269
 20
139.7436887314206
 30
0.0
 11
132.5813512932543
 21
139.7436887314206
 31
0.0
  0
ARC
  5
1FE02
  8
0
 10
132.5813512932543
 20
140.04368873142079
 30
0.0
 40
0.2999999999999971
 50
180.0
 51
270.0
  0
ARC
  5
1FE03
  8
0
 10
132.5813512932543
 20
219.44368873142051
 30
0.0
 40
0.299999999999998
 50
90.0
 51
180.0
  0
LINE
  5
1FE04
  8
0
 10
129.88135129325431
 20
219.44368873142051
 30
0.0
 11
132.2813512932544
 21
219.44368873142051
 31
0.0
  0
LINE
  5
1FE05
  8
0
 10
132.2813512932544
 20
140.04368873142079
 30
0.0
 11
129.88135129325431
 21
140.04368873142079
 31
0.0
  0
ARC
  5
1FE06
  8
0
 10
129.5813512932543
 20
140.04368873142079
 30
0.0
 40
0.2999999999999985
 50
270.0
 51
0.0000008537736463
  0
ARC
  5
1FE07
  8
0
 10
129.5813512932543
 20
219.44368873142051
 30
0.0
 40
0.2999999999999971
 50
0.0000008537736463
 51
90.0
  0
LINE
  5
1FE08
  8
0
 10
123.2813512932543
 20
140.04368873142079
 30
0.0
 11
123.2813512932543
 21
219.44368873142051
 31
0.0
  0
LINE
  5
1FE09
  8
0
 10
120.8813512932543
 20
140.04368873142079
 30
0.0
 11
120.8813512932543
 21
219.44368873142051
 31
0.0
  0
LINE
  5
1FE0A
  8
0
 10
118.5026388662384
 20
143.40536509587119
 30
0.0
 11
118.5026388662384
 21
216.0820123669692
 31
0.0
  0
LINE
  5
1FE0B
  8
0
 10
117.6693055329049
 20
144.1134251343255
 30
0.0
 11
117.6693055329049
 21
215.37395232851489
 31
0.0
  0
LINE
  5
1FE0C
  8
0
 10
116.8359721995716
 20
146.53360086572229
 30
0.0
 11
116.8359721995716
 21
212.953776597119
 31
0.0
  0
LINE
  5
1FE0D
  8
0
 10
114.0813512932543
 20
156.2457165586647
 30
0.0
 11
114.0813512932543
 21
203.2416609041766
 31
0.0
  0
LINE
  5
1FE0E
  8
0
 10
136.32673038693699
 20
146.53360086572229
 30
0.0
 11
136.32673038693699
 21
212.953776597119
 31
0.0
  0
LINE
  5
1FE0F
  8
0
 10
135.4933970536037
 20
144.1134251343255
 30
0.0
 11
135.4933970536037
 21
215.37395232851489
 31
0.0
  0
LINE
  5
1FE10
  8
0
 10
134.6600637202703
 20
143.40536509587119
 30
0.0
 11
134.6600637202703
 21
216.0820123669692
 31
0.0
  0
LINE
  5
1FE11
  8
0
 10
132.2813512932544
 20
140.04368873142079
 30
0.0
 11
132.2813512932544
 21
219.44368873142051
 31
0.0
  0
LINE
  5
1FE12
  8
0
 10
129.88135129325431
 20
140.04368873142079
 30
0.0
 11
129.88135129325431
 21
219.44368873142051
 31
0.0
  0
LINE
  5
1FE13
  8
0
 10
139.0813512932543
 20
156.2457165586647
 30
0.0
 11
139.0813512932543
 21
203.2416609041766
 31
0.0
  0
LINE
  5
1FE14
  8
3
 10
91.581351144242717
 20
176.51068642638981
 30
0.0
 11
93.581351472068036
 21
176.51068642638981
 31
0.0
  0
LINE
  5
1FE16
  8
3
 10
91.581351144242717
 20
182.97668769859141
 30
0.0
 11
93.581351472068263
 21
182.97668769859141
 31
0.0
  0
LINE
  5
1FE6A
  8
0
 10
304.2023159840474
 20
361.57567060274232
 30
0.0
 11
307.90231598404739
 21
361.57567060274232
 31
0.0
  0
LINE
  5
1FE6B
  8
0
 10
304.2023159840474
 20
409.07567298692618
 30
0.0
 11
304.2023159840474
 21
406.57567537111203
 31
0.0
  0
LINE
  5
1FE6C
  8
0
 10
304.2023159840474
 20
409.07567298692618
 30
0.0
 11
307.90231598404739
 21
409.07567298692618
 31
0.0
  0
LINE
  5
1FE6D
  8
0
 10
304.2023159840474
 20
406.57567537111203
 30
0.0
 11
307.90231598404739
 21
406.57567537111203
 31
0.0
  0
LINE
  5
1FF0B
  8
0
 10
278.90231598404739
 20
381.0756729869272
 30
0.0
 11
278.90231598404739
 21
387.0756729869272
 31
0.0
  0
ARC
  5
1FF0C
  8
0
 10
279.20231598404757
 20
387.0756729869272
 30
0.0
 40
0.3000000000000185
 50
89.999999146226358
 51
180.0
  0
LINE
  5
1FF0D
  8
0
 10
279.20231598404757
 20
387.37567298692738
 30
0.0
 11
279.20231598404757
 21
389.77567298692702
 31
0.0
  0
ARC
  5
1FF0E
  8
0
 10
279.20231598404757
 20
390.0756729869272
 30
0.0
 40
0.2999999999999998
 50
180.0
 51
270.0
  0
LINE
  5
1FF0F
  8
0
 10
278.90231598404739
 20
390.0756729869272
 30
0.0
 11
278.90231598404739
 21
390.35313810639582
 31
0.0
  0
ARC
  5
1FF10
  8
0
 10
279.90231598404739
 20
390.35313810639582
 30
0.0
 40
1.0000000000000211
 50
108.99999999997721
 51
180.0
  0
LINE
  5
1FF11
  8
0
 10
279.57674782959037
 20
391.2986566819946
 30
0.0
 11
281.58728788512713
 21
391.99094114074069
 31
0.0
  0
ARC
  5
1FF12
  8
0
 10
282.563992348498
 20
389.1543854139436
 30
0.0
 40
2.9999999999997642
 50
90.0
 51
108.99999999997721
  0
ARC
  5
1FF13
  8
0
 10
283.27205238695228
 20
392.57105208060972
 30
0.0
 40
0.4166666666666679
 50
90.0
 51
270.0
  0
ARC
  5
1FF14
  8
0
 10
285.69222811834902
 20
393.40438541394269
 30
0.0
 40
0.4166666666666661
 50
90.0
 51
270.0
  0
LINE
  5
1FF15
  8
0
 10
286.90231598404739
 20
393.82105208060972
 30
0.0
 11
294.42763934791969
 21
396.4122287137252
 31
0.0
  0
ARC
  5
1FF16
  8
0
 10
295.40434381129148
 20
393.5756729869272
 30
0.0
 40
3.0000000000000591
 50
89.999999146226358
 51
108.99999999997721
  0
ARC
  5
1FF17
  8
0
 10
295.40434381129148
 20
374.5756729869272
 30
0.0
 40
3.0000000000000102
 50
251.00000000002279
 51
270.0
  0
LINE
  5
1FF18
  8
0
 10
294.42763934791969
 20
371.73911726012921
 30
0.0
 11
286.90231598404739
 21
374.3302938932448
 31
0.0
  0
ARC
  5
1FF19
  8
0
 10
285.69222811834902
 20
374.7469605599108
 30
0.0
 40
0.4166666666666679
 50
90.0
 51
270.0
  0
ARC
  5
1FF1A
  8
0
 10
283.27205238695228
 20
375.58029389324469
 30
0.0
 40
0.4166666666666661
 50
90.0
 51
270.0
  0
ARC
  5
1FF1B
  8
0
 10
282.563992348498
 20
378.9969605599108
 30
0.0
 40
2.9999999999997882
 50
251.00000000002279
 51
270.0000008537736
  0
LINE
  5
1FF1C
  8
0
 10
281.58728788512713
 20
376.16040483311281
 30
0.0
 11
279.57674782959037
 21
376.85268929185901
 31
0.0
  0
ARC
  5
1FF1D
  8
0
 10
279.90231598404739
 20
377.79820786745859
 30
0.0
 40
1.000000000000018
 50
180.0
 51
251.00000000002279
  0
LINE
  5
1FF1E
  8
0
 10
278.90231598404739
 20
377.79820786745859
 30
0.0
 11
278.90231598404739
 21
378.0756729869272
 31
0.0
  0
ARC
  5
1FF1F
  8
0
 10
279.20231598404757
 20
378.0756729869272
 30
0.0
 40
0.2999999999999971
 50
90.0
 51
180.0
  0
LINE
  5
1FF20
  8
0
 10
279.20231598404757
 20
378.37567298692738
 30
0.0
 11
279.20231598404757
 21
380.77567298692702
 31
0.0
  0
ARC
  5
1FF21
  8
0
 10
279.20231598404757
 20
381.0756729869272
 30
0.0
 40
0.2999999999999985
 50
180.0
 51
270.0000008537736
  0
LINE
  5
1FF22
  8
0
 10
279.20231598404757
 20
387.37567298692738
 30
0.0
 11
307.90231598404739
 21
387.37567298692738
 31
0.0
  0
LINE
  5
1FF23
  8
0
 10
279.20231598404757
 20
389.77567298692702
 30
0.0
 11
307.90231598404739
 21
389.77567298692702
 31
0.0
  0
LINE
  5
1FF24
  8
0
 10
282.563992348498
 20
392.15438541394269
 30
0.0
 11
307.90231598404739
 21
392.15438541394269
 31
0.0
  0
LINE
  5
1FF25
  8
0
 10
283.27205238695228
 20
392.98771874727669
 30
0.0
 11
307.90231598404739
 21
392.98771874727669
 31
0.0
  0
LINE
  5
1FF26
  8
0
 10
285.69222811834902
 20
393.82105208060972
 30
0.0
 11
307.90231598404739
 21
393.82105208060972
 31
0.0
  0
LINE
  5
1FF27
  8
0
 10
295.40434381129148
 20
396.5756729869272
 30
0.0
 11
307.90231598404739
 21
396.5756729869272
 31
0.0
  0
LINE
  5
1FF28
  8
0
 10
285.69222811834902
 20
374.3302938932448
 30
0.0
 11
307.90231598404739
 21
374.3302938932448
 31
0.0
  0
LINE
  5
1FF29
  8
0
 10
283.27205238695228
 20
375.16362722657777
 30
0.0
 11
307.90231598404739
 21
375.16362722657777
 31
0.0
  0
LINE
  5
1FF2A
  8
0
 10
282.563992348498
 20
375.9969605599108
 30
0.0
 11
307.90231598404739
 21
375.9969605599108
 31
0.0
  0
LINE
  5
1FF2B
  8
0
 10
279.20231598404757
 20
378.37567298692738
 30
0.0
 11
307.90231598404739
 21
378.37567298692738
 31
0.0
  0
LINE
  5
1FF2C
  8
0
 10
279.20231598404757
 20
380.77567298692702
 30
0.0
 11
307.90231598404739
 21
380.77567298692702
 31
0.0
  0
LINE
  5
1FF2D
  8
0
 10
295.40434381129148
 20
371.5756729869272
 30
0.0
 11
307.90231598404739
 21
371.5756729869272
 31
0.0
  0
TEXT
  5
26D69
  8
0
 62
     3
 10
0.0
 20
0.0
 30
0.0
 40
10.0
  1
CAE2-080SBL
  7
STANDARD1
  0
ENDSEC
  0
EOF
