  0
SECTION
  2
HEADER
  9
$ACADVER
  1
AC1009
  9
$INSBASE
 10
0.0
 20
0.0
 30
0.0
  9
$EXTMIN
 10
0.0
 20
-2.960436562073669
 30
0.0
  9
$EXTMAX
 10
537.73449106471162
 20
420.48045729116348
 30
0.0
  9
$LIMMIN
 10
0.0
 20
0.0
  9
$LIMMAX
 10
375.0
 20
270.0
  9
$ORTHOMODE
 70
     1
  9
$REGENMODE
 70
     1
  9
$FILLMODE
 70
     1
  9
$QTEXTMODE
 70
     0
  9
$MIRRTEXT
 70
     1
  9
$DRAGMODE
 70
     2
  9
$LTSCALE
 40
10.0
  9
$OSMODE
 70
  3071
  9
$ATTMODE
 70
     1
  9
$TEXTSIZE
 40
5.0
  9
$TRACEWID
 40
0.05
  9
$TEXTSTYLE
  7
STANDARD
  9
$CLAYER
  8
0
  9
$CELTYPE
  6
BYLAYER
  9
$CECOLOR
 62
   256
  9
$DIMSCALE
 40
2.0
  9
$DIMASZ
 40
3.0
  9
$DIMEXO
 40
2.0
  9
$DIMDLI
 40
0.38
  9
$DIMRND
 40
0.0
  9
$DIMDLE
 40
0.0
  9
$DIMEXE
 40
2.0
  9
$DIMTP
 40
0.0
  9
$DIMTM
 40
0.0
  9
$DIMTXT
 40
3.2000000000000002
  9
$DIMCEN
 40
0.0
  9
$DIMTSZ
 40
0.0
  9
$DIMTOL
 70
     0
  9
$DIMLIM
 70
     0
  9
$DIMTIH
 70
     0
  9
$DIMTOH
 70
     0
  9
$DIMSE1
 70
     0
  9
$DIMSE2
 70
     0
  9
$DIMTAD
 70
     1
  9
$DIMZIN
 70
     8
  9
$DIMBLK
  1

  9
$DIMASO
 70
     0
  9
$DIMSHO
 70
     0
  9
$DIMPOST
  1

  9
$DIMAPOST
  1

  9
$DIMALT
 70
     0
  9
$DIMALTD
 70
     2
  9
$DIMALTF
 40
25.399999999999999
  9
$DIMLFAC
 40
1.0
  9
$DIMTOFL
 70
     0
  9
$DIMTVP
 40
1.6000000000000001
  9
$DIMTIX
 70
     1
  9
$DIMSOXD
 70
     0
  9
$DIMSAH
 70
     0
  9
$DIMBLK1
  1

  9
$DIMBLK2
  1

  9
$DIMSTYLE
  2
STANDARD
  9
$DIMCLRD
 70
     0
  9
$DIMCLRE
 70
     0
  9
$DIMCLRT
 70
     0
  9
$DIMTFAC
 40
1.0
  9
$DIMGAP
 40
1.1999999999999991
  9
$LUNITS
 70
     2
  9
$LUPREC
 70
     4
  9
$SKETCHINC
 40
0.1
  9
$FILLETRAD
 40
0.0
  9
$AUNITS
 70
     0
  9
$AUPREC
 70
     4
  9
$MENU
  1
ACAD
  9
$ELEVATION
 40
0.0
  9
$PELEVATION
 40
0.0
  9
$THICKNESS
 40
0.0
  9
$LIMCHECK
 70
     0
  9
$BLIPMODE
 70
     0
  9
$CHAMFERA
 40
0.0
  9
$CHAMFERB
 40
0.0
  9
$SKPOLY
 70
     0
  9
$TDCREATE
 40
2448055.7149187499
  9
$TDUPDATE
 40
2456598.558323646
  9
$TDINDWG
 40
2.7192392244999999
  9
$TDUSRTIMER
 40
2.7192392244999999
  9
$USRTIMER
 70
     1
  9
$ANGBASE
 50
0.0
  9
$ANGDIR
 70
     0
  9
$PDMODE
 70
     0
  9
$PDSIZE
 40
0.0
  9
$PLINEWID
 40
0.0
  9
$COORDS
 70
     1
  9
$SPLFRAME
 70
     0
  9
$SPLINETYPE
 70
     6
  9
$SPLINESEGS
 70
     8
  9
$ATTDIA
 70
     0
  9
$ATTREQ
 70
     1
  9
$HANDLING
 70
     1
  9
$HANDSEED
  5
275AB
  9
$SURFTAB1
 70
     6
  9
$SURFTAB2
 70
     6
  9
$SURFTYPE
 70
     6
  9
$SURFU
 70
     6
  9
$SURFV
 70
     6
  9
$UCSNAME
  2

  9
$UCSORG
 10
0.0
 20
0.0
 30
0.0
  9
$UCSXDIR
 10
1.0
 20
0.0
 30
0.0
  9
$UCSYDIR
 10
0.0
 20
1.0
 30
0.0
  9
$PUCSNAME
  2

  9
$PUCSORG
 10
0.0
 20
0.0
 30
0.0
  9
$PUCSXDIR
 10
1.0
 20
0.0
 30
0.0
  9
$PUCSYDIR
 10
0.0
 20
1.0
 30
0.0
  9
$USERI1
 70
     0
  9
$USERI2
 70
     0
  9
$USERI3
 70
     0
  9
$USERI4
 70
     0
  9
$USERI5
 70
     0
  9
$USERR1
 40
0.0
  9
$USERR2
 40
0.0
  9
$USERR3
 40
0.0
  9
$USERR4
 40
0.0
  9
$USERR5
 40
0.0
  9
$WORLDVIEW
 70
     1
  9
$SHADEDGE
 70
     3
  9
$SHADEDIF
 70
    70
  9
$TILEMODE
 70
     1
  9
$MAXACTVP
 70
    16
  9
$PLIMCHECK
 70
     0
  9
$PEXTMIN
 10
1.0000000000000000E+020
 20
1.0000000000000000E+020
 30
1.0000000000000000E+020
  9
$PEXTMAX
 10
-1.0000000000000000E+020
 20
-1.0000000000000000E+020
 30
-1.0000000000000000E+020
  9
$PLIMMIN
 10
0.0
 20
0.0
  9
$PLIMMAX
 10
12.0
 20
9.0
  9
$UNITMODE
 70
     0
  9
$VISRETAIN
 70
     0
  9
$PLINEGEN
 70
     1
  9
$PSLTSCALE
 70
     0
  0
ENDSEC
  0
SECTION
  2
TABLES
  0
TABLE
  2
VPORT
 70
     1
  0
VPORT
  2
*ACTIVE
 70
     0
 10
0.0
 20
0.0
 11
1.0
 21
1.0
 12
280.60079660460769
 22
208.7645444242481
 13
0.0
 23
0.0
 14
5.0
 24
5.0
 15
10.0
 25
10.0
 16
0.0
 26
0.0
 36
1.0
 17
0.0
 27
0.0
 37
0.0
 40
427.2553168206926
 41
1.831871345029239
 42
50.0
 43
0.0
 44
0.0
 50
0.0
 51
0.0
 71
     0
 72
   500
 73
     1
 74
     1
 75
     0
 76
     0
 77
     0
 78
     2
  0
ENDTAB
  0
TABLE
  2
LTYPE
 70
     3
  0
LTYPE
  2
CONTINUOUS
 70
     0
  3
実線
 72
    65
 73
     0
 40
0.0
  0
LTYPE
  2
CENTER
 70
     0
  3
____ _ ____ _ ____ _ ____ _ ____ _ ____ _ ____
 72
    65
 73
     4
 40
2.0
 49
1.25
 49
-0.25
 49
0.25
 49
-0.25
  0
LTYPE
  2
PHANTOM2
 70
     0
  3
___ _ _ ___ _ _ ___ _ _ ___ _ _
 72
    65
 73
     6
 40
1.25
 49
0.625
 49
-0.125
 49
0.125
 49
-0.125
 49
0.125
 49
-0.125
  0
ENDTAB
  0
TABLE
  2
LAYER
 70
     4
  0
LAYER
  2
0
 70
     0
 62
     7
  6
CONTINUOUS
  0
LAYER
  2
1
 70
     0
 62
     1
  6
CENTER
  0
LAYER
  2
DEFPOINTS
 70
     0
 62
     7
  6
CONTINUOUS
  0
LAYER
  2
3
 70
     0
 62
     3
  6
CONTINUOUS
  0
ENDTAB
  0
TABLE
  2
STYLE
 70
     3
  0
STYLE
  2
STANDARD
 70
     0
 40
0.0
 41
1.0
 50
0.0
 71
     0
 42
5.0
  3
simplex.shx
  4
bigfont.shx
  0
STYLE
  2
07500
 70
     0
 40
0.0
 41
0.75
 50
0.0
 71
     0
 42
0.2
  3
simplex.shx
  4
bigfont.shx
  0
STYLE
  2
STANDARD1
 70
     0
 40
0.0
 41
1.0
 50
0.0
 71
     0
 42
3.0
  3
txt
  4

  0
ENDTAB
  0
TABLE
  2
VIEW
 70
     2
  0
VIEW
  2
ALL
 70
     0
 40
270.0
 10
220.99159663865549
 20
135.0
 41
0.0
 11
0.0
 21
0.0
 31
1.0
 12
0.0
 22
0.0
 32
0.0
 42
0.0
 43
0.0
 44
0.0
 50
0.0
 71
     0
  0
VIEW
  2
OLE1
 70
     0
 40
168.2487151179721
 10
2892.3009567448912
 20
702.51600084347126
 41
162.5749581879237
 11
0.0
 21
0.0
 31
1.0
 12
0.0
 22
0.0
 32
0.0
 42
50.0
 43
0.0
 44
0.0
 50
0.0
 71
     0
  0
ENDTAB
  0
TABLE
  2
UCS
 70
     0
  0
ENDTAB
  0
TABLE
  2
APPID
 70
    48
  0
APPID
  2
ACAD
 70
     0
  0
APPID
  2
DCO15
 70
     0
  0
APPID
  2
GENIUS_GENOREF_13
 70
     0
  0
APPID
  2
GENIUS_GENOENT_13
 70
     0
  0
APPID
  2
GENIUS_GENBH_13
 70
     0
  0
APPID
  2
GENIUS_GENOBJ_13
 70
     0
  0
APPID
  2
GENIUS_GENODEF_13
 70
     0
  0
APPID
  2
GENIUS_GENOLIS_13
 70
     0
  0
APPID
  2
GENIUS_GENOBJ-NBEHI-BHF_13
 70
     0
  0
APPID
  2
GENIUS_GENOBJ-NBEHI-BHB_13
 70
     0
  0
APPID
  2
GENIUS_GENOBJ-F-PART_13
 70
     0
  0
APPID
  2
GENIUS_GEFSTDP_13
 70
     0
  0
APPID
  2
GENIUS_GENOBJ-N-RSSYM_13
 70
     0
  0
APPID
  2
GENIUS_GENSYMENT_13
 70
     0
  0
APPID
  2
GENIUS_GENOBJ-N-TIT_13
 70
     0
  0
APPID
  2
GENIUS_GENTITLE_13
 70
     0
  0
APPID
  2
GENIUS_GENZVEED_13
 70
     0
  0
APPID
  2
GENIUS_GENOBJ-N-LEADER_13
 70
     0
  0
APPID
  2
GENIUS_GENOBJ-N-FIL_13
 70
     0
  0
APPID
  2
GENIUS_GENOBJ-N-SEC_13
 70
     0
  0
APPID
  2
GENIUS_GENOBJ-N-CRS_13
 70
     0
  0
APPID
  2
GENIUS_GENOBJ-N-ZOO_13
 70
     0
  0
APPID
  2
GENIUS_GENZOO_13
 70
     0
  0
APPID
  2
GENIUS_GENOBJ-F-TOL_13
 70
     0
  0
APPID
  2
GENIUS_GENFIL_13
 70
     0
  0
APPID
  2
GENIUS_GENOBJ-N-CHA_13
 70
     0
  0
APPID
  2
_CALL_MAC$
 70
     0
  0
APPID
  2
ASM_BASE
 70
     0
  0
APPID
  2
ASM_EXPLO_VER_2_00
 70
     0
  0
APPID
  2
ASM_CADM_VER_12_00
 70
     0
  0
APPID
  2
ASM_BASEFORO
 70
     0
  0
APPID
  2
ASM_BASETRAVI
 70
     0
  0
APPID
  2
ASM_BASETRAVI1
 70
     0
  0
APPID
  2
ASM_GRUPPI
 70
     0
  0
APPID
  2
ASM_CADM_ALBERO
 70
     0
  0
APPID
  2
ASM_GOLE
 70
     0
  0
APPID
  2
ACAD_MLEADERVER
 70
     0
  0
APPID
  2
ACAD_DSTYLE_DIMJAG
 70
     0
  0
APPID
  2
ACAD_DSTYLE_DIMTALN
 70
     0
  0
APPID
  2
ACAD_EXEMPT_FROM_CAD_STANDARDS
 70
     0
  0
APPID
  2
ACAD_DSTYLE_DIMRADIAL_EXTENSION
 70
     0
  0
APPID
  2
ACAD_PSEXT
 70
     0
  0
APPID
  2
ACAD_DSTYLE_DIMBREAK
 70
     0
  0
APPID
  2
ACAECLAYERSTANDARD
 70
     0
  0
APPID
  2
ACCMTRANSPARENCY
 70
     0
  0
APPID
  2
GRADIENTCOLOR1ACI
 70
     0
  0
APPID
  2
GRADIENTCOLOR2ACI
 70
     0
  0
APPID
  2
ACAD_NAV_VCDISPLAY
 70
     0
  0
ENDTAB
  0
TABLE
  2
DIMSTYLE
 70
     1
  0
DIMSTYLE
  2
STANDARD
 70
     0
  3

  4

  5

  6

  7

 40
1.0
 41
0.18
 42
0.0625
 43
0.38
 44
0.18
 45
0.0
 46
0.0
 47
0.0
 48
0.0
140
0.18
141
0.09
142
0.0
143
25.399999999999999
144
1.0
145
0.0
146
1.0
147
0.09
 71
     0
 72
     0
 73
     1
 74
     1
 75
     0
 76
     0
 77
     0
 78
     0
170
     0
171
     2
172
     0
173
     0
174
     0
175
     0
176
     0
177
     0
178
     0
  0
ENDTAB
  0
ENDSEC
  0
SECTION
  2
BLOCKS
  0
BLOCK
  8
0
  2
$MODEL_SPACE
 70
     0
 10
0.0
 20
0.0
 30
0.0
  3
$MODEL_SPACE
  1

  0
ENDBLK
  5
36
  8
0
  0
BLOCK
 67
     1
  8
0
  2
$PAPER_SPACE
 70
     0
 10
0.0
 20
0.0
 30
0.0
  3
$PAPER_SPACE
  1

  0
ENDBLK
  5
34
 67
     1
  8
0
  0
ENDSEC
  0
SECTION
  2
ENTITIES
  0
LINE
  5
1A406
  8
0
 10
527.64508738264135
 20
185.74368873142251
 30
0.0
 11
529.37808738264152
 21
185.74368873142251
 31
0.0
  0
LINE
  5
1A407
  8
0
 10
530.14508738264135
 20
192.9766887314226
 30
0.0
 11
529.92905562791088
 21
193.19272048615309
 31
0.0
  0
LINE
  5
1A408
  8
0
 10
529.37808738264152
 20
185.74368873142251
 30
0.0
 11
530.14508738264135
 21
186.51068873142231
 31
0.0
  0
LINE
  5
1A409
  8
0
 10
464.8450873826414
 20
183.4853553980893
 30
0.0
 11
465.10450709205691
 21
182.51718786206581
 31
0.0
  0
LINE
  5
1A40B
  8
0
 10
525.14508738264135
 20
183.9286887314228
 30
0.0
 11
527.64508738264135
 21
183.9286887314228
 31
0.0
  0
LINE
  5
1A40C
  8
0
 10
524.88566767322595
 20
182.51718786206581
 30
0.0
 11
525.14508738264135
 21
183.4853553980893
 31
0.0
  0
LINE
  5
1A40D
  8
0
 10
517.64508738264135
 20
195.74368873142251
 30
0.0
 11
510.14508738264141
 21
195.74368873142251
 31
0.0
  0
LINE
  5
1A40E
  8
0
 10
480.14508738264141
 20
195.74368873142251
 30
0.0
 11
472.64508738264141
 21
195.74368873142251
 31
0.0
  0
LINE
  5
1A40F
  8
0
 10
472.64508738264141
 20
183.74368873142251
 30
0.0
 11
480.14508738264141
 21
183.74368873142251
 31
0.0
  0
LINE
  5
1A410
  8
0
 10
510.14508738264141
 20
183.74368873142251
 30
0.0
 11
517.64508738264135
 21
183.74368873142251
 31
0.0
  0
LINE
  5
1A411
  8
0
 10
529.37808738264152
 20
185.74368873142251
 30
0.0
 11
529.37808738264152
 21
192.6445084616989
 31
0.0
  0
LINE
  5
1A412
  8
0
 10
530.14508738264135
 20
186.51068873142231
 30
0.0
 11
530.14508738264135
 21
192.9766887314226
 31
0.0
  0
LINE
  5
1A413
  8
0
 10
464.8450873826414
 20
183.4853553980893
 30
0.0
 11
464.8450873826414
 21
188.35980614146951
 31
0.0
  0
LINE
  5
1A414
  8
0
 10
465.10450709205691
 20
182.51718786206581
 30
0.0
 11
468.647828461122
 21
182.51718786206581
 31
0.0
  0
POLYLINE
  5
1A415
  8
0
 66
     1
 10
0.0
 20
0.0
 30
0.0
  0
VERTEX
  5
26EDB
  8
0
 10
465.10450709205691
 20
182.51718786206581
 30
0.0
  0
VERTEX
  5
26EDC
  8
0
 10
465.02366243879879
 20
182.84176175773791
 30
0.0
  0
VERTEX
  5
26EDD
  8
0
 10
464.90905210004581
 20
183.4513223365102
 30
0.0
  0
VERTEX
  5
26EDE
  8
0
 10
464.85227751626132
 20
184.03373050808571
 30
0.0
  0
VERTEX
  5
26EDF
  8
0
 10
464.8450873826414
 20
184.3238130794052
 30
0.0
  0
SEQEND
  5
26EE0
  8
0
  0
POLYLINE
  5
1A416
  8
0
 66
     1
 10
0.0
 20
0.0
 30
0.0
  0
VERTEX
  5
26EE1
  8
0
 10
464.8450873826414
 20
184.3238130794052
 30
0.0
  0
VERTEX
  5
26EE2
  8
0
 10
464.85227751626132
 20
184.61389565072469
 30
0.0
  0
VERTEX
  5
26EE3
  8
0
 10
464.90905210004581
 20
185.19630382230019
 30
0.0
  0
VERTEX
  5
26EE4
  8
0
 10
465.02366243879879
 20
185.80586440107251
 30
0.0
  0
VERTEX
  5
26EE5
  8
0
 10
465.10450709205691
 20
186.13043829674459
 30
0.0
  0
SEQEND
  5
26EE6
  8
0
  0
LINE
  5
1A417
  8
0
 10
465.10450709205691
 20
186.13043829674459
 30
0.0
 11
466.25462545252719
 21
186.13043829674459
 31
0.0
  0
POLYLINE
  5
1A418
  8
0
 66
     1
 10
0.0
 20
0.0
 30
0.0
  0
VERTEX
  5
26EE7
  8
0
 10
465.10450709205691
 20
186.13043829674459
 30
0.0
  0
VERTEX
  5
26EE8
  8
0
 10
465.05541810063221
 20
186.51238647723949
 30
0.0
  0
VERTEX
  5
26EE9
  8
0
 10
464.97382688238338
 20
187.24476272127049
 30
0.0
  0
VERTEX
  5
26EEA
  8
0
 10
464.91290102910142
 20
187.94596260111661
 30
0.0
  0
VERTEX
  5
26EEB
  8
0
 10
464.8898137190925
 20
188.28864350057569
 30
0.0
  0
SEQEND
  5
26EEC
  8
0
  0
LINE
  5
1A419
  8
0
 10
527.64508738264135
 20
183.9286887314228
 30
0.0
 11
527.64508738264135
 21
190.90908718920579
 31
0.0
  0
LINE
  5
1A41A
  8
0
 10
525.14508738264135
 20
183.4853553980893
 30
0.0
 11
525.14508738264135
 21
187.92055364347291
 31
0.0
  0
LINE
  5
1A41B
  8
0
 10
521.64234630416081
 20
182.51718786206581
 30
0.0
 11
524.88566767322595
 21
182.51718786206581
 31
0.0
  0
POLYLINE
  5
1A41C
  8
0
 66
     1
 10
0.0
 20
0.0
 30
0.0
  0
VERTEX
  5
26EED
  8
0
 10
524.88566767322595
 20
186.13043829674459
 30
0.0
  0
VERTEX
  5
26EEE
  8
0
 10
524.96651232648401
 20
185.80586440107251
 30
0.0
  0
VERTEX
  5
26EEF
  8
0
 10
525.0811226652371
 20
185.19630382230019
 30
0.0
  0
VERTEX
  5
26EF0
  8
0
 10
525.13789724902153
 20
184.61389565072469
 30
0.0
  0
VERTEX
  5
26EF1
  8
0
 10
525.14508738264135
 20
184.3238130794052
 30
0.0
  0
SEQEND
  5
26EF2
  8
0
  0
POLYLINE
  5
1A41D
  8
0
 66
     1
 10
0.0
 20
0.0
 30
0.0
  0
VERTEX
  5
26EF3
  8
0
 10
525.14508738264135
 20
184.3238130794052
 30
0.0
  0
VERTEX
  5
26EF4
  8
0
 10
525.13789724902153
 20
184.03373050808571
 30
0.0
  0
VERTEX
  5
26EF5
  8
0
 10
525.0811226652371
 20
183.4513223365102
 30
0.0
  0
VERTEX
  5
26EF6
  8
0
 10
524.96651232648412
 20
182.84176175773791
 30
0.0
  0
VERTEX
  5
26EF7
  8
0
 10
524.88566767322595
 20
182.51718786206581
 30
0.0
  0
SEQEND
  5
26EF8
  8
0
  0
LINE
  5
1A41E
  8
0
 10
524.03554931275562
 20
186.13043829674459
 30
0.0
 11
524.88566767322595
 21
186.13043829674459
 31
0.0
  0
POLYLINE
  5
1A41F
  8
0
 66
     1
 10
0.0
 20
0.0
 30
0.0
  0
VERTEX
  5
26EF9
  8
0
 10
525.06680294392936
 20
187.80920004290871
 30
0.0
  0
VERTEX
  5
26EFA
  8
0
 10
525.04428366298146
 20
187.5413360070952
 30
0.0
  0
VERTEX
  5
26EFB
  8
0
 10
524.99030815114907
 20
186.99344339916479
 30
0.0
  0
VERTEX
  5
26EFC
  8
0
 10
524.92385091570895
 20
186.42460652542741
 30
0.0
  0
VERTEX
  5
26EFD
  8
0
 10
524.88566767322595
 20
186.13043829674459
 30
0.0
  0
SEQEND
  5
26EFE
  8
0
  0
LINE
  5
1A429
  8
0
 10
454.64508738264141
 20
265.74368873142248
 30
0.0
 11
535.64508738264135
 21
265.74368873142248
 31
0.0
  0
LINE
  5
1A42A
  8
0
 10
535.64508738264135
 20
265.74368873142248
 30
0.0
 11
535.64508738264135
 21
205.54817315836041
 31
0.0
  0
LINE
  5
1A42D
  8
0
 10
517.64508738264135
 20
265.74368873142248
 30
0.0
 11
517.64508738264135
 21
180.7436887314224
 31
0.0
  0
LINE
  5
1A42E
  8
0
 10
472.64508738264141
 20
265.74368873142248
 30
0.0
 11
472.64508738264141
 21
180.7436887314224
 31
0.0
  0
LINE
  5
1A434
  8
0
 10
454.64508738264141
 20
265.74368873142248
 30
0.0
 11
454.64508738264141
 21
205.54817315836041
 31
0.0
  0
POLYLINE
  5
1A435
  8
0
 66
     1
 10
0.0
 20
0.0
 30
0.0
  0
VERTEX
  5
26EFF
  8
0
 10
454.64508738264141
 20
205.54817315836041
 30
0.0
  0
VERTEX
  5
26F00
  8
0
 10
454.64519863640157
 20
205.46132351252069
 30
0.0
  0
VERTEX
  5
26F01
  8
0
 10
454.64612700978148
 20
205.28907744047771
 30
0.0
  0
VERTEX
  5
26F02
  8
0
 10
454.64808210662937
 20
205.11886450240311
 30
0.0
  0
VERTEX
  5
26F03
  8
0
 10
454.64947685345948
 20
205.0345557103546
 30
0.0
  0
VERTEX
  5
26F04
  8
0
 10
454.65116689501463
 20
204.9507971511421
 30
0.0
  0
VERTEX
  5
26F05
  8
0
 10
454.6554841972673
 20
204.78498484175361
 30
0.0
  0
VERTEX
  5
26F06
  8
0
 10
454.66113617364618
 20
204.62153344949729
 30
0.0
  0
VERTEX
  5
26F07
  8
0
 10
454.66822389488328
 20
204.46054321356499
 30
0.0
  0
VERTEX
  5
26F08
  8
0
 10
454.6768469296747
 20
204.30210847092081
 30
0.0
  0
VERTEX
  5
26F09
  8
0
 10
454.68710257808681
 20
204.14632282292129
 30
0.0
  0
VERTEX
  5
26F0A
  8
0
 10
454.69287227519419
 20
204.06945207686749
 30
0.0
  0
VERTEX
  5
26F0B
  8
0
 10
454.69908528843598
 20
203.9932776610994
 30
0.0
  0
VERTEX
  5
26F0C
  8
0
 10
454.71288606536632
 20
203.84306139832731
 30
0.0
  0
VERTEX
  5
26F0D
  8
0
 10
454.72859189891523
 20
203.6957587243669
 30
0.0
  0
VERTEX
  5
26F0E
  8
0
 10
454.74628522718052
 20
203.55144986686449
 30
0.0
  0
VERTEX
  5
26F0F
  8
0
 10
454.7660434462415
 20
203.41020985699009
 30
0.0
  0
VERTEX
  5
26F10
  8
0
 10
454.78793848285608
 20
203.27210780005501
 30
0.0
  0
VERTEX
  5
26F11
  8
0
 10
454.7997082019827
 20
203.2042533009344
 30
0.0
  0
VERTEX
  5
26F12
  8
0
 10
454.81205021951553
 20
203.13713337222089
 30
0.0
  0
VERTEX
  5
26F13
  8
0
 10
454.83890061743227
 20
203.00318438778689
 30
0.0
  0
VERTEX
  5
26F14
  8
0
 10
454.86886176676933
 20
202.86965882275041
 30
0.0
  0
VERTEX
  5
26F15
  8
0
 10
454.88506242132331
 20
202.80321381140769
 30
0.0
  0
SEQEND
  5
26F16
  8
0
  0
POLYLINE
  5
1A436
  8
0
 66
     1
 10
0.0
 20
0.0
 30
0.0
  0
VERTEX
  5
26F17
  8
0
 10
452.8360105963032
 20
202.80321381140769
 30
0.0
  0
VERTEX
  5
26F18
  8
0
 10
452.8236177789849
 20
202.86737803727831
 30
0.0
  0
VERTEX
  5
26F19
  8
0
 10
452.80031556815129
 20
202.9980540033512
 30
0.0
  0
VERTEX
  5
26F1A
  8
0
 10
452.77894931266661
 20
203.13181860711671
 30
0.0
  0
VERTEX
  5
26F1B
  8
0
 10
452.76897533169739
 20
203.19984223545001
 30
0.0
  0
VERTEX
  5
26F1C
  8
0
 10
452.7594645627463
 20
203.2686170308352
 30
0.0
  0
VERTEX
  5
26F1D
  8
0
 10
452.74180236013359
 20
203.40838904401059
 30
0.0
  0
VERTEX
  5
26F1E
  8
0
 10
452.72589951446662
 20
203.55106955875451
 30
0.0
  0
VERTEX
  5
26F1F
  8
0
 10
452.71168893064117
 20
203.69658920147501
 30
0.0
  0
VERTEX
  5
26F20
  8
0
 10
452.69909997670823
 20
203.8448748991004
 30
0.0
  0
VERTEX
  5
26F21
  8
0
 10
452.68805888280042
 20
203.9958504787819
 30
0.0
  0
VERTEX
  5
26F22
  8
0
 10
452.68309497561449
 20
204.07232247330381
 30
0.0
  0
VERTEX
  5
26F23
  8
0
 10
452.67848916251887
 20
204.14943728061371
 30
0.0
  0
VERTEX
  5
26F24
  8
0
 10
452.67031203673292
 20
204.30555504232689
 30
0.0
  0
VERTEX
  5
26F25
  8
0
 10
452.66344686407439
 20
204.46412317331399
 30
0.0
  0
VERTEX
  5
26F26
  8
0
 10
452.65781183000769
 20
204.62505466349009
 30
0.0
  0
VERTEX
  5
26F27
  8
0
 10
452.6533241428283
 20
204.78825793566921
 30
0.0
  0
VERTEX
  5
26F28
  8
0
 10
452.6499003427349
 20
204.95363795671531
 30
0.0
  0
VERTEX
  5
26F29
  8
0
 10
452.64856122531631
 20
205.03711371823189
 30
0.0
  0
VERTEX
  5
26F2A
  8
0
 10
452.64745666370618
 20
205.12109669757771
 30
0.0
  0
VERTEX
  5
26F2B
  8
0
 10
452.645909404652
 20
205.29053360376659
 30
0.0
  0
VERTEX
  5
26F2C
  8
0
 10
452.6451753045726
 20
205.46184607910621
 30
0.0
  0
VERTEX
  5
26F2D
  8
0
 10
452.64508738264141
 20
205.54817315836041
 30
0.0
  0
SEQEND
  5
26F2E
  8
0
  0
LINE
  5
1A437
  8
0
 10
452.64508738264141
 20
205.54817315836041
 30
0.0
 11
452.64508738264141
 21
267.74368873142248
 31
0.0
  0
POLYLINE
  5
1A439
  8
0
 66
     1
 10
0.0
 20
0.0
 30
0.0
  0
VERTEX
  5
26F2F
  8
0
 10
454.88506242132331
 20
202.80321381140769
 30
0.0
  0
VERTEX
  5
26F30
  8
0
 10
454.93028800086381
 20
202.6309106702756
 30
0.0
  0
VERTEX
  5
26F31
  8
0
 10
455.03219074447799
 20
202.2895384423982
 30
0.0
  0
VERTEX
  5
26F32
  8
0
 10
455.14919071466591
 20
201.95304152696099
 30
0.0
  0
VERTEX
  5
26F33
  8
0
 10
455.21328080954299
 20
201.7868302601118
 30
0.0
  0
VERTEX
  5
26F34
  8
0
 10
455.28105588738379
 20
201.6220872350323
 30
0.0
  0
VERTEX
  5
26F35
  8
0
 10
455.42752475922759
 20
201.29733188603319
 30
0.0
  0
VERTEX
  5
26F36
  8
0
 10
455.58830686602141
 20
200.9794195061904
 30
0.0
  0
VERTEX
  5
26F37
  8
0
 10
455.76308335884249
 20
200.66898055135519
 30
0.0
  0
VERTEX
  5
26F38
  8
0
 10
455.95150763633279
 20
200.36663065673841
 30
0.0
  0
VERTEX
  5
26F39
  8
0
 10
456.15320603204918
 20
200.07296941604179
 30
0.0
  0
VERTEX
  5
26F3A
  8
0
 10
456.25890903415291
 20
199.92957973428199
 30
0.0
  0
VERTEX
  5
26F3B
  8
0
 10
456.36777855548542
 20
199.78857919238999
 30
0.0
  0
VERTEX
  5
26F3C
  8
0
 10
456.59479968529843
 20
199.5140239634456
 30
0.0
  0
VERTEX
  5
26F3D
  8
0
 10
456.83381921316459
 20
199.2498482029732
 30
0.0
  0
VERTEX
  5
26F3E
  8
0
 10
457.08436313659308
 20
198.99657580109121
 30
0.0
  0
VERTEX
  5
26F3F
  8
0
 10
457.34593459892631
 20
198.7547090253338
 30
0.0
  0
VERTEX
  5
26F40
  8
0
 10
457.61801487466221
 20
198.52472752460471
 30
0.0
  0
VERTEX
  5
26F41
  8
0
 10
457.75782798837201
 20
198.41433722284
 30
0.0
  0
VERTEX
  5
26F42
  8
0
 10
457.90006439814448
 20
198.30708737797249
 30
0.0
  0
VERTEX
  5
26F43
  8
0
 10
458.19152383358272
 20
198.10222019022331
 30
0.0
  0
VERTEX
  5
26F44
  8
0
 10
458.4918151842765
 20
197.9105322359309
 30
0.0
  0
VERTEX
  5
26F45
  8
0
 10
458.64508738264141
 20
197.81975030657659
 30
0.0
  0
SEQEND
  5
26F46
  8
0
  0
LINE
  5
1A43A
  8
0
 10
458.64508738264141
 20
197.81975030657659
 30
0.0
 11
459.609286411722
 21
197.2630697375844
 31
0.0
  0
POLYLINE
  5
1A43B
  8
0
 66
     1
 10
0.0
 20
0.0
 30
0.0
  0
VERTEX
  5
26F47
  8
0
 10
456.01360832352788
 20
197.2630697375844
 30
0.0
  0
VERTEX
  5
26F48
  8
0
 10
455.87954087248329
 20
197.38402928283631
 30
0.0
  0
VERTEX
  5
26F49
  8
0
 10
455.61806674302233
 20
197.63311123850411
 30
0.0
  0
VERTEX
  5
26F4A
  8
0
 10
455.36575658919469
 20
197.89147169850551
 30
0.0
  0
VERTEX
  5
26F4B
  8
0
 10
455.24314130651248
 20
198.0240265379862
 30
0.0
  0
VERTEX
  5
26F4C
  8
0
 10
455.12293945003728
 20
198.1587737335667
 30
0.0
  0
VERTEX
  5
26F4D
  8
0
 10
454.8899319846949
 20
198.434668753659
 30
0.0
  0
VERTEX
  5
26F4E
  8
0
 10
454.66703805946361
 20
198.71879696259199
 30
0.0
  0
VERTEX
  5
26F4F
  8
0
 10
454.4545483515173
 20
199.01078782723289
 30
0.0
  0
VERTEX
  5
26F50
  8
0
 10
454.25273996983361
 20
199.3102605607146
 30
0.0
  0
VERTEX
  5
26F51
  8
0
 10
454.06187609381499
 20
199.6168246190245
 30
0.0
  0
VERTEX
  5
26F52
  8
0
 10
453.97062669528248
 20
199.77264130710591
 30
0.0
  0
VERTEX
  5
26F53
  8
0
 10
453.88220563007468
 20
199.9300802103171
 30
0.0
  0
VERTEX
  5
26F54
  8
0
 10
453.7139628878366
 20
200.24961881628039
 30
0.0
  0
VERTEX
  5
26F55
  8
0
 10
453.55736727337109
 20
200.57502372488941
 30
0.0
  0
VERTEX
  5
26F56
  8
0
 10
453.4126230038662
 20
200.90587057384249
 30
0.0
  0
VERTEX
  5
26F57
  8
0
 10
453.27991884110668
 20
201.24172790397461
 30
0.0
  0
VERTEX
  5
26F58
  8
0
 10
453.15942784530949
 20
201.58215772192301
 30
0.0
  0
VERTEX
  5
26F59
  8
0
 10
453.10381201697641
 20
201.7539487946124
 30
0.0
  0
VERTEX
  5
26F5A
  8
0
 10
453.05130714943391
 20
201.92671607132161
 30
0.0
  0
VERTEX
  5
26F5B
  8
0
 10
452.95569775426418
 20
202.2749536117617
 30
0.0
  0
VERTEX
  5
26F5C
  8
0
 10
452.8727243445303
 20
202.62641620478371
 30
0.0
  0
VERTEX
  5
26F5D
  8
0
 10
452.8360105963032
 20
202.80321381140769
 30
0.0
  0
SEQEND
  5
26F5E
  8
0
  0
POLYLINE
  5
1A43D
  8
0
 66
     1
 10
0.0
 20
0.0
 30
0.0
  0
VERTEX
  5
26F5F
  8
0
 10
459.609286411722
 20
197.2630697375844
 30
0.0
  0
VERTEX
  5
26F60
  8
0
 10
459.69802773556643
 20
197.2114609588225
 30
0.0
  0
VERTEX
  5
26F61
  8
0
 10
459.87354853624862
 20
197.10713248354199
 30
0.0
  0
VERTEX
  5
26F62
  8
0
 10
460.04642265784298
 20
197.0013412081953
 30
0.0
  0
VERTEX
  5
26F63
  8
0
 10
460.13185576404823
 20
196.94790400187591
 30
0.0
  0
VERTEX
  5
26F64
  8
0
 10
460.2166135312238
 20
196.89410951146141
 30
0.0
  0
VERTEX
  5
26F65
  8
0
 10
460.38408515486998
 20
196.78546007671949
 30
0.0
  0
VERTEX
  5
26F66
  8
0
 10
460.54880210247973
 20
196.67541588725359
 30
0.0
  0
VERTEX
  5
26F67
  8
0
 10
460.71072953046462
 20
196.56400022138669
 30
0.0
  0
VERTEX
  5
26F68
  8
0
 10
460.86983318532072
 20
196.45123664756011
 30
0.0
  0
VERTEX
  5
26F69
  8
0
 10
461.02607941087422
 20
196.337149019344
 30
0.0
  0
VERTEX
  5
26F6A
  8
0
 10
461.10312063519518
 20
196.2796162158065
 30
0.0
  0
VERTEX
  5
26F6B
  8
0
 10
461.1794351554006
 20
196.22176147039681
 30
0.0
  0
VERTEX
  5
26F6C
  8
0
 10
461.32986797861668
 20
196.10509840935529
 30
0.0
  0
VERTEX
  5
26F6D
  8
0
 10
461.47734605854311
 20
195.9871845146736
 30
0.0
  0
VERTEX
  5
26F6E
  8
0
 10
461.62183819823503
 20
195.86804472940361
 30
0.0
  0
VERTEX
  5
26F6F
  8
0
 10
461.76331383238221
 20
195.7477042559149
 30
0.0
  0
VERTEX
  5
26F70
  8
0
 10
461.90174303377421
 20
195.62618855056911
 30
0.0
  0
VERTEX
  5
26F71
  8
0
 10
461.96980604597502
 20
195.56499800918749
 30
0.0
  0
VERTEX
  5
26F72
  8
0
 10
462.03709651963152
 20
195.50352331832801
 30
0.0
  0
VERTEX
  5
26F73
  8
0
 10
462.16934565779911
 20
195.3797345073244
 30
0.0
  0
VERTEX
  5
26F74
  8
0
 10
462.2984624728042
 20
195.2548483033643
 30
0.0
  0
VERTEX
  5
26F75
  8
0
 10
462.36183769780621
 20
195.1920019257195
 30
0.0
  0
SEQEND
  5
26F76
  8
0
  0
POLYLINE
  5
1A43E
  8
0
 66
     1
 10
0.0
 20
0.0
 30
0.0
  0
VERTEX
  5
26F77
  8
0
 10
458.3618376978061
 20
195.1920019257195
 30
0.0
  0
VERTEX
  5
26F78
  8
0
 10
458.24854295028467
 20
195.3036228925566
 30
0.0
  0
VERTEX
  5
26F79
  8
0
 10
458.01449771144388
 20
195.52427956680091
 30
0.0
  0
VERTEX
  5
26F7A
  8
0
 10
457.77064274738183
 20
195.74136636510411
 30
0.0
  0
VERTEX
  5
26F7B
  8
0
 10
457.64508738264152
 20
195.84852554718691
 30
0.0
  0
SEQEND
  5
26F7C
  8
0
  0
LINE
  5
1A43F
  8
0
 10
457.64508738264152
 20
195.84852554718691
 30
0.0
 11
456.01360832352788
 21
197.2630697375844
 31
0.0
  0
LINE
  5
1A441
  8
0
 10
462.36183769780621
 20
195.1920019257195
 30
0.0
 11
463.89508738264152
 21
193.6587522408835
 31
0.0
  0
POLYLINE
  5
1A442
  8
0
 66
     1
 10
0.0
 20
0.0
 30
0.0
  0
VERTEX
  5
26F7D
  8
0
 10
463.89508738264152
 20
193.6587522408835
 30
0.0
  0
VERTEX
  5
26F7E
  8
0
 10
464.06191800210252
 20
193.4897874026928
 30
0.0
  0
VERTEX
  5
26F7F
  8
0
 10
464.39229666200072
 20
193.1423365546006
 30
0.0
  0
VERTEX
  5
26F80
  8
0
 10
464.71816447263541
 20
192.78233269550401
 30
0.0
  0
VERTEX
  5
26F81
  8
0
 10
464.87935704625568
 20
192.5976780287792
 30
0.0
  0
VERTEX
  5
26F82
  8
0
 10
465.03936247355392
 20
192.409951437643
 30
0.0
  0
VERTEX
  5
26F83
  8
0
 10
465.35573398226722
 20
192.02537443103481
 30
0.0
  0
VERTEX
  5
26F84
  8
0
 10
465.66712467068078
 20
191.62878927486321
 30
0.0
  0
VERTEX
  5
26F85
  8
0
 10
465.97338264037711
 20
191.2203894259637
 30
0.0
  0
VERTEX
  5
26F86
  8
0
 10
466.27435849671213
 20
190.80037410446039
 30
0.0
  0
VERTEX
  5
26F87
  8
0
 10
466.56990542169171
 20
190.3689481965757
 30
0.0
  0
VERTEX
  5
26F88
  8
0
 10
466.71559787650369
 20
190.1490218244717
 30
0.0
  0
VERTEX
  5
26F89
  8
0
 10
466.85987924558952
 20
189.92632215469621
 30
0.0
  0
VERTEX
  5
26F8A
  8
0
 10
467.14413851727483
 20
189.472711894703
 30
0.0
  0
VERTEX
  5
26F8B
  8
0
 10
467.4225445732128
 20
189.00833869065349
 30
0.0
  0
VERTEX
  5
26F8C
  8
0
 10
467.6949616051055
 20
188.5334290668379
 30
0.0
  0
VERTEX
  5
26F8D
  8
0
 10
467.96125672614011
 20
188.04821468728181
 30
0.0
  0
VERTEX
  5
26F8E
  8
0
 10
468.22130003581242
 20
187.55293224273919
 30
0.0
  0
VERTEX
  5
26F8F
  8
0
 10
468.34893749967301
 20
187.3015908080888
 30
0.0
  0
VERTEX
  5
26F90
  8
0
 10
468.47496468329211
 20
187.0478233352305
 30
0.0
  0
VERTEX
  5
26F91
  8
0
 10
468.7221269293027
 20
186.53313436018831
 30
0.0
  0
VERTEX
  5
26F92
  8
0
 10
468.96266620648129
 20
186.00911638626889
 30
0.0
  0
VERTEX
  5
26F93
  8
0
 10
469.08041543628389
 20
185.74368873142251
 30
0.0
  0
SEQEND
  5
26F94
  8
0
  0
POLYLINE
  5
1A443
  8
0
 66
     1
 10
0.0
 20
0.0
 30
0.0
  0
VERTEX
  5
26F95
  8
0
 10
466.46733839393039
 20
185.74368873142251
 30
0.0
  0
VERTEX
  5
26F96
  8
0
 10
466.38009446572028
 20
185.90399075055211
 30
0.0
  0
VERTEX
  5
26F97
  8
0
 10
466.20334302841962
 20
186.22084798319429
 30
0.0
  0
VERTEX
  5
26F98
  8
0
 10
466.02361323859731
 20
186.5326384987529
 30
0.0
  0
VERTEX
  5
26F99
  8
0
 10
465.93264655774612
 20
186.6866074413683
 30
0.0
  0
VERTEX
  5
26F9A
  8
0
 10
465.84095350340613
 20
186.83927832177139
 30
0.0
  0
VERTEX
  5
26F9B
  8
0
 10
465.65541301912992
 20
187.14068486404361
 30
0.0
  0
VERTEX
  5
26F9C
  8
0
 10
465.46704175793309
 20
187.43677694685991
 30
0.0
  0
VERTEX
  5
26F9D
  8
0
 10
465.27589045440158
 20
187.72747482286829
 30
0.0
  0
VERTEX
  5
26F9E
  8
0
 10
465.0820105918782
 20
188.0127001975543
 30
0.0
  0
VERTEX
  5
26F9F
  8
0
 10
464.88545438859671
 20
188.2923762503296
 30
0.0
  0
VERTEX
  5
26FA0
  8
0
 10
464.7861891748592
 20
188.43010968269209
 30
0.0
  0
VERTEX
  5
26FA1
  8
0
 10
464.68627478361742
 20
188.5664276552188
 30
0.0
  0
VERTEX
  5
26FA2
  8
0
 10
464.48452542256928
 20
188.83478060115249
 30
0.0
  0
VERTEX
  5
26FA3
  8
0
 10
464.28026064320119
 20
189.0973628118418
 30
0.0
  0
VERTEX
  5
26FA4
  8
0
 10
464.07353546074711
 20
189.35410356524699
 30
0.0
  0
VERTEX
  5
26FA5
  8
0
 10
463.86440555310838
 20
189.60493371262601
 30
0.0
  0
VERTEX
  5
26FA6
  8
0
 10
463.65292724585828
 20
189.8497856971571
 30
0.0
  0
VERTEX
  5
26FA7
  8
0
 10
463.54632521748852
 20
189.96994920662561
 30
0.0
  0
VERTEX
  5
26FA8
  8
0
 10
463.43915749707128
 20
190.0885935721353
 30
0.0
  0
VERTEX
  5
26FA9
  8
0
 10
463.22315388198291
 20
190.32129301873371
 30
0.0
  0
VERTEX
  5
26FAA
  8
0
 10
463.0049745774819
 20
190.54782136332591
 30
0.0
  0
VERTEX
  5
26FAB
  8
0
 10
462.89508738264141
 20
190.65875224088359
 30
0.0
  0
SEQEND
  5
26FAC
  8
0
  0
LINE
  5
1A444
  8
0
 10
462.89508738264141
 20
190.65875224088359
 30
0.0
 11
458.3618376978061
 21
195.1920019257195
 31
0.0
  0
POLYLINE
  5
1A446
  8
0
 66
     1
 10
0.0
 20
0.0
 30
0.0
  0
VERTEX
  5
26FAD
  8
0
 10
469.08041543628389
 20
185.74368873142251
 30
0.0
  0
VERTEX
  5
26FAE
  8
0
 10
469.19249933560121
 20
185.4937473707659
 30
0.0
  0
VERTEX
  5
26FAF
  8
0
 10
469.42267640957562
 20
185.01130185110739
 30
0.0
  0
VERTEX
  5
26FB0
  8
0
 10
469.65762471621173
 20
184.55374328829021
 30
0.0
  0
VERTEX
  5
26FB1
  8
0
 10
469.77570443570318
 20
184.33487412040901
 30
0.0
  0
VERTEX
  5
26FB2
  8
0
 10
469.89357781736902
 20
184.12289991024861
 30
0.0
  0
VERTEX
  5
26FB3
  8
0
 10
470.12696929348971
 20
183.720407517133
 30
0.0
  0
VERTEX
  5
26FB4
  8
0
 10
470.36006558800011
 20
183.33875664060989
 30
0.0
  0
VERTEX
  5
26FB5
  8
0
 10
470.59470643702019
 20
182.97288859687521
 30
0.0
  0
VERTEX
  5
26FB6
  8
0
 10
470.82776499926092
 20
182.62623435240221
 30
0.0
  0
VERTEX
  5
26FB7
  8
0
 10
471.05619648825279
 20
182.30190841930289
 30
0.0
  0
VERTEX
  5
26FB8
  8
0
 10
471.1677644808745
 20
182.1490052585122
 30
0.0
  0
VERTEX
  5
26FB9
  8
0
 10
471.27709855966901
 20
182.00271595188951
 30
0.0
  0
VERTEX
  5
26FBA
  8
0
 10
471.4877286459697
 20
181.73119794542981
 30
0.0
  0
VERTEX
  5
26FBB
  8
0
 10
471.68557790358437
 20
181.4895813347002
 30
0.0
  0
VERTEX
  5
26FBC
  8
0
 10
471.86853484338258
 20
181.27962900835701
 30
0.0
  0
VERTEX
  5
26FBD
  8
0
 10
472.03466056843149
 20
181.10294123449151
 30
0.0
  0
VERTEX
  5
26FBE
  8
0
 10
472.18229281931872
 20
180.96081428589241
 30
0.0
  0
VERTEX
  5
26FBF
  8
0
 10
472.24876290438721
 20
180.9029958474411
 30
0.0
  0
VERTEX
  5
26FC0
  8
0
 10
472.3101690111211
 20
180.85410181597581
 30
0.0
  0
VERTEX
  5
26FC1
  8
0
 10
472.41743498015461
 20
180.7832041038055
 30
0.0
  0
VERTEX
  5
26FC2
  8
0
 10
472.5036469051588
 20
180.7480417097286
 30
0.0
  0
VERTEX
  5
26FC3
  8
0
 10
472.53884295376582
 20
180.7436887314224
 30
0.0
  0
SEQEND
  5
26FC4
  8
0
  0
POLYLINE
  5
1A447
  8
0
 66
     1
 10
0.0
 20
0.0
 30
0.0
  0
VERTEX
  5
26FC5
  8
0
 10
470.52503318449732
 20
180.7436887314224
 30
0.0
  0
VERTEX
  5
26FC6
  8
0
 10
470.51869087035431
 20
180.7438137398257
 30
0.0
  0
VERTEX
  5
26FC7
  8
0
 10
470.50549690484428
 20
180.74481532842941
 30
0.0
  0
VERTEX
  5
26FC8
  8
0
 10
470.49162238553561
 20
180.74682217372259
 30
0.0
  0
VERTEX
  5
26FC9
  8
0
 10
470.4844294736331
 20
180.74820365295909
 30
0.0
  0
VERTEX
  5
26FCA
  8
0
 10
470.47706594043308
 20
180.7498376948424
 30
0.0
  0
VERTEX
  5
26FCB
  8
0
 10
470.46182660321722
 20
180.75386487797459
 30
0.0
  0
VERTEX
  5
26FCC
  8
0
 10
470.44590381454299
 20
180.75890627195071
 30
0.0
  0
VERTEX
  5
26FCD
  8
0
 10
470.42929742205752
 20
180.76496398569091
 30
0.0
  0
VERTEX
  5
26FCE
  8
0
 10
470.4120076791512
 20
180.77203968744649
 30
0.0
  0
VERTEX
  5
26FCF
  8
0
 10
470.39403524246973
 20
180.78013460580669
 30
0.0
  0
VERTEX
  5
26FD0
  8
0
 10
470.38479332854217
 20
180.78456453556549
 30
0.0
  0
VERTEX
  5
26FD1
  8
0
 10
470.37538116820627
 20
180.78924953243131
 30
0.0
  0
VERTEX
  5
26FD2
  8
0
 10
470.3560469072051
 20
180.7993848264577
 30
0.0
  0
VERTEX
  5
26FD3
  8
0
 10
470.33603429890172
 20
180.81054042054981
 30
0.0
  0
VERTEX
  5
26FD4
  8
0
 10
470.31534556413408
 20
180.82271582853349
 30
0.0
  0
VERTEX
  5
26FD5
  8
0
 10
470.29398329685722
 20
180.8359101545866
 30
0.0
  0
VERTEX
  5
26FD6
  8
0
 10
470.27195045479391
 20
180.85012210392779
 30
0.0
  0
VERTEX
  5
26FD7
  8
0
 10
470.26068358944133
 20
180.85760917657899
 30
0.0
  0
VERTEX
  5
26FD8
  8
0
 10
470.24925034906261
 20
180.8653499949541
 30
0.0
  0
VERTEX
  5
26FD9
  8
0
 10
470.22588663281851
 20
180.88159177280249
 30
0.0
  0
VERTEX
  5
26FDA
  8
0
 10
470.20186328894772
 20
180.89884502425679
 30
0.0
  0
VERTEX
  5
26FDB
  8
0
 10
470.18960558823221
 20
180.90785010443869
 30
0.0
  0
VERTEX
  5
26FDC
  8
0
 10
470.11265178204411
 20
180.96715409833899
 30
0.0
  0
VERTEX
  5
26FDD
  8
0
 10
469.94169113331571
 20
181.11253980538461
 30
0.0
  0
VERTEX
  5
26FDE
  8
0
 10
469.74923582937231
 20
181.2926593133588
 30
0.0
  0
VERTEX
  5
26FDF
  8
0
 10
469.53715380905271
 20
181.50597082993499
 30
0.0
  0
VERTEX
  5
26FE0
  8
0
 10
469.30760389681188
 20
181.75064570374249
 30
0.0
  0
VERTEX
  5
26FE1
  8
0
 10
469.06291776910967
 20
182.02471678556051
 30
0.0
  0
VERTEX
  5
26FE2
  8
0
 10
468.93575571568789
 20
182.1720335136888
 30
0.0
  0
VERTEX
  5
26FE3
  8
0
 10
468.80587498855442
 20
182.32576915286521
 30
0.0
  0
VERTEX
  5
26FE4
  8
0
 10
468.53952025615109
 20
182.6510987512502
 30
0.0
  0
VERTEX
  5
26FE5
  8
0
 10
468.26708907597009
 20
182.9977651822237
 30
0.0
  0
VERTEX
  5
26FE6
  8
0
 10
467.991998938037
 20
183.3625509879048
 30
0.0
  0
VERTEX
  5
26FE7
  8
0
 10
467.71779224156518
 20
183.74195812431569
 30
0.0
  0
VERTEX
  5
26FE8
  8
0
 10
467.44198869289932
 20
184.1412058600454
 30
0.0
  0
VERTEX
  5
26FE9
  8
0
 10
467.3021284454295
 20
184.3511963359588
 30
0.0
  0
VERTEX
  5
26FEA
  8
0
 10
467.16160213911689
 20
184.5678459570872
 30
0.0
  0
VERTEX
  5
26FEB
  8
0
 10
466.8805975051809
 20
185.0203040209671
 30
0.0
  0
VERTEX
  5
26FEC
  8
0
 10
466.60324190935501
 20
185.49689219877379
 30
0.0
  0
VERTEX
  5
26FED
  8
0
 10
466.46733839393039
 20
185.74368873142251
 30
0.0
  0
SEQEND
  5
26FEE
  8
0
  0
LINE
  5
1A448
  8
0
 10
472.64508738264141
 20
180.7436887314224
 30
0.0
 11
470.52503318449732
 21
180.7436887314224
 31
0.0
  0
POLYLINE
  5
1A449
  8
0
 66
     1
 10
0.0
 20
0.0
 30
0.0
  0
VERTEX
  5
26FEF
  8
0
 10
452.64508738264141
 20
205.54817315836041
 30
0.0
  0
VERTEX
  5
26FF0
  8
0
 10
452.6451753045726
 20
205.46184607910621
 30
0.0
  0
VERTEX
  5
26FF1
  8
0
 10
452.64590940465212
 20
205.29053360376659
 30
0.0
  0
VERTEX
  5
26FF2
  8
0
 10
452.64745666370618
 20
205.12109669757871
 30
0.0
  0
VERTEX
  5
26FF3
  8
0
 10
452.64856122531631
 20
205.03711371823189
 30
0.0
  0
VERTEX
  5
26FF4
  8
0
 10
452.6499003427349
 20
204.95363795671619
 30
0.0
  0
VERTEX
  5
26FF5
  8
0
 10
452.6533241428283
 20
204.78825793567009
 30
0.0
  0
VERTEX
  5
26FF6
  8
0
 10
452.65781183000769
 20
204.625054663491
 30
0.0
  0
VERTEX
  5
26FF7
  8
0
 10
452.66344686407439
 20
204.46412317331399
 30
0.0
  0
VERTEX
  5
26FF8
  8
0
 10
452.67031203673292
 20
204.30555504232689
 30
0.0
  0
VERTEX
  5
26FF9
  8
0
 10
452.67848916251887
 20
204.14943728061371
 30
0.0
  0
VERTEX
  5
26FFA
  8
0
 10
452.68309497561449
 20
204.07232247330381
 30
0.0
  0
VERTEX
  5
26FFB
  8
0
 10
452.68805888280042
 20
203.99585047878281
 30
0.0
  0
VERTEX
  5
26FFC
  8
0
 10
452.69909997670823
 20
203.8448748991004
 30
0.0
  0
VERTEX
  5
26FFD
  8
0
 10
452.71168893064112
 20
203.69658920147501
 30
0.0
  0
VERTEX
  5
26FFE
  8
0
 10
452.72589951446662
 20
203.55106955875451
 30
0.0
  0
VERTEX
  5
26FFF
  8
0
 10
452.74180236013359
 20
203.40838904401059
 30
0.0
  0
VERTEX
  5
27000
  8
0
 10
452.7594645627463
 20
203.2686170308362
 30
0.0
  0
VERTEX
  5
27001
  8
0
 10
452.76897533169739
 20
203.19984223545001
 30
0.0
  0
VERTEX
  5
27002
  8
0
 10
452.77894931266661
 20
203.13181860711751
 30
0.0
  0
VERTEX
  5
27003
  8
0
 10
452.80031556815129
 20
202.99805400335211
 30
0.0
  0
VERTEX
  5
27004
  8
0
 10
452.8236177789849
 20
202.86737803727831
 30
0.0
  0
VERTEX
  5
27005
  8
0
 10
452.83601059630308
 20
202.8032138114086
 30
0.0
  0
SEQEND
  5
27006
  8
0
  0
POLYLINE
  5
1A44B
  8
0
 66
     1
 10
0.0
 20
0.0
 30
0.0
  0
VERTEX
  5
27007
  8
0
 10
537.64508738264135
 20
205.54817315836041
 30
0.0
  0
VERTEX
  5
27008
  8
0
 10
537.64499946071021
 20
205.46184607910621
 30
0.0
  0
VERTEX
  5
27009
  8
0
 10
537.64426536063081
 20
205.29053360376659
 30
0.0
  0
VERTEX
  5
2700A
  8
0
 10
537.64271810157675
 20
205.12109669757771
 30
0.0
  0
VERTEX
  5
2700B
  8
0
 10
537.64161353996656
 20
205.03711371823189
 30
0.0
  0
VERTEX
  5
2700C
  8
0
 10
537.64027442254803
 20
204.95363795671531
 30
0.0
  0
VERTEX
  5
2700D
  8
0
 10
537.63685062245463
 20
204.78825793566921
 30
0.0
  0
VERTEX
  5
2700E
  8
0
 10
537.63236293527518
 20
204.62505466349009
 30
0.0
  0
VERTEX
  5
2700F
  8
0
 10
537.62672790120837
 20
204.46412317331399
 30
0.0
  0
VERTEX
  5
27010
  8
0
 10
537.61986272854995
 20
204.30555504232689
 30
0.0
  0
VERTEX
  5
27011
  8
0
 10
537.61168560276383
 20
204.14943728061371
 30
0.0
  0
VERTEX
  5
27012
  8
0
 10
537.60707978966843
 20
204.07232247330381
 30
0.0
  0
VERTEX
  5
27013
  8
0
 10
537.60211588248239
 20
203.9958504787819
 30
0.0
  0
VERTEX
  5
27014
  8
0
 10
537.59107478857459
 20
203.8448748991004
 30
0.0
  0
VERTEX
  5
27015
  8
0
 10
537.57848583464147
 20
203.6965892014741
 30
0.0
  0
VERTEX
  5
27016
  8
0
 10
537.56427525081619
 20
203.55106955875451
 30
0.0
  0
VERTEX
  5
27017
  8
0
 10
537.54837240514905
 20
203.40838904401059
 30
0.0
  0
VERTEX
  5
27018
  8
0
 10
537.53071020253651
 20
203.2686170308352
 30
0.0
  0
VERTEX
  5
27019
  8
0
 10
537.52119943358537
 20
203.19984223545001
 30
0.0
  0
VERTEX
  5
2701A
  8
0
 10
537.51122545261615
 20
203.13181860711751
 30
0.0
  0
VERTEX
  5
2701B
  8
0
 10
537.48985919713152
 20
202.9980540033512
 30
0.0
  0
VERTEX
  5
2701C
  8
0
 10
537.46655698629797
 20
202.86737803727831
 30
0.0
  0
VERTEX
  5
2701D
  8
0
 10
537.45416416897967
 20
202.80321381140769
 30
0.0
  0
SEQEND
  5
2701E
  8
0
  0
POLYLINE
  5
1A44C
  8
0
 66
     1
 10
0.0
 20
0.0
 30
0.0
  0
VERTEX
  5
2701F
  8
0
 10
535.40511234395944
 20
202.80321381140769
 30
0.0
  0
VERTEX
  5
27020
  8
0
 10
535.4213129985136
 20
202.86965882275041
 30
0.0
  0
VERTEX
  5
27021
  8
0
 10
535.45127414785054
 20
203.00318438778689
 30
0.0
  0
VERTEX
  5
27022
  8
0
 10
535.47812454576717
 20
203.13713337222089
 30
0.0
  0
VERTEX
  5
27023
  8
0
 10
535.49046656330006
 20
203.2042533009344
 30
0.0
  0
VERTEX
  5
27024
  8
0
 10
535.50223628242679
 20
203.27210780005501
 30
0.0
  0
VERTEX
  5
27025
  8
0
 10
535.52413131904132
 20
203.41020985699009
 30
0.0
  0
VERTEX
  5
27026
  8
0
 10
535.54388953810235
 20
203.55144986686449
 30
0.0
  0
VERTEX
  5
27027
  8
0
 10
535.56158286636764
 20
203.6957587243669
 30
0.0
  0
VERTEX
  5
27028
  8
0
 10
535.57728869991661
 20
203.84306139832731
 30
0.0
  0
VERTEX
  5
27029
  8
0
 10
535.59108947684683
 20
203.9932776610994
 30
0.0
  0
VERTEX
  5
2702A
  8
0
 10
535.59730249008874
 20
204.06945207686749
 30
0.0
  0
VERTEX
  5
2702B
  8
0
 10
535.60307218719595
 20
204.14632282292129
 30
0.0
  0
VERTEX
  5
2702C
  8
0
 10
535.61332783560806
 20
204.30210847092081
 30
0.0
  0
VERTEX
  5
2702D
  8
0
 10
535.62195087039947
 20
204.46054321356499
 30
0.0
  0
VERTEX
  5
2702E
  8
0
 10
535.62903859163646
 20
204.62153344949729
 30
0.0
  0
VERTEX
  5
2702F
  8
0
 10
535.63469056801557
 20
204.78498484175361
 30
0.0
  0
VERTEX
  5
27030
  8
0
 10
535.63900787026819
 20
204.9507971511421
 30
0.0
  0
VERTEX
  5
27031
  8
0
 10
535.64069791182339
 20
205.0345557103546
 30
0.0
  0
VERTEX
  5
27032
  8
0
 10
535.64209265865327
 20
205.11886450240311
 30
0.0
  0
VERTEX
  5
27033
  8
0
 10
535.64404775550133
 20
205.28907744047771
 30
0.0
  0
VERTEX
  5
27034
  8
0
 10
535.64497612888124
 20
205.46132351252069
 30
0.0
  0
VERTEX
  5
27035
  8
0
 10
535.64508738264135
 20
205.54817315836041
 30
0.0
  0
SEQEND
  5
27036
  8
0
  0
POLYLINE
  5
1A44E
  8
0
 66
     1
 10
0.0
 20
0.0
 30
0.0
  0
VERTEX
  5
27037
  8
0
 10
531.64508738264135
 20
197.81975030657659
 30
0.0
  0
VERTEX
  5
27038
  8
0
 10
531.79835958100625
 20
197.9105322359309
 30
0.0
  0
VERTEX
  5
27039
  8
0
 10
532.09865093170015
 20
198.10222019022331
 30
0.0
  0
VERTEX
  5
2703A
  8
0
 10
532.39011036713828
 20
198.30708737797249
 30
0.0
  0
VERTEX
  5
2703B
  8
0
 10
532.53234677691069
 20
198.41433722284
 30
0.0
  0
VERTEX
  5
2703C
  8
0
 10
532.67215989062072
 20
198.52472752460471
 30
0.0
  0
VERTEX
  5
2703D
  8
0
 10
532.94424016635639
 20
198.7547090253338
 30
0.0
  0
VERTEX
  5
2703E
  8
0
 10
533.20581162868984
 20
198.99657580109121
 30
0.0
  0
VERTEX
  5
2703F
  8
0
 10
533.45635555211834
 20
199.2498482029732
 30
0.0
  0
VERTEX
  5
27040
  8
0
 10
533.69537507998427
 20
199.5140239634456
 30
0.0
  0
VERTEX
  5
27041
  8
0
 10
533.9223962097974
 20
199.78857919238999
 30
0.0
  0
VERTEX
  5
27042
  8
0
 10
534.03126573112991
 20
199.92957973428199
 30
0.0
  0
VERTEX
  5
27043
  8
0
 10
534.13696873323374
 20
200.07296941604179
 30
0.0
  0
VERTEX
  5
27044
  8
0
 10
534.33866712895008
 20
200.36663065673841
 30
0.0
  0
VERTEX
  5
27045
  8
0
 10
534.52709140644026
 20
200.66898055135519
 30
0.0
  0
VERTEX
  5
27046
  8
0
 10
534.7018678992614
 20
200.9794195061904
 30
0.0
  0
VERTEX
  5
27047
  8
0
 10
534.86265000605533
 20
201.29733188603319
 30
0.0
  0
VERTEX
  5
27048
  8
0
 10
535.00911887789903
 20
201.6220872350323
 30
0.0
  0
VERTEX
  5
27049
  8
0
 10
535.07689395573993
 20
201.7868302601118
 30
0.0
  0
VERTEX
  5
2704A
  8
0
 10
535.14098405061702
 20
201.95304152696099
 30
0.0
  0
VERTEX
  5
2704B
  8
0
 10
535.25798402080466
 20
202.2895384423982
 30
0.0
  0
VERTEX
  5
2704C
  8
0
 10
535.35988676441912
 20
202.6309106702756
 30
0.0
  0
VERTEX
  5
2704D
  8
0
 10
535.40511234395944
 20
202.80321381140769
 30
0.0
  0
SEQEND
  5
2704E
  8
0
  0
POLYLINE
  5
1A450
  8
0
 66
     1
 10
0.0
 20
0.0
 30
0.0
  0
VERTEX
  5
2704F
  8
0
 10
537.45416416897967
 20
202.80321381140769
 30
0.0
  0
VERTEX
  5
27050
  8
0
 10
537.41745042075252
 20
202.62641620478371
 30
0.0
  0
VERTEX
  5
27051
  8
0
 10
537.33447701101863
 20
202.2749536117617
 30
0.0
  0
VERTEX
  5
27052
  8
0
 10
537.23886761584902
 20
201.92671607132161
 30
0.0
  0
VERTEX
  5
27053
  8
0
 10
537.18636274830635
 20
201.7539487946124
 30
0.0
  0
VERTEX
  5
27054
  8
0
 10
537.13074691997338
 20
201.58215772192301
 30
0.0
  0
VERTEX
  5
27055
  8
0
 10
537.01025592417614
 20
201.24172790397461
 30
0.0
  0
VERTEX
  5
27056
  8
0
 10
536.87755176141661
 20
200.90587057384249
 30
0.0
  0
VERTEX
  5
27057
  8
0
 10
536.73280749191156
 20
200.57502372488941
 30
0.0
  0
VERTEX
  5
27058
  8
0
 10
536.57621187744621
 20
200.24961881628039
 30
0.0
  0
VERTEX
  5
27059
  8
0
 10
536.40796913520796
 20
199.9300802103171
 30
0.0
  0
VERTEX
  5
2705A
  8
0
 10
536.31954807000034
 20
199.77264130710591
 30
0.0
  0
VERTEX
  5
2705B
  8
0
 10
536.22829867146788
 20
199.6168246190245
 30
0.0
  0
VERTEX
  5
2705C
  8
0
 10
536.03743479544914
 20
199.3102605607146
 30
0.0
  0
VERTEX
  5
2705D
  8
0
 10
535.83562641376545
 20
199.01078782723289
 30
0.0
  0
VERTEX
  5
2705E
  8
0
 10
535.62313670581921
 20
198.71879696259199
 30
0.0
  0
VERTEX
  5
2705F
  8
0
 10
535.40024278058786
 20
198.434668753659
 30
0.0
  0
VERTEX
  5
27060
  8
0
 10
535.16723531524553
 20
198.1587737335667
 30
0.0
  0
VERTEX
  5
27061
  8
0
 10
535.04703345877033
 20
198.0240265379862
 30
0.0
  0
VERTEX
  5
27062
  8
0
 10
534.92441817608812
 20
197.89147169850551
 30
0.0
  0
VERTEX
  5
27063
  8
0
 10
534.67210802226055
 20
197.63311123850411
 30
0.0
  0
VERTEX
  5
27064
  8
0
 10
534.41063389279952
 20
197.38402928283631
 30
0.0
  0
VERTEX
  5
27065
  8
0
 10
534.27656644175499
 20
197.2630697375844
 30
0.0
  0
SEQEND
  5
27066
  8
0
  0
LINE
  5
1A451
  8
0
 10
530.68088835356082
 20
197.2630697375844
 30
0.0
 11
531.64508738264135
 21
197.81975030657659
 31
0.0
  0
POLYLINE
  5
1A454
  8
0
 66
     1
 10
0.0
 20
0.0
 30
0.0
  0
VERTEX
  5
27067
  8
0
 10
532.64508738264146
 20
195.84852554718691
 30
0.0
  0
VERTEX
  5
27068
  8
0
 10
532.51953201790116
 20
195.74136636510411
 30
0.0
  0
VERTEX
  5
27069
  8
0
 10
532.27567705383888
 20
195.52427956680091
 30
0.0
  0
VERTEX
  5
2706A
  8
0
 10
532.04163181499791
 20
195.3036228925566
 30
0.0
  0
VERTEX
  5
2706B
  8
0
 10
531.9283370674766
 20
195.1920019257195
 30
0.0
  0
SEQEND
  5
2706C
  8
0
  0
POLYLINE
  5
1A455
  8
0
 66
     1
 10
0.0
 20
0.0
 30
0.0
  0
VERTEX
  5
2706D
  8
0
 10
527.92833706747672
 20
195.1920019257195
 30
0.0
  0
VERTEX
  5
2706E
  8
0
 10
527.99171229247861
 20
195.2548483033643
 30
0.0
  0
VERTEX
  5
2706F
  8
0
 10
528.1208291074837
 20
195.3797345073244
 30
0.0
  0
VERTEX
  5
27070
  8
0
 10
528.2530782456513
 20
195.50352331832801
 30
0.0
  0
VERTEX
  5
27071
  8
0
 10
528.32036871930768
 20
195.56499800918749
 30
0.0
  0
VERTEX
  5
27072
  8
0
 10
528.38843173150849
 20
195.62618855056911
 30
0.0
  0
VERTEX
  5
27073
  8
0
 10
528.52686093290072
 20
195.7477042559149
 30
0.0
  0
VERTEX
  5
27074
  8
0
 10
528.66833656704785
 20
195.86804472940361
 30
0.0
  0
VERTEX
  5
27075
  8
0
 10
528.81282870673965
 20
195.9871845146736
 30
0.0
  0
VERTEX
  5
27076
  8
0
 10
528.96030678666614
 20
196.10509840935529
 30
0.0
  0
VERTEX
  5
27077
  8
0
 10
529.11073960988233
 20
196.22176147039681
 30
0.0
  0
VERTEX
  5
27078
  8
0
 10
529.18705413008774
 20
196.2796162158065
 30
0.0
  0
VERTEX
  5
27079
  8
0
 10
529.2640953544086
 20
196.337149019344
 30
0.0
  0
VERTEX
  5
2707A
  8
0
 10
529.42034157996204
 20
196.45123664756011
 30
0.0
  0
VERTEX
  5
2707B
  8
0
 10
529.57944523481808
 20
196.56400022138669
 30
0.0
  0
VERTEX
  5
2707C
  8
0
 10
529.74137266280309
 20
196.67541588725359
 30
0.0
  0
VERTEX
  5
2707D
  8
0
 10
529.90608961041266
 20
196.78546007671949
 30
0.0
  0
VERTEX
  5
2707E
  8
0
 10
530.07356123405884
 20
196.89410951146141
 30
0.0
  0
VERTEX
  5
2707F
  8
0
 10
530.15831900123464
 20
196.94790400187591
 30
0.0
  0
VERTEX
  5
27080
  8
0
 10
530.24375210743983
 20
197.0013412081953
 30
0.0
  0
VERTEX
  5
27081
  8
0
 10
530.41662622903414
 20
197.10713248354199
 30
0.0
  0
VERTEX
  5
27082
  8
0
 10
530.59214702971633
 20
197.2114609588225
 30
0.0
  0
VERTEX
  5
27083
  8
0
 10
530.68088835356082
 20
197.2630697375844
 30
0.0
  0
SEQEND
  5
27084
  8
0
  0
LINE
  5
1A459
  8
0
 10
537.64508738264135
 20
267.74368873142248
 30
0.0
 11
537.64508738264135
 21
205.54817315836041
 31
0.0
  0
LINE
  5
1A45B
  8
0
 10
526.39508738264146
 20
193.6587522408835
 30
0.0
 11
527.92833706747672
 21
195.1920019257195
 31
0.0
  0
LINE
  5
1A45D
  8
0
 10
531.9283370674766
 20
195.1920019257195
 30
0.0
 11
527.39508738264135
 21
190.65875224088359
 31
0.0
  0
POLYLINE
  5
1A45E
  8
0
 66
     1
 10
0.0
 20
0.0
 30
0.0
  0
VERTEX
  5
27085
  8
0
 10
527.39508738264135
 20
190.65875224088359
 30
0.0
  0
VERTEX
  5
27086
  8
0
 10
527.28520018780102
 20
190.54782136332591
 30
0.0
  0
VERTEX
  5
27087
  8
0
 10
527.06702088329985
 20
190.32129301873371
 30
0.0
  0
VERTEX
  5
27088
  8
0
 10
526.85101726821154
 20
190.0885935721353
 30
0.0
  0
VERTEX
  5
27089
  8
0
 10
526.7438495477943
 20
189.96994920662561
 30
0.0
  0
VERTEX
  5
2708A
  8
0
 10
526.63724751942459
 20
189.8497856971571
 30
0.0
  0
VERTEX
  5
2708B
  8
0
 10
526.42576921217426
 20
189.60493371262601
 30
0.0
  0
VERTEX
  5
2708C
  8
0
 10
526.21663930453565
 20
189.35410356524699
 30
0.0
  0
VERTEX
  5
2708D
  8
0
 10
526.00991412208145
 20
189.0973628118418
 30
0.0
  0
VERTEX
  5
2708E
  8
0
 10
525.80564934271354
 20
188.83478060115249
 30
0.0
  0
VERTEX
  5
2708F
  8
0
 10
525.60389998166545
 20
188.5664276552188
 30
0.0
  0
VERTEX
  5
27090
  8
0
 10
525.50398559042355
 20
188.43010968269209
 30
0.0
  0
VERTEX
  5
27091
  8
0
 10
525.4047203766861
 20
188.2923762503296
 30
0.0
  0
VERTEX
  5
27092
  8
0
 10
525.2081641734045
 20
188.0127001975543
 30
0.0
  0
VERTEX
  5
27093
  8
0
 10
525.01428431088129
 20
187.72747482286829
 30
0.0
  0
VERTEX
  5
27094
  8
0
 10
524.82313300734972
 20
187.43677694685991
 30
0.0
  0
VERTEX
  5
27095
  8
0
 10
524.63476174615289
 20
187.14068486404361
 30
0.0
  0
VERTEX
  5
27096
  8
0
 10
524.4492212618768
 20
186.83927832177139
 30
0.0
  0
VERTEX
  5
27097
  8
0
 10
524.3575282075368
 20
186.6866074413683
 30
0.0
  0
VERTEX
  5
27098
  8
0
 10
524.26656152668545
 20
186.5326384987529
 30
0.0
  0
VERTEX
  5
27099
  8
0
 10
524.08683173686325
 20
186.22084798319429
 30
0.0
  0
VERTEX
  5
2709A
  8
0
 10
523.91008029956265
 20
185.90399075055211
 30
0.0
  0
VERTEX
  5
2709B
  8
0
 10
523.82283637135242
 20
185.74368873142251
 30
0.0
  0
SEQEND
  5
2709C
  8
0
  0
POLYLINE
  5
1A45F
  8
0
 66
     1
 10
0.0
 20
0.0
 30
0.0
  0
VERTEX
  5
2709D
  8
0
 10
521.20975932899887
 20
185.74368873142251
 30
0.0
  0
VERTEX
  5
2709E
  8
0
 10
521.32750855880158
 20
186.00911638626889
 30
0.0
  0
VERTEX
  5
2709F
  8
0
 10
521.56804783598022
 20
186.53313436018831
 30
0.0
  0
VERTEX
  5
270A0
  8
0
 10
521.81521008199059
 20
187.0478233352305
 30
0.0
  0
VERTEX
  5
270A1
  8
0
 10
521.94123726560986
 20
187.3015908080888
 30
0.0
  0
VERTEX
  5
270A2
  8
0
 10
522.06887472947051
 20
187.55293224273919
 30
0.0
  0
VERTEX
  5
270A3
  8
0
 10
522.32891803914265
 20
188.04821468728181
 30
0.0
  0
VERTEX
  5
270A4
  8
0
 10
522.59521316017731
 20
188.5334290668379
 30
0.0
  0
VERTEX
  5
270A5
  8
0
 10
522.86763019207001
 20
189.00833869065349
 30
0.0
  0
VERTEX
  5
270A6
  8
0
 10
523.14603624800793
 20
189.472711894703
 30
0.0
  0
VERTEX
  5
270A7
  8
0
 10
523.43029551969335
 20
189.92632215469621
 30
0.0
  0
VERTEX
  5
270A8
  8
0
 10
523.57457688877912
 20
190.1490218244717
 30
0.0
  0
VERTEX
  5
270A9
  8
0
 10
523.7202693435911
 20
190.3689481965757
 30
0.0
  0
VERTEX
  5
270AA
  8
0
 10
524.01581626857057
 20
190.80037410445951
 30
0.0
  0
VERTEX
  5
270AB
  8
0
 10
524.31679212490576
 20
191.2203894259637
 30
0.0
  0
VERTEX
  5
270AC
  8
0
 10
524.62305009460204
 20
191.62878927486321
 30
0.0
  0
VERTEX
  5
270AD
  8
0
 10
524.93444078301559
 20
192.02537443103481
 30
0.0
  0
VERTEX
  5
270AE
  8
0
 10
525.25081229172895
 20
192.409951437643
 30
0.0
  0
VERTEX
  5
270AF
  8
0
 10
525.41081771902714
 20
192.5976780287792
 30
0.0
  0
VERTEX
  5
270B0
  8
0
 10
525.57201029264729
 20
192.78233269550401
 30
0.0
  0
VERTEX
  5
270B1
  8
0
 10
525.8978781032821
 20
193.1423365546006
 30
0.0
  0
VERTEX
  5
270B2
  8
0
 10
526.22825676318018
 20
193.4897874026928
 30
0.0
  0
VERTEX
  5
270B3
  8
0
 10
526.39508738264135
 20
193.6587522408835
 30
0.0
  0
SEQEND
  5
270B4
  8
0
  0
POLYLINE
  5
1A461
  8
0
 66
     1
 10
0.0
 20
0.0
 30
0.0
  0
VERTEX
  5
270B5
  8
0
 10
523.82283637135242
 20
185.74368873142251
 30
0.0
  0
VERTEX
  5
270B6
  8
0
 10
523.68693285592781
 20
185.49689219877379
 30
0.0
  0
VERTEX
  5
270B7
  8
0
 10
523.40957726010186
 20
185.0203040209671
 30
0.0
  0
VERTEX
  5
270B8
  8
0
 10
523.12857262616603
 20
184.5678459570872
 30
0.0
  0
VERTEX
  5
270B9
  8
0
 10
522.98804631985331
 20
184.3511963359588
 30
0.0
  0
VERTEX
  5
270BA
  8
0
 10
522.84818607238356
 20
184.1412058600454
 30
0.0
  0
VERTEX
  5
270BB
  8
0
 10
522.57238252371758
 20
183.74195812431569
 30
0.0
  0
VERTEX
  5
270BC
  8
0
 10
522.29817582724581
 20
183.3625509879048
 30
0.0
  0
VERTEX
  5
270BD
  8
0
 10
522.02308568931267
 20
182.9977651822237
 30
0.0
  0
VERTEX
  5
270BE
  8
0
 10
521.75065450913178
 20
182.6510987512502
 30
0.0
  0
VERTEX
  5
270BF
  8
0
 10
521.48429977672845
 20
182.32576915286521
 30
0.0
  0
VERTEX
  5
270C0
  8
0
 10
521.35441904959498
 20
182.1720335136888
 30
0.0
  0
VERTEX
  5
270C1
  8
0
 10
521.2272569961732
 20
182.02471678556051
 30
0.0
  0
VERTEX
  5
270C2
  8
0
 10
520.98257086847093
 20
181.75064570374249
 30
0.0
  0
VERTEX
  5
270C3
  8
0
 10
520.7530209562301
 20
181.50597082993499
 30
0.0
  0
VERTEX
  5
270C4
  8
0
 10
520.54093893591062
 20
181.2926593133588
 30
0.0
  0
VERTEX
  5
270C5
  8
0
 10
520.34848363196716
 20
181.11253980538461
 30
0.0
  0
VERTEX
  5
270C6
  8
0
 10
520.17752298323865
 20
180.96715409833899
 30
0.0
  0
VERTEX
  5
270C7
  8
0
 10
520.1005691770506
 20
180.90785010443869
 30
0.0
  0
VERTEX
  5
270C8
  8
0
 10
520.08831147633498
 20
180.89884502425679
 30
0.0
  0
VERTEX
  5
270C9
  8
0
 10
520.06428813246418
 20
180.88159177280249
 30
0.0
  0
VERTEX
  5
270CA
  8
0
 10
520.04092441622015
 20
180.8653499949541
 30
0.0
  0
VERTEX
  5
270CB
  8
0
 10
520.02949117584137
 20
180.85760917657899
 30
0.0
  0
VERTEX
  5
270CC
  8
0
 10
520.0182243104889
 20
180.85012210392779
 30
0.0
  0
VERTEX
  5
270CD
  8
0
 10
519.99619146842565
 20
180.8359101545866
 30
0.0
  0
VERTEX
  5
270CE
  8
0
 10
519.97482920114862
 20
180.82271582853349
 30
0.0
  0
VERTEX
  5
270CF
  8
0
 10
519.95414046638109
 20
180.81054042054981
 30
0.0
  0
VERTEX
  5
270D0
  8
0
 10
519.93412785807766
 20
180.7993848264577
 30
0.0
  0
VERTEX
  5
270D1
  8
0
 10
519.91479359707648
 20
180.78924953243131
 30
0.0
  0
VERTEX
  5
270D2
  8
0
 10
519.90538143674064
 20
180.78456453556549
 30
0.0
  0
VERTEX
  5
270D3
  8
0
 10
519.89613952281309
 20
180.78013460580669
 30
0.0
  0
VERTEX
  5
270D4
  8
0
 10
519.87816708613173
 20
180.77203968744649
 30
0.0
  0
VERTEX
  5
270D5
  8
0
 10
519.86087734322541
 20
180.76496398569091
 30
0.0
  0
VERTEX
  5
270D6
  8
0
 10
519.84427095073966
 20
180.75890627195071
 30
0.0
  0
VERTEX
  5
270D7
  8
0
 10
519.82834816206571
 20
180.75386487797459
 30
0.0
  0
VERTEX
  5
270D8
  8
0
 10
519.81310882484956
 20
180.7498376948424
 30
0.0
  0
VERTEX
  5
270D9
  8
0
 10
519.80574529164971
 20
180.74820365295909
 30
0.0
  0
VERTEX
  5
270DA
  8
0
 10
519.79855237974721
 20
180.74682217372259
 30
0.0
  0
VERTEX
  5
270DB
  8
0
 10
519.78467786043836
 20
180.74481532842941
 30
0.0
  0
VERTEX
  5
270DC
  8
0
 10
519.77148389492845
 20
180.7438137398257
 30
0.0
  0
VERTEX
  5
270DD
  8
0
 10
519.76514158078555
 20
180.7436887314224
 30
0.0
  0
SEQEND
  5
270DE
  8
0
  0
POLYLINE
  5
1A462
  8
0
 66
     1
 10
0.0
 20
0.0
 30
0.0
  0
VERTEX
  5
270DF
  8
0
 10
517.75133181151693
 20
180.7436887314224
 30
0.0
  0
VERTEX
  5
270E0
  8
0
 10
517.78652786012401
 20
180.7480417097286
 30
0.0
  0
VERTEX
  5
270E1
  8
0
 10
517.87273978512815
 20
180.7832041038055
 30
0.0
  0
VERTEX
  5
270E2
  8
0
 10
517.98000575416165
 20
180.85410181597581
 30
0.0
  0
VERTEX
  5
270E3
  8
0
 10
518.04141186089566
 20
180.9029958474411
 30
0.0
  0
VERTEX
  5
270E4
  8
0
 10
518.10788194596398
 20
180.96081428589241
 30
0.0
  0
VERTEX
  5
270E5
  8
0
 10
518.25551419685144
 20
181.10294123449151
 30
0.0
  0
VERTEX
  5
270E6
  8
0
 10
518.42163992190024
 20
181.27962900835701
 30
0.0
  0
VERTEX
  5
270E7
  8
0
 10
518.60459686169827
 20
181.4895813347002
 30
0.0
  0
VERTEX
  5
270E8
  8
0
 10
518.80244611931323
 20
181.73119794542981
 30
0.0
  0
VERTEX
  5
270E9
  8
0
 10
519.01307620561374
 20
182.00271595188951
 30
0.0
  0
VERTEX
  5
270EA
  8
0
 10
519.12241028440815
 20
182.1490052585122
 30
0.0
  0
VERTEX
  5
270EB
  8
0
 10
519.23397827703002
 20
182.30190841930289
 30
0.0
  0
VERTEX
  5
270EC
  8
0
 10
519.46240976602178
 20
182.62623435240221
 30
0.0
  0
VERTEX
  5
270ED
  8
0
 10
519.69546832826245
 20
182.97288859687521
 30
0.0
  0
VERTEX
  5
270EE
  8
0
 10
519.93010917728259
 20
183.33875664060989
 30
0.0
  0
VERTEX
  5
270EF
  8
0
 10
520.16320547179305
 20
183.720407517133
 30
0.0
  0
VERTEX
  5
270F0
  8
0
 10
520.39659694791385
 20
184.12289991024861
 30
0.0
  0
VERTEX
  5
270F1
  8
0
 10
520.51447032957947
 20
184.33487412040901
 30
0.0
  0
VERTEX
  5
270F2
  8
0
 10
520.63255004907114
 20
184.55374328829021
 30
0.0
  0
VERTEX
  5
270F3
  8
0
 10
520.86749835570731
 20
185.01130185110739
 30
0.0
  0
VERTEX
  5
270F4
  8
0
 10
521.09767542968154
 20
185.4937473707659
 30
0.0
  0
VERTEX
  5
270F5
  8
0
 10
521.20975932899887
 20
185.74368873142251
 30
0.0
  0
SEQEND
  5
270F6
  8
0
  0
LINE
  5
1A463
  8
0
 10
517.64508738264135
 20
180.7436887314224
 30
0.0
 11
519.76514158078555
 21
180.7436887314224
 31
0.0
  0
LINE
  5
1A465
  8
0
 10
532.64508738264146
 20
195.84852554718691
 30
0.0
 11
534.27656644175499
 21
197.2630697375844
 31
0.0
  0
POLYLINE
  5
1A466
  8
0
 66
     1
 10
0.0
 20
0.0
 30
0.0
  0
VERTEX
  5
270F7
  8
0
 10
534.27656644175499
 20
197.2630697375844
 30
0.0
  0
VERTEX
  5
270F8
  8
0
 10
534.41063389279952
 20
197.38402928283631
 30
0.0
  0
VERTEX
  5
270F9
  8
0
 10
534.67210802226055
 20
197.63311123850411
 30
0.0
  0
VERTEX
  5
270FA
  8
0
 10
534.92441817608812
 20
197.89147169850551
 30
0.0
  0
VERTEX
  5
270FB
  8
0
 10
535.04703345877033
 20
198.0240265379862
 30
0.0
  0
VERTEX
  5
270FC
  8
0
 10
535.16723531524553
 20
198.1587737335667
 30
0.0
  0
VERTEX
  5
270FD
  8
0
 10
535.40024278058786
 20
198.434668753659
 30
0.0
  0
VERTEX
  5
270FE
  8
0
 10
535.62313670581921
 20
198.71879696259199
 30
0.0
  0
VERTEX
  5
270FF
  8
0
 10
535.83562641376545
 20
199.01078782723289
 30
0.0
  0
VERTEX
  5
27100
  8
0
 10
536.03743479544914
 20
199.3102605607146
 30
0.0
  0
VERTEX
  5
27101
  8
0
 10
536.22829867146788
 20
199.6168246190245
 30
0.0
  0
VERTEX
  5
27102
  8
0
 10
536.31954807000034
 20
199.77264130710591
 30
0.0
  0
VERTEX
  5
27103
  8
0
 10
536.40796913520796
 20
199.93008021031801
 30
0.0
  0
VERTEX
  5
27104
  8
0
 10
536.57621187744621
 20
200.24961881628039
 30
0.0
  0
VERTEX
  5
27105
  8
0
 10
536.73280749191156
 20
200.57502372488941
 30
0.0
  0
VERTEX
  5
27106
  8
0
 10
536.87755176141661
 20
200.90587057384249
 30
0.0
  0
VERTEX
  5
27107
  8
0
 10
537.01025592417614
 20
201.24172790397461
 30
0.0
  0
VERTEX
  5
27108
  8
0
 10
537.13074691997338
 20
201.58215772192301
 30
0.0
  0
VERTEX
  5
27109
  8
0
 10
537.18636274830635
 20
201.7539487946124
 30
0.0
  0
VERTEX
  5
2710A
  8
0
 10
537.23886761584902
 20
201.92671607132161
 30
0.0
  0
VERTEX
  5
2710B
  8
0
 10
537.33447701101863
 20
202.2749536117617
 30
0.0
  0
VERTEX
  5
2710C
  8
0
 10
537.41745042075252
 20
202.62641620478371
 30
0.0
  0
VERTEX
  5
2710D
  8
0
 10
537.45416416897967
 20
202.8032138114086
 30
0.0
  0
SEQEND
  5
2710E
  8
0
  0
LINE
  5
1A46D
  8
0
 10
488.13898690255257
 20
258.74368873142248
 30
0.0
 11
502.15118786273018
 21
258.74368873142248
 31
0.0
  0
POLYLINE
  5
1A46E
  8
0
 66
     1
 10
0.0
 20
0.0
 30
0.0
  0
VERTEX
  5
2710F
  8
0
 10
484.96690964792441
 20
260.76452481533028
 30
0.0
  0
VERTEX
  5
27110
  8
0
 10
484.97472215119598
 20
260.74788507341049
 30
0.0
  0
VERTEX
  5
27111
  8
0
 10
484.99060879852868
 20
260.71472983266091
 30
0.0
  0
VERTEX
  5
27112
  8
0
 10
485.00684283547321
 20
260.68174329605699
 30
0.0
  0
VERTEX
  5
27113
  8
0
 10
485.01508956677588
 20
260.66531442995711
 30
0.0
  0
VERTEX
  5
27114
  8
0
 10
485.0234224707786
 20
260.64892910330769
 30
0.0
  0
VERTEX
  5
27115
  8
0
 10
485.04034587506061
 20
260.61629087510659
 30
0.0
  0
VERTEX
  5
27116
  8
0
 10
485.05761118100389
 20
260.58383221272931
 30
0.0
  0
VERTEX
  5
27117
  8
0
 10
485.075216483568
 20
260.55155669764008
 30
0.0
  0
VERTEX
  5
27118
  8
0
 10
485.09315984019707
 20
260.51946789109388
 30
0.0
  0
VERTEX
  5
27119
  8
0
 10
485.11143927103552
 20
260.48756933374619
 30
0.0
  0
VERTEX
  5
2711A
  8
0
 10
485.1207043854323
 20
260.47169249924718
 30
0.0
  0
VERTEX
  5
2711B
  8
0
 10
485.13005275914458
 20
260.45586454525892
 30
0.0
  0
VERTEX
  5
2711C
  8
0
 10
485.14899825072649
 20
260.42435702391322
 30
0.0
  0
VERTEX
  5
2711D
  8
0
 10
485.16827365535028
 20
260.39305024622439
 30
0.0
  0
VERTEX
  5
2711E
  8
0
 10
485.23830460487369
 20
260.28510704869132
 30
0.0
  0
VERTEX
  5
2711F
  8
0
 10
485.3014551174569
 20
260.19468571322801
 30
0.0
  0
VERTEX
  5
27120
  8
0
 10
485.36742324238588
 20
260.1062989968068
 30
0.0
  0
VERTEX
  5
27121
  8
0
 10
485.50754757637611
 20
259.93597837857209
 30
0.0
  0
VERTEX
  5
27122
  8
0
 10
485.65812118235709
 20
259.77482152592978
 30
0.0
  0
VERTEX
  5
27123
  8
0
 10
485.81854614247129
 20
259.62346838211027
 30
0.0
  0
VERTEX
  5
27124
  8
0
 10
485.98818541978397
 20
259.48251996046378
 30
0.0
  0
VERTEX
  5
27125
  8
0
 10
486.16636538791471
 20
259.35253595787623
 30
0.0
  0
VERTEX
  5
27126
  8
0
 10
486.25843827333881
 20
259.29181867107758
 30
0.0
  0
VERTEX
  5
27127
  8
0
 10
486.35237850596309
 20
259.23403253224751
 30
0.0
  0
VERTEX
  5
27128
  8
0
 10
486.54548612810697
 20
259.12748025286419
 30
0.0
  0
VERTEX
  5
27129
  8
0
 10
486.74492143671642
 20
259.03330223180001
 30
0.0
  0
VERTEX
  5
2712A
  8
0
 10
486.94989248733611
 20
258.95187244376302
 30
0.0
  0
VERTEX
  5
2712B
  8
0
 10
487.15958535344419
 20
258.88351424107168
 30
0.0
  0
VERTEX
  5
2712C
  8
0
 10
487.37316735850101
 20
258.8284990696402
 30
0.0
  0
VERTEX
  5
2712D
  8
0
 10
487.48115226215219
 20
258.8060654847759
 30
0.0
  0
VERTEX
  5
2712E
  8
0
 10
487.58979038245258
 20
258.78704539108372
 30
0.0
  0
VERTEX
  5
2712F
  8
0
 10
487.80859422955967
 20
258.7593178152265
 30
0.0
  0
VERTEX
  5
27130
  8
0
 10
488.02871004417818
 20
258.74542644644413
 30
0.0
  0
VERTEX
  5
27131
  8
0
 10
488.13898690255257
 20
258.74368873142248
 30
0.0
  0
SEQEND
  5
27132
  8
0
  0
LINE
  5
1A46F
  8
0
 10
483.04894367198511
 20
264.87761612403392
 30
0.0
 11
484.9669096479243
 21
260.76452481533028
 31
0.0
  0
POLYLINE
  5
1A470
  8
0
 66
     1
 10
0.0
 20
0.0
 30
0.0
  0
VERTEX
  5
27133
  8
0
 10
481.68948199143023
 20
265.74368873142248
 30
0.0
  0
VERTEX
  5
27134
  8
0
 10
481.7027584927614
 20
265.7436299751098
 30
0.0
  0
VERTEX
  5
27135
  8
0
 10
481.73463534546897
 20
265.74300896893692
 30
0.0
  0
VERTEX
  5
27136
  8
0
 10
481.77360405550058
 20
265.7413280332367
 30
0.0
  0
VERTEX
  5
27137
  8
0
 10
481.79572933740832
 20
265.73992116706631
 30
0.0
  0
VERTEX
  5
27138
  8
0
 10
481.819596729257
 20
265.73803479408713
 30
0.0
  0
VERTEX
  5
27139
  8
0
 10
481.872476738768
 20
265.73248452750983
 30
0.0
  0
VERTEX
  5
2713A
  8
0
 10
481.93203990866652
 20
265.72394737665581
 30
0.0
  0
VERTEX
  5
2713B
  8
0
 10
481.99800998590217
 20
265.71161600367668
 30
0.0
  0
VERTEX
  5
2713C
  8
0
 10
482.07004789989929
 20
265.69460898743631
 30
0.0
  0
VERTEX
  5
2713D
  8
0
 10
482.14776194867238
 20
265.67196723395318
 30
0.0
  0
VERTEX
  5
2713E
  8
0
 10
482.18860801595918
 20
265.65821098704049
 30
0.0
  0
VERTEX
  5
2713F
  8
0
 10
482.2306977119473
 20
265.6426474670061
 30
0.0
  0
VERTEX
  5
27140
  8
0
 10
482.31833360288948
 20
265.6055057715439
 30
0.0
  0
VERTEX
  5
27141
  8
0
 10
482.41006312425912
 20
265.5592733280991
 30
0.0
  0
VERTEX
  5
27142
  8
0
 10
482.5052303027523
 20
265.5024796960297
 30
0.0
  0
VERTEX
  5
27143
  8
0
 10
482.56204035472263
 20
265.46378786782498
 30
0.0
  0
VERTEX
  5
27144
  8
0
 10
482.57841714023488
 20
265.45190820702283
 30
0.0
  0
VERTEX
  5
27145
  8
0
 10
482.59485105049168
 20
265.43964310634419
 30
0.0
  0
VERTEX
  5
27146
  8
0
 10
482.60308810858459
 20
265.43336257861671
 30
0.0
  0
VERTEX
  5
27147
  8
0
 10
482.61133785009258
 20
265.42698149986609
 30
0.0
  0
VERTEX
  5
27148
  8
0
 10
482.62787317463102
 20
265.4139117816531
 30
0.0
  0
VERTEX
  5
27149
  8
0
 10
482.64445250373421
 20
265.40042176917632
 30
0.0
  0
VERTEX
  5
2714A
  8
0
 10
482.66107112883032
 20
265.38649866666401
 30
0.0
  0
VERTEX
  5
2714B
  8
0
 10
482.6777241151604
 20
265.37212902886222
 30
0.0
  0
VERTEX
  5
2714C
  8
0
 10
482.6944062575572
 20
265.35729872569749
 30
0.0
  0
VERTEX
  5
2714D
  8
0
 10
482.70275654933931
 20
265.34970621333468
 30
0.0
  0
VERTEX
  5
2714E
  8
0
 10
482.71111202952397
 20
265.34199290844481
 30
0.0
  0
VERTEX
  5
2714F
  8
0
 10
482.72783552517052
 20
265.32619597803568
 30
0.0
  0
VERTEX
  5
27150
  8
0
 10
482.74461704368701
 20
265.3098453904085
 30
0.0
  0
VERTEX
  5
27151
  8
0
 10
482.75309021634638
 20
265.3013926332269
 30
0.0
  0
VERTEX
  5
27152
  8
0
 10
482.76161754181032
 20
265.2927480060161
 30
0.0
  0
VERTEX
  5
27153
  8
0
 10
482.77881215806849
 20
265.27488211195401
 30
0.0
  0
VERTEX
  5
27154
  8
0
 10
482.79615522669349
 20
265.25624705090468
 30
0.0
  0
VERTEX
  5
27155
  8
0
 10
482.80486789135091
 20
265.24664151907473
 30
0.0
  0
VERTEX
  5
27156
  8
0
 10
482.81360011808039
 20
265.23684452853468
 30
0.0
  0
VERTEX
  5
27157
  8
0
 10
482.83109943592859
 20
265.21667876755691
 30
0.0
  0
VERTEX
  5
27158
  8
0
 10
482.8486052447771
 20
265.19575663002621
 30
0.0
  0
VERTEX
  5
27159
  8
0
 10
482.86606933099318
 20
265.1740876955127
 30
0.0
  0
VERTEX
  5
2715A
  8
0
 10
482.8834434994933
 20
265.15168428056592
 30
0.0
  0
VERTEX
  5
2715B
  8
0
 10
482.90067990746309
 20
265.12856138225828
 30
0.0
  0
VERTEX
  5
2715C
  8
0
 10
482.90923168717097
 20
265.11673551123482
 30
0.0
  0
VERTEX
  5
2715D
  8
0
 10
482.91773143499302
 20
265.10473652590832
 30
0.0
  0
VERTEX
  5
2715E
  8
0
 10
482.934552470028
 20
265.08022892969439
 30
0.0
  0
VERTEX
  5
2715F
  8
0
 10
482.95109949042973
 20
265.05505873716447
 30
0.0
  0
VERTEX
  5
27160
  8
0
 10
482.96732722542532
 20
265.02925321506251
 30
0.0
  0
VERTEX
  5
27161
  8
0
 10
482.98319079024702
 20
265.00284454142729
 30
0.0
  0
VERTEX
  5
27162
  8
0
 10
482.99864646249978
 20
264.97586930183479
 30
0.0
  0
VERTEX
  5
27163
  8
0
 10
483.00620812197309
 20
264.96218180525563
 30
0.0
  0
VERTEX
  5
27164
  8
0
 10
483.01365220489811
 20
264.94836826551182
 30
0.0
  0
VERTEX
  5
27165
  8
0
 10
483.02816819520018
 20
264.92038604029591
 30
0.0
  0
VERTEX
  5
27166
  8
0
 10
483.04215735744492
 20
264.89197057921501
 30
0.0
  0
VERTEX
  5
27167
  8
0
 10
483.04894367198511
 20
264.87761612403392
 30
0.0
  0
SEQEND
  5
27168
  8
0
  0
POLYLINE
  5
1A471
  8
0
 66
     1
 10
0.0
 20
0.0
 30
0.0
  0
VERTEX
  5
27169
  8
0
 10
502.15118786273018
 20
258.74368873142248
 30
0.0
  0
VERTEX
  5
2716A
  8
0
 10
502.26146472110469
 20
258.74542644644413
 30
0.0
  0
VERTEX
  5
2716B
  8
0
 10
502.48158053572303
 20
258.7593178152265
 30
0.0
  0
VERTEX
  5
2716C
  8
0
 10
502.70038438283018
 20
258.78704539108372
 30
0.0
  0
VERTEX
  5
2716D
  8
0
 10
502.80902250313062
 20
258.8060654847759
 30
0.0
  0
VERTEX
  5
2716E
  8
0
 10
502.91700740678192
 20
258.8284990696402
 30
0.0
  0
VERTEX
  5
2716F
  8
0
 10
503.13058941183868
 20
258.88351424107168
 30
0.0
  0
VERTEX
  5
27170
  8
0
 10
503.34028227794681
 20
258.95187244376302
 30
0.0
  0
VERTEX
  5
27171
  8
0
 10
503.54525332856639
 20
259.03330223180001
 30
0.0
  0
VERTEX
  5
27172
  8
0
 10
503.74468863717601
 20
259.12748025286419
 30
0.0
  0
VERTEX
  5
27173
  8
0
 10
503.93779625931978
 20
259.23403253224751
 30
0.0
  0
VERTEX
  5
27174
  8
0
 10
504.03173649194412
 20
259.29181867107758
 30
0.0
  0
VERTEX
  5
27175
  8
0
 10
504.12380937736822
 20
259.35253595787623
 30
0.0
  0
VERTEX
  5
27176
  8
0
 10
504.3019893454989
 20
259.48251996046378
 30
0.0
  0
VERTEX
  5
27177
  8
0
 10
504.47162862281158
 20
259.62346838211027
 30
0.0
  0
VERTEX
  5
27178
  8
0
 10
504.63205358292572
 20
259.77482152592978
 30
0.0
  0
VERTEX
  5
27179
  8
0
 10
504.78262718890659
 20
259.93597837857209
 30
0.0
  0
VERTEX
  5
2717A
  8
0
 10
504.92275152289687
 20
260.1062989968068
 30
0.0
  0
VERTEX
  5
2717B
  8
0
 10
504.98871964782592
 20
260.19468571322801
 30
0.0
  0
VERTEX
  5
2717C
  8
0
 10
505.05187016040912
 20
260.28510704869132
 30
0.0
  0
VERTEX
  5
2717D
  8
0
 10
505.12190110993248
 20
260.39305024622439
 30
0.0
  0
VERTEX
  5
2717E
  8
0
 10
505.14117651455632
 20
260.42435702391322
 30
0.0
  0
VERTEX
  5
2717F
  8
0
 10
505.16012200613829
 20
260.45586454525892
 30
0.0
  0
VERTEX
  5
27180
  8
0
 10
505.16947037985062
 20
260.47169249924718
 30
0.0
  0
VERTEX
  5
27181
  8
0
 10
505.17873549424729
 20
260.48756933374619
 30
0.0
  0
VERTEX
  5
27182
  8
0
 10
505.19701492508563
 20
260.51946789109388
 30
0.0
  0
VERTEX
  5
27183
  8
0
 10
505.21495828171493
 20
260.55155669764008
 30
0.0
  0
VERTEX
  5
27184
  8
0
 10
505.23256358427892
 20
260.58383221272931
 30
0.0
  0
VERTEX
  5
27185
  8
0
 10
505.2498288902222
 20
260.61629087510659
 30
0.0
  0
VERTEX
  5
27186
  8
0
 10
505.26675229450422
 20
260.64892910330769
 30
0.0
  0
VERTEX
  5
27187
  8
0
 10
505.27508519850687
 20
260.66531442995711
 30
0.0
  0
VERTEX
  5
27188
  8
0
 10
505.28333192980961
 20
260.68174329605699
 30
0.0
  0
VERTEX
  5
27189
  8
0
 10
505.29956596675419
 20
260.71472983266091
 30
0.0
  0
VERTEX
  5
2718A
  8
0
 10
505.31545261408678
 20
260.74788507341049
 30
0.0
  0
VERTEX
  5
2718B
  8
0
 10
505.32326511735852
 20
260.76452481533028
 30
0.0
  0
SEQEND
  5
2718C
  8
0
  0
LINE
  5
1A472
  8
0
 10
505.32326511735852
 20
260.76452481533028
 30
0.0
 11
507.2412310932977
 21
264.87761612403392
 31
0.0
  0
POLYLINE
  5
1A473
  8
0
 66
     1
 10
0.0
 20
0.0
 30
0.0
  0
VERTEX
  5
2718D
  8
0
 10
507.2412310932977
 20
264.87761612403392
 30
0.0
  0
VERTEX
  5
2718E
  8
0
 10
507.24801740783789
 20
264.89197057921501
 30
0.0
  0
VERTEX
  5
2718F
  8
0
 10
507.26200657008258
 20
264.92038604029591
 30
0.0
  0
VERTEX
  5
27190
  8
0
 10
507.27652256038482
 20
264.94836826551182
 30
0.0
  0
VERTEX
  5
27191
  8
0
 10
507.28396664330978
 20
264.96218180525563
 30
0.0
  0
VERTEX
  5
27192
  8
0
 10
507.29152830278292
 20
264.97586930183479
 30
0.0
  0
VERTEX
  5
27193
  8
0
 10
507.30698397503579
 20
265.00284454142729
 30
0.0
  0
VERTEX
  5
27194
  8
0
 10
507.32284753985749
 20
265.02925321506251
 30
0.0
  0
VERTEX
  5
27195
  8
0
 10
507.33907527485297
 20
265.05505873716447
 30
0.0
  0
VERTEX
  5
27196
  8
0
 10
507.3556222952547
 20
265.08022892969439
 30
0.0
  0
VERTEX
  5
27197
  8
0
 10
507.3724433302898
 20
265.10473652590832
 30
0.0
  0
VERTEX
  5
27198
  8
0
 10
507.38094307811178
 20
265.11673551123482
 30
0.0
  0
VERTEX
  5
27199
  8
0
 10
507.38949485781973
 20
265.12856138225828
 30
0.0
  0
VERTEX
  5
2719A
  8
0
 10
507.40673126578952
 20
265.15168428056592
 30
0.0
  0
VERTEX
  5
2719B
  8
0
 10
507.42410543428969
 20
265.1740876955127
 30
0.0
  0
VERTEX
  5
2719C
  8
0
 10
507.44156952050582
 20
265.19575663002621
 30
0.0
  0
VERTEX
  5
2719D
  8
0
 10
507.45907532935422
 20
265.21667876755691
 30
0.0
  0
VERTEX
  5
2719E
  8
0
 10
507.47657464720243
 20
265.23684452853468
 30
0.0
  0
VERTEX
  5
2719F
  8
0
 10
507.48530687393202
 20
265.24664151907473
 30
0.0
  0
VERTEX
  5
271A0
  8
0
 10
507.49401953858933
 20
265.25624705090468
 30
0.0
  0
VERTEX
  5
271A1
  8
0
 10
507.51136260721432
 20
265.27488211195401
 30
0.0
  0
VERTEX
  5
271A2
  8
0
 10
507.5285572234726
 20
265.2927480060161
 30
0.0
  0
VERTEX
  5
271A3
  8
0
 10
507.5370845489366
 20
265.3013926332269
 30
0.0
  0
VERTEX
  5
271A4
  8
0
 10
507.5455577215958
 20
265.3098453904085
 30
0.0
  0
VERTEX
  5
271A5
  8
0
 10
507.56233924011252
 20
265.32619597803568
 30
0.0
  0
VERTEX
  5
271A6
  8
0
 10
507.57906273575878
 20
265.34199290844481
 30
0.0
  0
VERTEX
  5
271A7
  8
0
 10
507.5874182159435
 20
265.34970621333468
 30
0.0
  0
VERTEX
  5
271A8
  8
0
 10
507.59576850772561
 20
265.35729872569749
 30
0.0
  0
VERTEX
  5
271A9
  8
0
 10
507.61245065012253
 20
265.37212902886222
 30
0.0
  0
VERTEX
  5
271AA
  8
0
 10
507.6291036364525
 20
265.38649866666401
 30
0.0
  0
VERTEX
  5
271AB
  8
0
 10
507.6457222615486
 20
265.40042176917632
 30
0.0
  0
VERTEX
  5
271AC
  8
0
 10
507.66230159065179
 20
265.4139117816531
 30
0.0
  0
VERTEX
  5
271AD
  8
0
 10
507.67883691519029
 20
265.42698149986609
 30
0.0
  0
VERTEX
  5
271AE
  8
0
 10
507.68708665669828
 20
265.43336257861671
 30
0.0
  0
VERTEX
  5
271AF
  8
0
 10
507.69532371479107
 20
265.43964310634419
 30
0.0
  0
VERTEX
  5
271B0
  8
0
 10
507.71175762504788
 20
265.45190820702283
 30
0.0
  0
VERTEX
  5
271B1
  8
0
 10
507.72813441056019
 20
265.46378786782498
 30
0.0
  0
VERTEX
  5
271B2
  8
0
 10
507.78494446253052
 20
265.5024796960297
 30
0.0
  0
VERTEX
  5
271B3
  8
0
 10
507.88011164102392
 20
265.5592733280991
 30
0.0
  0
VERTEX
  5
271B4
  8
0
 10
507.97184116239328
 20
265.6055057715439
 30
0.0
  0
VERTEX
  5
271B5
  8
0
 10
508.05947705333551
 20
265.6426474670061
 30
0.0
  0
VERTEX
  5
271B6
  8
0
 10
508.10156674932358
 20
265.65821098704049
 30
0.0
  0
VERTEX
  5
271B7
  8
0
 10
508.14241281661037
 20
265.67196723395318
 30
0.0
  0
VERTEX
  5
271B8
  8
0
 10
508.22012686538341
 20
265.69460898743631
 30
0.0
  0
VERTEX
  5
271B9
  8
0
 10
508.2921647793807
 20
265.71161600367668
 30
0.0
  0
VERTEX
  5
271BA
  8
0
 10
508.3581348566164
 20
265.72394737665581
 30
0.0
  0
VERTEX
  5
271BB
  8
0
 10
508.41769802651493
 20
265.73248452750983
 30
0.0
  0
VERTEX
  5
271BC
  8
0
 10
508.47057803602581
 20
265.73803479408713
 30
0.0
  0
VERTEX
  5
271BD
  8
0
 10
508.49444542787472
 20
265.73992116706631
 30
0.0
  0
VERTEX
  5
271BE
  8
0
 10
508.51657070978217
 20
265.7413280332367
 30
0.0
  0
VERTEX
  5
271BF
  8
0
 10
508.55553941981378
 20
265.74300896893692
 30
0.0
  0
VERTEX
  5
271C0
  8
0
 10
508.58741627252152
 20
265.7436299751098
 30
0.0
  0
VERTEX
  5
271C1
  8
0
 10
508.60069277385259
 20
265.74368873142248
 30
0.0
  0
SEQEND
  5
271C2
  8
0
  0
LINE
  5
1A474
  8
0
 10
452.64508738264141
 20
267.74368873142248
 30
0.0
 11
537.64508738264135
 21
267.74368873142248
 31
0.0
  0
LINE
  5
1A486
  8
0
 10
498.14508738264141
 20
239.74368873142251
 30
0.0
 11
492.14508738264141
 21
239.74368873142251
 31
0.0
  0
LINE
  5
1A487
  8
0
 10
492.14508738264141
 20
139.74368873142251
 30
0.0
 11
498.14508738264141
 21
139.74368873142251
 31
0.0
  0
ARC
  5
1A488
  8
0
 10
498.14508738264141
 20
140.04368873142261
 30
0.0
 40
0.3000000000000185
 50
270.0
 51
0.0
  0
ARC
  5
1A489
  8
0
 10
498.14508738264141
 20
239.44368873142321
 30
0.0
 40
0.3000000000000136
 50
0.0
 51
90.0
  0
LINE
  5
1A48A
  8
0
 10
500.8450873826414
 20
239.44368873142321
 30
0.0
 11
498.44508738264142
 21
239.44368873142321
 31
0.0
  0
LINE
  5
1A48B
  8
0
 10
498.44508738264142
 20
140.04368873142261
 30
0.0
 11
500.8450873826414
 21
140.04368873142261
 31
0.0
  0
ARC
  5
1A48C
  8
0
 10
501.14508738264141
 20
140.04368873142261
 30
0.0
 40
0.2999999999999998
 50
180.0
 51
270.0
  0
ARC
  5
1A48D
  8
0
 10
501.14508738264141
 20
239.44368873142321
 30
0.0
 40
0.2999999999999971
 50
90.0
 51
180.0
  0
LINE
  5
1A48E
  8
0
 10
502.54524204895108
 20
239.74368873142251
 30
0.0
 11
501.14508738264141
 21
239.74368873142251
 31
0.0
  0
LINE
  5
1A48F
  8
0
 10
501.14508738264141
 20
139.74368873142251
 30
0.0
 11
502.54524204895108
 21
139.74368873142251
 31
0.0
  0
ARC
  5
1A490
  8
0
 10
502.54524204895108
 20
140.74368873142251
 30
0.0
 40
1.0000000000000211
 50
270.0
 51
341.00000000001182
  0
ARC
  5
1A491
  8
0
 10
502.54524204895108
 20
238.74368873142251
 30
0.0
 40
1.0000000000000191
 50
18.999999999988251
 51
90.0
  0
LINE
  5
1A492
  8
0
 10
504.5383669765427
 20
236.0267871229016
 30
0.0
 11
503.49076062455038
 21
239.06925688588041
 31
0.0
  0
LINE
  5
1A493
  8
0
 10
503.49076062455038
 20
140.41812057696549
 30
0.0
 11
504.5383669765427
 21
143.46059033994419
 31
0.0
  0
ARC
  5
1A494
  8
0
 10
501.70181124974482
 20
144.4372948033151
 30
0.0
 40
3.0000000000000022
 50
341.00000000001182
 51
0.0
  0
ARC
  5
1A495
  8
0
 10
501.70181124974471
 20
235.05008265952981
 30
0.0
 40
3.000000000000087
 50
0.0
 51
18.999999999988251
  0
ARC
  5
1A496
  8
0
 10
505.20181124974482
 20
145.3873724149089
 30
0.0
 40
0.5
 50
180.0
 51
0.0
  0
ARC
  5
1A497
  8
0
 10
505.20181124974482
 20
234.100005047937
 30
0.0
 40
0.5
 50
0.0
 51
180.0
  0
ARC
  5
1A498
  8
0
 10
506.20181124974471
 20
148.29158329258459
 30
0.0
 40
0.5
 50
180.0
 51
0.0
  0
ARC
  5
1A499
  8
0
 10
506.20181124974471
 20
231.19579417026031
 30
0.0
 40
0.5
 50
0.0
 51
180.0
  0
LINE
  5
1A49A
  8
0
 10
509.98164310943929
 20
220.21836536755021
 30
0.0
 11
506.70181124974471
 21
229.74368873142251
 31
0.0
  0
LINE
  5
1A49B
  8
0
 10
506.70181124974471
 20
149.74368873142251
 30
0.0
 11
509.98164310943929
 21
159.26901209529569
 31
0.0
  0
ARC
  5
1A49C
  8
0
 10
507.14508738264158
 20
160.24571655866649
 30
0.0
 40
2.9999999999999121
 50
341.00000000001182
 51
0.0
  0
ARC
  5
1A49D
  8
0
 10
507.14508738264158
 20
219.24166090417839
 30
0.0
 40
2.9999999999999121
 50
0.0
 51
18.999999999988251
  0
ARC
  5
1A49E
  8
0
 10
483.14508738264158
 20
160.24571655866751
 30
0.0
 40
3.000000000000246
 50
180.0
 51
198.99999999998809
  0
ARC
  5
1A49F
  8
0
 10
483.1450873826418
 20
219.24166090417839
 30
0.0
 40
3.0000000000003491
 50
161.0000000000118
 51
179.99999914622629
  0
LINE
  5
1A4A0
  8
0
 10
483.58836351553811
 20
229.74368873142251
 30
0.0
 11
480.30853165584341
 21
220.21836536755021
 31
0.0
  0
LINE
  5
1A4A1
  8
0
 10
480.30853165584341
 20
159.26901209529569
 30
0.0
 11
483.58836351553811
 21
149.74368873142251
 31
0.0
  0
ARC
  5
1A4A2
  8
0
 10
484.08836351553811
 20
148.29158329258459
 30
0.0
 40
0.5
 50
180.0
 51
0.0
  0
ARC
  5
1A4A3
  8
0
 10
484.08836351553811
 20
231.19579417026031
 30
0.0
 40
0.5
 50
0.0
 51
180.0
  0
ARC
  5
1A4A4
  8
0
 10
485.08836351553811
 20
145.3873724149089
 30
0.0
 40
0.5
 50
180.0
 51
0.0
  0
ARC
  5
1A4A5
  8
0
 10
485.08836351553811
 20
234.100005047937
 30
0.0
 40
0.5
 50
0.0
 51
180.0
  0
ARC
  5
1A4A6
  8
0
 10
488.58836351553788
 20
144.4372948033151
 30
0.0
 40
2.9999999999998561
 50
179.99999914622629
 51
198.9999999999882
  0
ARC
  5
1A4A7
  8
0
 10
488.58836351553788
 20
235.05008265952981
 30
0.0
 40
2.9999999999998561
 50
161.00000000001171
 51
180.0
  0
LINE
  5
1A4A8
  8
0
 10
486.79941414073238
 20
239.06925688588041
 30
0.0
 11
485.75180778874022
 21
236.0267871229016
 31
0.0
  0
LINE
  5
1A4A9
  8
0
 10
485.75180778874022
 20
143.46059033994419
 30
0.0
 11
486.79941414073238
 21
140.41812057696549
 31
0.0
  0
ARC
  5
1A4AA
  8
0
 10
487.74493271633179
 20
140.74368873142251
 30
0.0
 40
1.0000000000000191
 50
198.9999999999882
 51
270.0
  0
ARC
  5
1A4AB
  8
0
 10
487.74493271633179
 20
238.74368873142251
 30
0.0
 40
1.0000000000000211
 50
90.0
 51
161.00000000001171
  0
LINE
  5
1A4AC
  8
0
 10
489.14508738264141
 20
239.74368873142251
 30
0.0
 11
487.74493271633168
 21
239.74368873142251
 31
0.0
  0
LINE
  5
1A4AD
  8
0
 10
487.74493271633168
 20
139.74368873142251
 30
0.0
 11
489.14508738264141
 21
139.74368873142251
 31
0.0
  0
ARC
  5
1A4AE
  8
0
 10
489.14508738264141
 20
140.04368873142261
 30
0.0
 40
0.3000000000000043
 50
270.0
 51
0.0
  0
ARC
  5
1A4AF
  8
0
 10
489.14508738264141
 20
239.44368873142321
 30
0.0
 40
0.3000000000000016
 50
0.0
 51
90.0
  0
LINE
  5
1A4B0
  8
0
 10
491.8450873826414
 20
239.44368873142321
 30
0.0
 11
489.4450873826413
 21
239.44368873142321
 31
0.0
  0
LINE
  5
1A4B1
  8
0
 10
489.4450873826413
 20
140.04368873142261
 30
0.0
 11
491.8450873826414
 21
140.04368873142261
 31
0.0
  0
ARC
  5
1A4B2
  8
0
 10
492.14508738264141
 20
140.04368873142261
 30
0.0
 40
0.2999999999999989
 50
180.0
 51
270.0
  0
ARC
  5
1A4B3
  8
0
 10
492.14508738264141
 20
239.44368873142321
 30
0.0
 40
0.2999999999999971
 50
90.0
 51
180.0
  0
LINE
  5
1A4B5
  8
0
 10
498.44508738264142
 20
140.04368873142261
 30
0.0
 11
498.44508738264142
 21
239.44368873142321
 31
0.0
  0
LINE
  5
1A4B6
  8
0
 10
500.8450873826414
 20
140.04368873142261
 30
0.0
 11
500.8450873826414
 21
239.44368873142321
 31
0.0
  0
LINE
  5
1A4BB
  8
0
 10
504.70181124974471
 20
144.4372948033151
 30
0.0
 11
504.70181124974471
 21
235.05008265952981
 31
0.0
  0
LINE
  5
1A4BC
  8
0
 10
505.70181124974482
 20
145.3873724149089
 30
0.0
 11
505.70181124974482
 21
234.100005047937
 31
0.0
  0
LINE
  5
1A4BD
  8
0
 10
506.70181124974471
 20
148.29158329258459
 30
0.0
 11
506.70181124974471
 21
231.19579417026031
 31
0.0
  0
LINE
  5
1A4BF
  8
0
 10
510.14508738264141
 20
160.24571655866649
 30
0.0
 11
510.14508738264141
 21
219.24166090417839
 31
0.0
  0
LINE
  5
1A4C1
  8
0
 10
483.58836351553811
 20
148.29158329258459
 30
0.0
 11
483.58836351553811
 21
231.19579417026031
 31
0.0
  0
LINE
  5
1A4C2
  8
0
 10
484.58836351553811
 20
145.3873724149089
 30
0.0
 11
484.58836351553811
 21
234.100005047937
 31
0.0
  0
LINE
  5
1A4C3
  8
0
 10
485.58836351553811
 20
144.4372948033151
 30
0.0
 11
485.58836351553811
 21
235.05008265952981
 31
0.0
  0
LINE
  5
1A4C8
  8
0
 10
489.4450873826413
 20
140.04368873142261
 30
0.0
 11
489.4450873826413
 21
239.44368873142321
 31
0.0
  0
LINE
  5
1A4CA
  8
0
 10
491.8450873826414
 20
140.04368873142261
 30
0.0
 11
491.8450873826414
 21
239.44368873142321
 31
0.0
  0
LINE
  5
1A4CB
  8
0
 10
480.14508738264141
 20
160.24571655866649
 30
0.0
 11
480.14508738264141
 21
219.24166090417839
 31
0.0
  0
LINE
  5
1A4CE
  8
0
 10
301.16673733190771
 20
186.1304382967437
 30
0.0
 11
307.42507066524098
 21
182.5171878620649
 31
0.0
  0
LINE
  5
1A4CF
  8
0
 10
307.42507066524098
 20
182.5171878620649
 30
0.0
 11
313.68340399857431
 21
186.1304382967437
 31
0.0
  0
LINE
  5
1A4D0
  8
0
 10
313.68340399857431
 20
186.1304382967437
 30
0.0
 11
313.68340399857431
 21
193.35693916610029
 31
0.0
  0
LINE
  5
1A4D1
  8
0
 10
307.42507066524098
 20
196.97018960077821
 30
0.0
 11
301.16673733190771
 21
193.35693916610029
 31
0.0
  0
LINE
  5
1A4D2
  8
0
 10
313.68340399857431
 20
193.35693916610029
 30
0.0
 11
307.42507066524098
 21
196.97018960077821
 31
0.0
  0
LINE
  5
1A4D3
  8
0
 10
301.16673733190771
 20
193.35693916610029
 30
0.0
 11
301.16673733190771
 21
186.1304382967437
 31
0.0
  0
CIRCLE
  5
1A4D5
  8
0
 10
307.42507066524098
 20
189.74368873142151
 30
0.0
 40
6.2583333333333391
  0
LINE
  5
1A4DA
  8
0
 10
357.42507066524098
 20
267.74368873142163
 30
0.0
 11
357.42507066524098
 21
265.74368873142163
 31
0.0
  0
LINE
  5
1A4DB
  8
0
 10
352.73595979769641
 20
267.74368873142163
 30
0.0
 11
352.73595979769641
 21
265.5278201566598
 31
0.0
  0
LINE
  5
1A4DD
  8
0
 10
330.1806241647061
 20
267.74368873142163
 30
0.0
 11
330.1806241647061
 21
195.84852554718509
 31
0.0
  0
LINE
  5
1A4DE
  8
0
 10
327.14953525146058
 20
267.74368873142163
 30
0.0
 11
327.14953525146058
 21
190.65875224088271
 31
0.0
  0
LINE
  5
1A4E1
  8
0
 10
287.70060607902138
 20
267.74368873142163
 30
0.0
 11
287.70060607902138
 21
190.65875224088271
 31
0.0
  0
LINE
  5
1A4E2
  8
0
 10
284.66951716577591
 20
267.74368873142163
 30
0.0
 11
284.66951716577591
 21
195.84852554718509
 31
0.0
  0
LINE
  5
1A4E4
  8
0
 10
262.11418153278561
 20
267.74368873142163
 30
0.0
 11
262.11418153278561
 21
265.5278201566598
 31
0.0
  0
LINE
  5
1A4E5
  8
0
 10
257.42507066524098
 20
267.74368873142163
 30
0.0
 11
257.42507066524098
 21
265.74368873142163
 31
0.0
  0
LINE
  5
1A4E6
  8
0
 10
257.42507066524098
 20
265.74368873142163
 30
0.0
 11
262.11418153278561
 21
265.74368873142163
 31
0.0
  0
LINE
  5
1A4E7
  8
0
 10
352.73595979769641
 20
265.74368873142163
 30
0.0
 11
357.42507066524098
 21
265.74368873142163
 31
0.0
  0
LINE
  5
1A4E8
  8
0
 10
342.50456258955228
 20
248.45694165897751
 30
0.0
 11
351.90772039605139
 21
264.74368873142163
 31
0.0
  0
ARC
  5
1A4E9
  8
0
 10
359.8250706652409
 20
238.45694165897751
 30
0.0
 40
19.999999999999879
 50
149.9999999999998
 51
180.0
  0
LINE
  5
1A4EA
  8
0
 10
339.82507066524101
 20
209.87428162327251
 30
0.0
 11
339.82507066524101
 21
238.45694165897751
 31
0.0
  0
POLYLINE
  5
1A4EB
  8
0
 66
     1
 10
0.0
 20
0.0
 30
0.0
  0
VERTEX
  5
271C3
  8
0
 10
336.89613847710649
 20
202.80321381140769
 30
0.0
  0
VERTEX
  5
271C4
  8
0
 10
336.9597256769822
 20
202.8673780372774
 30
0.0
  0
VERTEX
  5
271C5
  8
0
 10
337.08575201887561
 20
202.99805400335021
 30
0.0
  0
VERTEX
  5
271C6
  8
0
 10
337.21013616771029
 20
203.13181860711569
 30
0.0
  0
VERTEX
  5
271C7
  8
0
 10
337.2716711552813
 20
203.1998422354491
 30
0.0
  0
VERTEX
  5
271C8
  8
0
 10
337.33274642357071
 20
203.26861703083429
 30
0.0
  0
VERTEX
  5
271C9
  8
0
 10
337.4534540558048
 20
203.40838904400971
 30
0.0
  0
VERTEX
  5
271CA
  8
0
 10
337.57213392734991
 20
203.5510695587536
 30
0.0
  0
VERTEX
  5
271CB
  8
0
 10
337.68866503051999
 20
203.69658920147319
 30
0.0
  0
VERTEX
  5
271CC
  8
0
 10
337.80293093943072
 20
203.84487489909949
 30
0.0
  0
VERTEX
  5
271CD
  8
0
 10
337.91482018419867
 20
203.9958504787819
 30
0.0
  0
VERTEX
  5
271CE
  8
0
 10
337.96984015381958
 20
204.07232247330279
 30
0.0
  0
VERTEX
  5
271CF
  8
0
 10
338.02422655181317
 20
204.1494372806128
 30
0.0
  0
VERTEX
  5
271D0
  8
0
 10
338.13104949176432
 20
204.30555504232601
 30
0.0
  0
VERTEX
  5
271D1
  8
0
 10
338.23519465638009
 20
204.464123173313
 30
0.0
  0
VERTEX
  5
271D2
  8
0
 10
338.33656972972352
 20
204.62505466348921
 30
0.0
  0
VERTEX
  5
271D3
  8
0
 10
338.435085941019
 20
204.7882579356683
 30
0.0
  0
VERTEX
  5
271D4
  8
0
 10
338.53065886517118
 20
204.9536379567144
 30
0.0
  0
VERTEX
  5
271D5
  8
0
 10
338.57731647180037
 20
205.03711371823101
 30
0.0
  0
VERTEX
  5
271D6
  8
0
 10
338.62320871042658
 20
205.1210966975768
 30
0.0
  0
VERTEX
  5
271D7
  8
0
 10
338.7126605575383
 20
205.2905336037656
 30
0.0
  0
VERTEX
  5
271D8
  8
0
 10
338.79894455384488
 20
205.4618460791053
 30
0.0
  0
VERTEX
  5
271D9
  8
0
 10
338.84087820255053
 20
205.5481731583595
 30
0.0
  0
SEQEND
  5
271DA
  8
0
  0
ARC
  5
1A4EC
  8
0
 10
329.8250706652409
 20
209.87428162327251
 30
0.0
 40
10.00000000000013
 50
334.36663451367372
 51
0.0000008537736463
  0
LINE
  5
1A4ED
  8
0
 10
331.35599440328298
 20
197.26306973758341
 30
0.0
 11
336.89613847710649
 21
202.80321381140769
 31
0.0
  0
POLYLINE
  5
1A4EE
  8
0
 66
     1
 10
0.0
 20
0.0
 30
0.0
  0
VERTEX
  5
271DB
  8
0
 10
329.76680817730397
 20
195.19200192571861
 30
0.0
  0
VERTEX
  5
271DC
  8
0
 10
329.83221893028332
 20
195.30362289255569
 30
0.0
  0
VERTEX
  5
271DD
  8
0
 10
329.9673450119306
 20
195.5242795668
 30
0.0
  0
VERTEX
  5
271DE
  8
0
 10
330.10813474107511
 20
195.7413663651032
 30
0.0
  0
VERTEX
  5
271DF
  8
0
 10
330.1806241647061
 20
195.84852554718509
 30
0.0
  0
SEQEND
  5
271E0
  8
0
  0
POLYLINE
  5
1A4EF
  8
0
 66
     1
 10
0.0
 20
0.0
 30
0.0
  0
VERTEX
  5
271E1
  8
0
 10
330.1806241647061
 20
195.84852554718509
 30
0.0
  0
VERTEX
  5
271E2
  8
0
 10
330.3490372512523
 20
196.08653436541769
 30
0.0
  0
VERTEX
  5
271E3
  8
0
 10
330.71905905951922
 20
196.5627701174526
 30
0.0
  0
VERTEX
  5
271E4
  8
0
 10
331.13294136339772
 20
197.03274757221419
 30
0.0
  0
VERTEX
  5
271E5
  8
0
 10
331.35599440328298
 20
197.26306973758341
 30
0.0
  0
SEQEND
  5
271E6
  8
0
  0
LINE
  5
1A4F0
  8
0
 10
324.31182201118918
 20
185.74368873142151
 30
0.0
 11
329.76680817730409
 21
195.19200192571861
 31
0.0
  0
POLYLINE
  5
1A4F1
  8
0
 66
     1
 10
0.0
 20
0.0
 30
0.0
  0
VERTEX
  5
271E7
  8
0
 10
315.6515679733447
 20
180.74368873142151
 30
0.0
  0
VERTEX
  5
271E8
  8
0
 10
315.70156949771149
 20
180.74381373982479
 30
0.0
  0
VERTEX
  5
271E9
  8
0
 10
315.8016701749014
 20
180.7448153284285
 30
0.0
  0
VERTEX
  5
271EA
  8
0
 10
315.90188582634448
 20
180.74682217372171
 30
0.0
  0
VERTEX
  5
271EB
  8
0
 10
315.95203102634338
 20
180.74820365295821
 30
0.0
  0
VERTEX
  5
271EC
  8
0
 10
316.00219806139029
 20
180.74983769484149
 30
0.0
  0
VERTEX
  5
271ED
  8
0
 10
316.10258834658907
 20
180.75386487797371
 30
0.0
  0
VERTEX
  5
271EE
  8
0
 10
316.2030380423671
 20
180.7589062719498
 30
0.0
  0
VERTEX
  5
271EF
  8
0
 10
316.3035284391126
 20
180.76496398568989
 30
0.0
  0
VERTEX
  5
271F0
  8
0
 10
316.40404079262959
 20
180.77203968744561
 30
0.0
  0
VERTEX
  5
271F1
  8
0
 10
316.50455635891512
 20
180.78013460580581
 30
0.0
  0
VERTEX
  5
271F2
  8
0
 10
316.55480949779582
 20
180.78456453556461
 30
0.0
  0
VERTEX
  5
271F3
  8
0
 10
316.60505642822159
 20
180.7892495324304
 30
0.0
  0
VERTEX
  5
271F4
  8
0
 10
316.7055223583651
 20
180.79938482645679
 30
0.0
  0
VERTEX
  5
271F5
  8
0
 10
316.80593560724571
 20
180.8105404205489
 30
0.0
  0
VERTEX
  5
271F6
  8
0
 10
316.9062777645442
 20
180.82271582853261
 30
0.0
  0
VERTEX
  5
271F7
  8
0
 10
317.00653058256768
 20
180.83591015458569
 30
0.0
  0
VERTEX
  5
271F8
  8
0
 10
317.1066760062111
 20
180.85012210392691
 30
0.0
  0
VERTEX
  5
271F9
  8
0
 10
317.15670286274928
 20
180.85760917657811
 30
0.0
  0
VERTEX
  5
271FA
  8
0
 10
317.20669620200988
 20
180.86534999495319
 30
0.0
  0
VERTEX
  5
271FB
  8
0
 10
317.30657358625888
 20
180.88159177280161
 30
0.0
  0
VERTEX
  5
271FC
  8
0
 10
317.40629085217211
 20
180.89884502425591
 30
0.0
  0
VERTEX
  5
271FD
  8
0
 10
317.4560841145655
 20
180.90785010443781
 30
0.0
  0
VERTEX
  5
271FE
  8
0
 10
317.7537978770693
 20
180.96715409833811
 30
0.0
  0
VERTEX
  5
271FF
  8
0
 10
318.34247309327549
 20
181.1125398053837
 30
0.0
  0
VERTEX
  5
27200
  8
0
 10
318.91929546181223
 20
181.29265931335789
 30
0.0
  0
VERTEX
  5
27201
  8
0
 10
319.48100239275118
 20
181.50597082993411
 30
0.0
  0
VERTEX
  5
27202
  8
0
 10
320.02480214295969
 20
181.75064570374161
 30
0.0
  0
VERTEX
  5
27203
  8
0
 10
320.54845761956562
 20
182.0247167855596
 30
0.0
  0
VERTEX
  5
27204
  8
0
 10
320.80197832867572
 20
182.17203351368789
 30
0.0
  0
VERTEX
  5
27205
  8
0
 10
321.0495889041058
 20
182.32576915286421
 30
0.0
  0
VERTEX
  5
27206
  8
0
 10
321.52608815909667
 20
182.65109875124921
 30
0.0
  0
VERTEX
  5
27207
  8
0
 10
321.97617613274599
 20
182.99776518222279
 30
0.0
  0
VERTEX
  5
27208
  8
0
 10
322.39833057560219
 20
183.36255098790389
 30
0.0
  0
VERTEX
  5
27209
  8
0
 10
322.79129965636389
 20
183.74195812431481
 30
0.0
  0
VERTEX
  5
2720A
  8
0
 10
323.16204198855621
 20
184.14120586004449
 30
0.0
  0
VERTEX
  5
2720B
  8
0
 10
323.3415641354984
 20
184.35119633595781
 30
0.0
  0
VERTEX
  5
2720C
  8
0
 10
323.51661508233821
 20
184.56784595708629
 30
0.0
  0
VERTEX
  5
2720D
  8
0
 10
323.85174281636631
 20
185.02030402096619
 30
0.0
  0
VERTEX
  5
2720E
  8
0
 10
324.16456545631058
 20
185.49689219877291
 30
0.0
  0
VERTEX
  5
2720F
  8
0
 10
324.31182201118918
 20
185.74368873142151
 30
0.0
  0
SEQEND
  5
27210
  8
0
  0
LINE
  5
1A4F2
  8
0
 10
299.19857335713732
 20
180.74368873142151
 30
0.0
 11
315.6515679733447
 21
180.74368873142151
 31
0.0
  0
POLYLINE
  5
1A4F3
  8
0
 66
     1
 10
0.0
 20
0.0
 30
0.0
  0
VERTEX
  5
27211
  8
0
 10
290.5383193192929
 20
185.74368873142151
 30
0.0
  0
VERTEX
  5
27212
  8
0
 10
290.68541554296502
 20
185.49715234719679
 30
0.0
  0
VERTEX
  5
27213
  8
0
 10
290.99806506077113
 20
185.02078180563419
 30
0.0
  0
VERTEX
  5
27214
  8
0
 10
291.33332647767099
 20
184.56810037685591
 30
0.0
  0
VERTEX
  5
27215
  8
0
 10
291.50860763525571
 20
184.35115971730829
 30
0.0
  0
VERTEX
  5
27216
  8
0
 10
291.68849729167192
 20
184.1407532106914
 30
0.0
  0
VERTEX
  5
27217
  8
0
 10
292.06047266143429
 20
183.7402953783394
 30
0.0
  0
VERTEX
  5
27218
  8
0
 10
292.45203113496132
 20
183.36234955452429
 30
0.0
  0
VERTEX
  5
27219
  8
0
 10
292.87288814822813
 20
182.99864472652459
 30
0.0
  0
VERTEX
  5
2721A
  8
0
 10
293.32205905993197
 20
182.65254667885981
 30
0.0
  0
VERTEX
  5
2721B
  8
0
 10
293.79799678141478
 20
182.32740851687589
 30
0.0
  0
VERTEX
  5
2721C
  8
0
 10
294.04545102022689
 20
182.17366363339349
 30
0.0
  0
VERTEX
  5
2721D
  8
0
 10
294.2988940933767
 20
182.02628412269399
 30
0.0
  0
VERTEX
  5
2721E
  8
0
 10
294.82261013659968
 20
181.7519733282015
 30
0.0
  0
VERTEX
  5
2721F
  8
0
 10
295.36669922943082
 20
181.50698257232941
 30
0.0
  0
VERTEX
  5
27220
  8
0
 10
295.92883047371708
 20
181.29335638402151
 30
0.0
  0
VERTEX
  5
27221
  8
0
 10
296.50619469921418
 20
181.1129516276296
 30
0.0
  0
VERTEX
  5
27222
  8
0
 10
297.09544771688547
 20
180.96734674981599
 30
0.0
  0
VERTEX
  5
27223
  8
0
 10
297.39343344193247
 20
180.90796456456241
 30
0.0
  0
VERTEX
  5
27224
  8
0
 10
297.44326967759218
 20
180.8989485625516
 30
0.0
  0
VERTEX
  5
27225
  8
0
 10
297.5430704213374
 20
180.88167524382419
 30
0.0
  0
VERTEX
  5
27226
  8
0
 10
297.64302764128371
 20
180.8654157282144
 30
0.0
  0
VERTEX
  5
27227
  8
0
 10
297.69305939752257
 20
180.85766689665891
 30
0.0
  0
VERTEX
  5
27228
  8
0
 10
297.7431235965858
 20
180.85017236996009
 30
0.0
  0
VERTEX
  5
27229
  8
0
 10
297.84334025511572
 20
180.8359471502545
 30
0.0
  0
VERTEX
  5
2722A
  8
0
 10
297.94365932172502
 20
180.82274166152359
 30
0.0
  0
VERTEX
  5
2722B
  8
0
 10
298.04406226748603
 20
180.8105570931184
 30
0.0
  0
VERTEX
  5
2722C
  8
0
 10
298.14453035989249
 20
180.79939421848849
 30
0.0
  0
VERTEX
  5
2722D
  8
0
 10
298.24504469399
 20
180.7892533838712
 30
0.0
  0
VERTEX
  5
2722E
  8
0
 10
298.29531325458692
 20
180.7845662205209
 30
0.0
  0
VERTEX
  5
2722F
  8
0
 10
298.34558622441318
 20
180.78013449854819
 30
0.0
  0
VERTEX
  5
27230
  8
0
 10
298.44613579830008
 20
180.77203702671159
 30
0.0
  0
VERTEX
  5
27231
  8
0
 10
298.54667418905188
 20
180.76495998099199
 30
0.0
  0
VERTEX
  5
27232
  8
0
 10
298.64718213090981
 20
180.7589019176921
 30
0.0
  0
VERTEX
  5
27233
  8
0
 10
298.74764035431031
 20
180.75386093375889
 30
0.0
  0
VERTEX
  5
27234
  8
0
 10
298.8480296219866
 20
180.7498346655602
 30
0.0
  0
VERTEX
  5
27235
  8
0
 10
298.89819240365767
 20
180.74820118539441
 30
0.0
  0
VERTEX
  5
27236
  8
0
 10
298.94833076577601
 20
180.74682028948149
 30
0.0
  0
VERTEX
  5
27237
  8
0
 10
299.04852472409362
 20
180.74481452440611
 30
0.0
  0
VERTEX
  5
27238
  8
0
 10
299.1485925800298
 20
180.7438136361061
 30
0.0
  0
VERTEX
  5
27239
  8
0
 10
299.19857335713732
 20
180.74368873142151
 30
0.0
  0
SEQEND
  5
2723A
  8
0
  0
LINE
  5
1A4F4
  8
0
 10
285.08333315317799
 20
195.19200192571861
 30
0.0
 11
290.5383193192929
 21
185.74368873142151
 31
0.0
  0
POLYLINE
  5
1A4F5
  8
0
 66
     1
 10
0.0
 20
0.0
 30
0.0
  0
VERTEX
  5
2723B
  8
0
 10
283.4941469271991
 20
197.26306973758341
 30
0.0
  0
VERTEX
  5
2723C
  8
0
 10
283.71719996708413
 20
197.03274757221419
 30
0.0
  0
VERTEX
  5
2723D
  8
0
 10
284.13108227096438
 20
196.56277011745081
 30
0.0
  0
VERTEX
  5
2723E
  8
0
 10
284.5011040792308
 20
196.0865343654159
 30
0.0
  0
VERTEX
  5
2723F
  8
0
 10
284.66951716577591
 20
195.84852554718509
 30
0.0
  0
SEQEND
  5
27240
  8
0
  0
POLYLINE
  5
1A4F6
  8
0
 66
     1
 10
0.0
 20
0.0
 30
0.0
  0
VERTEX
  5
27241
  8
0
 10
284.66951716577591
 20
195.84852554718509
 30
0.0
  0
VERTEX
  5
27242
  8
0
 10
284.74200658940691
 20
195.7413663651032
 30
0.0
  0
VERTEX
  5
27243
  8
0
 10
284.88279631855153
 20
195.5242795668
 30
0.0
  0
VERTEX
  5
27244
  8
0
 10
285.0179224001987
 20
195.30362289255569
 30
0.0
  0
VERTEX
  5
27245
  8
0
 10
285.08333315317799
 20
195.19200192571861
 30
0.0
  0
SEQEND
  5
27246
  8
0
  0
LINE
  5
1A4F7
  8
0
 10
277.95400285337558
 20
202.80321381140769
 30
0.0
 11
283.4941469271991
 21
197.26306973758341
 31
0.0
  0
ARC
  5
1A4F8
  8
0
 10
285.025070665241
 20
209.87428162327251
 30
0.0
 40
9.9999999999999751
 50
180.0
 51
205.63336548632631
  0
POLYLINE
  5
1A4F9
  8
0
 66
     1
 10
0.0
 20
0.0
 30
0.0
  0
VERTEX
  5
27247
  8
0
 10
276.00926312793149
 20
205.5481731583595
 30
0.0
  0
VERTEX
  5
27248
  8
0
 10
276.0511967766372
 20
205.4618460791053
 30
0.0
  0
VERTEX
  5
27249
  8
0
 10
276.13748077294377
 20
205.2905336037656
 30
0.0
  0
VERTEX
  5
2724A
  8
0
 10
276.22693262005549
 20
205.1210966975768
 30
0.0
  0
VERTEX
  5
2724B
  8
0
 10
276.27282485868159
 20
205.03711371823101
 30
0.0
  0
VERTEX
  5
2724C
  8
0
 10
276.31948246531078
 20
204.9536379567144
 30
0.0
  0
VERTEX
  5
2724D
  8
0
 10
276.41505538946302
 20
204.7882579356683
 30
0.0
  0
VERTEX
  5
2724E
  8
0
 10
276.5135716007585
 20
204.62505466349009
 30
0.0
  0
VERTEX
  5
2724F
  8
0
 10
276.61494667410199
 20
204.464123173313
 30
0.0
  0
VERTEX
  5
27250
  8
0
 10
276.71909183871782
 20
204.30555504232601
 30
0.0
  0
VERTEX
  5
27251
  8
0
 10
276.8259147786689
 20
204.1494372806128
 30
0.0
  0
VERTEX
  5
27252
  8
0
 10
276.8803011766625
 20
204.07232247330279
 30
0.0
  0
VERTEX
  5
27253
  8
0
 10
276.9353211462834
 20
203.9958504787819
 30
0.0
  0
VERTEX
  5
27254
  8
0
 10
277.04721039105141
 20
203.84487489909949
 30
0.0
  0
VERTEX
  5
27255
  8
0
 10
277.16147629996209
 20
203.69658920147319
 30
0.0
  0
VERTEX
  5
27256
  8
0
 10
277.27800740313211
 20
203.5510695587536
 30
0.0
  0
VERTEX
  5
27257
  8
0
 10
277.39668727467728
 20
203.40838904400971
 30
0.0
  0
VERTEX
  5
27258
  8
0
 10
277.51739490691131
 20
203.26861703083429
 30
0.0
  0
VERTEX
  5
27259
  8
0
 10
277.57847017520072
 20
203.1998422354491
 30
0.0
  0
VERTEX
  5
2725A
  8
0
 10
277.64000516277179
 20
203.13181860711569
 30
0.0
  0
VERTEX
  5
2725B
  8
0
 10
277.76438931160641
 20
202.99805400335021
 30
0.0
  0
VERTEX
  5
2725C
  8
0
 10
277.89041565349982
 20
202.8673780372774
 30
0.0
  0
VERTEX
  5
2725D
  8
0
 10
277.95400285337558
 20
202.80321381140769
 30
0.0
  0
SEQEND
  5
2725E
  8
0
  0
LINE
  5
1A4FA
  8
0
 10
275.025070665241
 20
238.45694165897751
 30
0.0
 11
275.025070665241
 21
209.87428162327251
 31
0.0
  0
ARC
  5
1A4FB
  8
0
 10
255.0250706652408
 20
238.45694165897751
 30
0.0
 40
20.00000000000021
 50
0.0
 51
30.00000000000021
  0
LINE
  5
1A4FC
  8
0
 10
262.94242093443069
 20
264.74368873142163
 30
0.0
 11
272.3455787409298
 21
248.45694165897751
 31
0.0
  0
ARC
  5
1A4FD
  8
0
 10
261.21037012686151
 20
263.74368873142151
 30
0.0
 40
2.0000000000002811
 50
30.00000000000021
 51
63.13398223538411
  0
ARC
  5
1A4FE
  8
0
 10
353.63977120362028
 20
263.74368873142151
 30
0.0
 40
1.9999999999999969
 50
116.8660177646159
 51
149.9999999999998
  0
LINE
  5
1A4FF
  8
0
 10
257.42507066524098
 20
267.74368873142163
 30
0.0
 11
357.42507066524098
 21
267.74368873142163
 31
0.0
  0
ARC
  5
1A502
  8
0
 10
307.42507066524098
 20
189.74368873142151
 30
0.0
 40
41.952105438837911
 50
140.56171474934291
 51
39.438285250657138
  0
ARC
  5
1A503
  8
0
 10
307.42507066524098
 20
189.74368873142151
 30
0.0
 40
44.856316316513698
 50
136.245222819036
 51
43.754777180964012
  0
ARC
  5
1A504
  8
0
 10
307.42507066524109
 20
190.09273106680939
 30
0.0
 40
30.3421573257231
 50
157.9915853937855
 51
22.008414606214551
  0
ARC
  5
1A505
  8
0
 10
307.42507066524098
 20
189.74368873142151
 30
0.0
 40
40.0
 50
144.0959314167072
 51
35.904068583292784
  0
ARC
  5
1A50B
  8
0
 10
307.42507066524098
 20
189.74368873142151
 30
0.0
 40
49.999999999999957
 50
130.39097962027029
 51
49.60902037972825
  0
LINE
  5
208C1
  8
0
 10
313.24007066524109
 20
353.48045729116348
 30
0.0
 11
313.24007066524109
 21
352.88045729116311
 31
0.0
  0
LINE
  5
208C2
  8
0
 10
301.6100706652411
 20
352.88045729116311
 30
0.0
 11
301.6100706652411
 21
353.48045729116348
 31
0.0
  0
LINE
  5
208C3
  8
0
 10
311.42507066524092
 20
412.71345729116268
 30
0.0
 11
311.42507066524092
 21
410.48045729116348
 31
0.0
  0
LINE
  5
208C4
  8
0
 10
303.42507066524092
 20
410.48045729116348
 30
0.0
 11
303.42507066524092
 21
412.71345729116268
 31
0.0
  0
LINE
  5
208C5
  8
0
 10
310.65807066524093
 20
413.48045729116342
 30
0.0
 11
311.42507066524092
 21
412.71345729116268
 31
0.0
  0
LINE
  5
208C6
  8
0
 10
303.42507066524092
 20
412.71345729116268
 30
0.0
 11
304.19207066524092
 21
413.48045729116342
 31
0.0
  0
LINE
  5
208C7
  8
0
 10
313.24007066524092
 20
410.48045729116348
 30
0.0
 11
313.24007066524092
 21
407.98045729116342
 31
0.0
  0
LINE
  5
208C8
  8
0
 10
301.61007066524093
 20
407.98045729116342
 30
0.0
 11
301.61007066524093
 21
410.48045729116348
 31
0.0
  0
LINE
  5
208C9
  8
0
 10
303.42507066524092
 20
412.71345729116268
 30
0.0
 11
311.42507066524092
 21
412.71345729116268
 31
0.0
  0
LINE
  5
208CA
  8
0
 10
304.19207066524092
 20
413.48045729116342
 30
0.0
 11
310.65807066524093
 21
413.48045729116342
 31
0.0
  0
LINE
  5
208CB
  8
0
 10
301.16673733190783
 20
348.18045729116329
 30
0.0
 11
313.68340399857448
 21
348.18045729116329
 31
0.0
  0
LINE
  5
208CC
  8
0
 10
301.16673733190783
 20
352.88045729116311
 30
0.0
 11
313.68340399857448
 21
352.88045729116311
 31
0.0
  0
POLYLINE
  5
208CF
  8
0
 66
     1
 10
0.0
 20
0.0
 30
0.0
  0
VERTEX
  5
2725F
  8
0
 10
310.55423733190781
 20
352.88045729116311
 30
0.0
  0
VERTEX
  5
27260
  8
0
 10
310.05179957999218
 20
352.87326715754352
 30
0.0
  0
VERTEX
  5
27261
  8
0
 10
309.0430390360799
 20
352.81649257375921
 30
0.0
  0
VERTEX
  5
27262
  8
0
 10
307.987249143356
 20
352.7018822350056
 30
0.0
  0
VERTEX
  5
27263
  8
0
 10
307.42507066524109
 20
352.6210375817472
 30
0.0
  0
SEQEND
  5
27264
  8
0
  0
POLYLINE
  5
208D0
  8
0
 66
     1
 10
0.0
 20
0.0
 30
0.0
  0
VERTEX
  5
27265
  8
0
 10
307.42507066524109
 20
348.43987700057818
 30
0.0
  0
VERTEX
  5
27266
  8
0
 10
307.987249143356
 20
348.35903234732092
 30
0.0
  0
VERTEX
  5
27267
  8
0
 10
309.0430390360799
 20
348.2444220085672
 30
0.0
  0
VERTEX
  5
27268
  8
0
 10
310.05179957999218
 20
348.18764742478288
 30
0.0
  0
VERTEX
  5
27269
  8
0
 10
310.55423733190781
 20
348.18045729116329
 30
0.0
  0
SEQEND
  5
2726A
  8
0
  0
POLYLINE
  5
208D1
  8
0
 66
     1
 10
0.0
 20
0.0
 30
0.0
  0
VERTEX
  5
2726B
  8
0
 10
310.55423733190781
 20
348.18045729116329
 30
0.0
  0
VERTEX
  5
2726C
  8
0
 10
311.05667508382339
 20
348.18764742478288
 30
0.0
  0
VERTEX
  5
2726D
  8
0
 10
312.06543562773572
 20
348.2444220085672
 30
0.0
  0
VERTEX
  5
2726E
  8
0
 10
313.12122552045969
 20
348.35903234732092
 30
0.0
  0
VERTEX
  5
2726F
  8
0
 10
313.68340399857448
 20
348.43987700057818
 30
0.0
  0
SEQEND
  5
27270
  8
0
  0
POLYLINE
  5
208D2
  8
0
 66
     1
 10
0.0
 20
0.0
 30
0.0
  0
VERTEX
  5
27271
  8
0
 10
313.68340399857448
 20
352.6210375817472
 30
0.0
  0
VERTEX
  5
27272
  8
0
 10
313.12122552045969
 20
352.7018822350056
 30
0.0
  0
VERTEX
  5
27273
  8
0
 10
312.06543562773561
 20
352.81649257375921
 30
0.0
  0
VERTEX
  5
27274
  8
0
 10
311.05667508382328
 20
352.87326715754352
 30
0.0
  0
VERTEX
  5
27275
  8
0
 10
310.55423733190781
 20
352.88045729116311
 30
0.0
  0
SEQEND
  5
27276
  8
0
  0
POLYLINE
  5
208D3
  8
0
 66
     1
 10
0.0
 20
0.0
 30
0.0
  0
VERTEX
  5
27277
  8
0
 10
304.29590399857437
 20
352.88045729116311
 30
0.0
  0
VERTEX
  5
27278
  8
0
 10
303.79346624665891
 20
352.87326715754352
 30
0.0
  0
VERTEX
  5
27279
  8
0
 10
302.78470570274658
 20
352.81649257375921
 30
0.0
  0
VERTEX
  5
2727A
  8
0
 10
301.72891581002261
 20
352.7018822350056
 30
0.0
  0
VERTEX
  5
2727B
  8
0
 10
301.16673733190783
 20
352.6210375817472
 30
0.0
  0
SEQEND
  5
2727C
  8
0
  0
POLYLINE
  5
208D5
  8
0
 66
     1
 10
0.0
 20
0.0
 30
0.0
  0
VERTEX
  5
2727D
  8
0
 10
301.16673733190783
 20
348.43987700057818
 30
0.0
  0
VERTEX
  5
2727E
  8
0
 10
301.72891581002261
 20
348.35903234732092
 30
0.0
  0
VERTEX
  5
2727F
  8
0
 10
302.78470570274658
 20
348.2444220085672
 30
0.0
  0
VERTEX
  5
27280
  8
0
 10
303.79346624665891
 20
348.18764742478288
 30
0.0
  0
VERTEX
  5
27281
  8
0
 10
304.2959039985746
 20
348.18045729116329
 30
0.0
  0
SEQEND
  5
27282
  8
0
  0
POLYLINE
  5
208D6
  8
0
 66
     1
 10
0.0
 20
0.0
 30
0.0
  0
VERTEX
  5
27283
  8
0
 10
304.2959039985746
 20
348.18045729116329
 30
0.0
  0
VERTEX
  5
27284
  8
0
 10
304.79834175049012
 20
348.18764742478288
 30
0.0
  0
VERTEX
  5
27285
  8
0
 10
305.8071022944024
 20
348.2444220085672
 30
0.0
  0
VERTEX
  5
27286
  8
0
 10
306.86289218712642
 20
348.35903234732092
 30
0.0
  0
VERTEX
  5
27287
  8
0
 10
307.42507066524109
 20
348.43987700057818
 30
0.0
  0
SEQEND
  5
27288
  8
0
  0
LINE
  5
208D7
  8
0
 10
307.42507066524109
 20
348.43987700057818
 30
0.0
 11
307.42507066524109
 21
352.6210375817472
 31
0.0
  0
POLYLINE
  5
208D8
  8
0
 66
     1
 10
0.0
 20
0.0
 30
0.0
  0
VERTEX
  5
27289
  8
0
 10
307.42507066524109
 20
352.6210375817472
 30
0.0
  0
VERTEX
  5
2728A
  8
0
 10
306.86289218712619
 20
352.7018822350056
 30
0.0
  0
VERTEX
  5
2728B
  8
0
 10
305.8071022944024
 20
352.81649257375921
 30
0.0
  0
VERTEX
  5
2728C
  8
0
 10
304.79834175049012
 20
352.87326715754352
 30
0.0
  0
VERTEX
  5
2728D
  8
0
 10
304.29590399857437
 20
352.88045729116311
 30
0.0
  0
SEQEND
  5
2728E
  8
0
  0
LINE
  5
208DC
  8
0
 10
301.61007066524093
 20
410.48045729116348
 30
0.0
 11
313.24007066524092
 21
410.48045729116348
 31
0.0
  0
LINE
  5
208DD
  8
0
 10
301.1667373319076
 20
407.98045729116342
 30
0.0
 11
313.68340399857431
 21
407.98045729116342
 31
0.0
  0
POLYLINE
  5
208E0
  8
0
 66
     1
 10
0.0
 20
0.0
 30
0.0
  0
VERTEX
  5
2728F
  8
0
 10
310.55423733190747
 20
407.98045729116342
 30
0.0
  0
VERTEX
  5
27290
  8
0
 10
310.05179957999201
 20
407.97326715754292
 30
0.0
  0
VERTEX
  5
27291
  8
0
 10
309.04303903607968
 20
407.9164925737586
 30
0.0
  0
VERTEX
  5
27292
  8
0
 10
307.98724914335571
 20
407.80188223500591
 30
0.0
  0
VERTEX
  5
27293
  8
0
 10
307.42507066524092
 20
407.72103758174762
 30
0.0
  0
SEQEND
  5
27294
  8
0
  0
POLYLINE
  5
208E1
  8
0
 66
     1
 10
0.0
 20
0.0
 30
0.0
  0
VERTEX
  5
27295
  8
0
 10
307.42507066524092
 20
402.73987700057842
 30
0.0
  0
VERTEX
  5
27296
  8
0
 10
307.9872491433465
 20
402.6590323473219
 30
0.0
  0
VERTEX
  5
27297
  8
0
 10
309.04303903605398
 20
402.5444220085692
 30
0.0
  0
VERTEX
  5
27298
  8
0
 10
310.05179957995023
 20
402.48764742478397
 30
0.0
  0
VERTEX
  5
27299
  8
0
 10
310.55423733185683
 20
402.48045729116348
 30
0.0
  0
SEQEND
  5
2729A
  8
0
  0
POLYLINE
  5
208E2
  8
0
 66
     1
 10
0.0
 20
0.0
 30
0.0
  0
VERTEX
  5
2729B
  8
0
 10
310.55423733190747
 20
402.48045729116348
 30
0.0
  0
VERTEX
  5
2729C
  8
0
 10
311.05667508382311
 20
402.48764742478312
 30
0.0
  0
VERTEX
  5
2729D
  8
0
 10
312.06543562773538
 20
402.54442200856732
 30
0.0
  0
VERTEX
  5
2729E
  8
0
 10
313.12122552045952
 20
402.65903234732008
 30
0.0
  0
VERTEX
  5
2729F
  8
0
 10
313.68340399857431
 20
402.73987700057842
 30
0.0
  0
SEQEND
  5
272A0
  8
0
  0
POLYLINE
  5
208E3
  8
0
 66
     1
 10
0.0
 20
0.0
 30
0.0
  0
VERTEX
  5
272A1
  8
0
 10
313.68340399857431
 20
407.72103758174762
 30
0.0
  0
VERTEX
  5
272A2
  8
0
 10
313.12122552045952
 20
407.80188223500591
 30
0.0
  0
VERTEX
  5
272A3
  8
0
 10
312.06543562773538
 20
407.9164925737586
 30
0.0
  0
VERTEX
  5
272A4
  8
0
 10
311.05667508382311
 20
407.97326715754292
 30
0.0
  0
VERTEX
  5
272A5
  8
0
 10
310.55423733190747
 20
407.98045729116342
 30
0.0
  0
SEQEND
  5
272A6
  8
0
  0
POLYLINE
  5
208E4
  8
0
 66
     1
 10
0.0
 20
0.0
 30
0.0
  0
VERTEX
  5
272A7
  8
0
 10
304.2959039985742
 20
407.98045729116342
 30
0.0
  0
VERTEX
  5
272A8
  8
0
 10
303.79346624665868
 20
407.97326715754292
 30
0.0
  0
VERTEX
  5
272A9
  8
0
 10
302.78470570274641
 20
407.9164925737586
 30
0.0
  0
VERTEX
  5
272AA
  8
0
 10
301.72891581002239
 20
407.80188223500591
 30
0.0
  0
VERTEX
  5
272AB
  8
0
 10
301.1667373319076
 20
407.72103758174762
 30
0.0
  0
SEQEND
  5
272AC
  8
0
  0
POLYLINE
  5
208E6
  8
0
 66
     1
 10
0.0
 20
0.0
 30
0.0
  0
VERTEX
  5
272AD
  8
0
 10
301.1667373319076
 20
402.73987700057842
 30
0.0
  0
VERTEX
  5
272AE
  8
0
 10
301.72891581002239
 20
402.65903234732008
 30
0.0
  0
VERTEX
  5
272AF
  8
0
 10
302.78470570274652
 20
402.54442200856732
 30
0.0
  0
VERTEX
  5
272B0
  8
0
 10
303.7934662466588
 20
402.48764742478312
 30
0.0
  0
VERTEX
  5
272B1
  8
0
 10
304.29590399857432
 20
402.48045729116348
 30
0.0
  0
SEQEND
  5
272B2
  8
0
  0
POLYLINE
  5
208E7
  8
0
 66
     1
 10
0.0
 20
0.0
 30
0.0
  0
VERTEX
  5
272B3
  8
0
 10
304.29590399857432
 20
402.48045729116348
 30
0.0
  0
VERTEX
  5
272B4
  8
0
 10
304.79834175048978
 20
402.48764742478312
 30
0.0
  0
VERTEX
  5
272B5
  8
0
 10
305.80710229440223
 20
402.54442200856732
 30
0.0
  0
VERTEX
  5
272B6
  8
0
 10
306.86289218712608
 20
402.65903234732008
 30
0.0
  0
VERTEX
  5
272B7
  8
0
 10
307.42507066524092
 20
402.73987700057842
 30
0.0
  0
SEQEND
  5
272B8
  8
0
  0
LINE
  5
208E8
  8
0
 10
307.42507066524092
 20
402.73987700057842
 30
0.0
 11
307.42507066524092
 21
407.72103758174762
 31
0.0
  0
POLYLINE
  5
208E9
  8
0
 66
     1
 10
0.0
 20
0.0
 30
0.0
  0
VERTEX
  5
272B9
  8
0
 10
307.42507066524092
 20
407.72103758174762
 30
0.0
  0
VERTEX
  5
272BA
  8
0
 10
306.86289218712602
 20
407.80188223500591
 30
0.0
  0
VERTEX
  5
272BB
  8
0
 10
305.807102294402
 20
407.9164925737586
 30
0.0
  0
VERTEX
  5
272BC
  8
0
 10
304.79834175048973
 20
407.97326715754292
 30
0.0
  0
VERTEX
  5
272BD
  8
0
 10
304.2959039985742
 20
407.98045729116342
 30
0.0
  0
SEQEND
  5
272BE
  8
0
  0
LINE
  5
208ED
  8
0
 10
338.8408782025503
 20
420.48045729116342
 30
0.0
 11
352.73595979769618
 21
420.48045729116342
 31
0.0
  0
ARC
  5
208EE
  8
0
 10
338.84087820255053
 20
410.48045729116348
 30
0.0
 40
10.00000000000003
 50
90.0
 51
149.99999999999969
  0
LINE
  5
208EF
  8
0
 10
327.14953525146052
 20
410.23045729116342
 30
0.0
 11
330.1806241647061
 21
415.48045729116342
 31
0.0
  0
ARC
  5
208F0
  8
0
 10
313.72614149280162
 20
417.98045729116342
 30
0.0
 40
15.5
 50
270.0
 51
329.99999999999977
  0
LINE
  5
208F1
  8
0
 10
301.12399983768012
 20
402.48045729116348
 30
0.0
 11
313.72614149280167
 21
402.48045729116348
 31
0.0
  0
ARC
  5
208F2
  8
0
 10
301.12399983768
 20
417.98045729116342
 30
0.0
 40
15.49999999999998
 50
210.0000000000002
 51
270.0
  0
LINE
  5
208F3
  8
0
 10
284.6695171657758
 20
415.48045729116342
 30
0.0
 11
287.70060607902133
 21
410.23045729116342
 31
0.0
  0
ARC
  5
208F4
  8
0
 10
276.00926312793138
 20
410.48045729116251
 30
0.0
 40
10.00000000000003
 50
30.000000000000231
 51
90.0
  0
LINE
  5
208F5
  8
0
 10
262.11418153278538
 20
420.48045729116342
 30
0.0
 11
276.00926312793138
 21
420.48045729116342
 31
0.0
  0
LINE
  5
208F6
  8
0
 10
257.42507066524092
 20
402.98045729116262
 30
0.0
 11
262.11418153278538
 21
420.48045729116342
 31
0.0
  0
LINE
  5
208F7
  8
0
 10
257.42507066524109
 20
352.98045729116262
 30
0.0
 11
257.42507066524092
 21
402.98045729116262
 31
0.0
  0
LINE
  5
208F8
  8
0
 10
262.11418153278589
 20
335.48045729116348
 30
0.0
 11
257.42507066524109
 21
352.98045729116262
 31
0.0
  0
LINE
  5
208F9
  8
0
 10
276.00926312793172
 20
335.48045729116348
 30
0.0
 11
262.11418153278589
 21
335.48045729116348
 31
0.0
  0
ARC
  5
208FA
  8
0
 10
276.0092631279316
 20
345.48045729116348
 30
0.0
 40
10.00000000000005
 50
270.0
 51
329.99999999999977
  0
LINE
  5
208FB
  8
0
 10
287.70060607902161
 20
345.73045729116348
 30
0.0
 11
284.66951716577603
 21
340.48045729116348
 31
0.0
  0
ARC
  5
208FC
  8
0
 10
301.1239998376804
 20
337.98045729116348
 30
0.0
 40
15.49999999999997
 50
90.0
 51
149.99999999999969
  0
LINE
  5
208FD
  8
0
 10
313.72614149280201
 20
353.48045729116348
 30
0.0
 11
301.1239998376804
 21
353.48045729116348
 31
0.0
  0
ARC
  5
208FE
  8
0
 10
313.72614149280201
 20
337.98045729116348
 30
0.0
 40
15.49999999999998
 50
30.000000000000231
 51
90.0
  0
LINE
  5
208FF
  8
0
 10
330.18062416470627
 20
340.48045729116348
 30
0.0
 11
327.14953525146069
 21
345.73045729116348
 31
0.0
  0
ARC
  5
20900
  8
0
 10
338.8408782025507
 20
345.48045729116348
 30
0.0
 40
10.00000000000003
 50
210.0000000000002
 51
270.0
  0
LINE
  5
20901
  8
0
 10
352.73595979769652
 20
335.48045729116348
 30
0.0
 11
338.8408782025507
 21
335.48045729116348
 31
0.0
  0
LINE
  5
20902
  8
0
 10
357.42507066524109
 20
352.98045729116348
 30
0.0
 11
352.73595979769652
 21
335.48045729116348
 31
0.0
  0
LINE
  5
20903
  8
0
 10
357.42507066524092
 20
402.98045729116342
 30
0.0
 11
357.42507066524109
 21
352.98045729116348
 31
0.0
  0
LINE
  5
20904
  8
0
 10
352.73595979769618
 20
420.48045729116342
 30
0.0
 11
357.42507066524092
 21
402.98045729116342
 31
0.0
  0
ARC
  5
20905
  8
0
 10
267.42507066524109
 20
347.98045729116348
 30
0.0
 40
4.4999999999999876
 50
161.56505117708579
 51
341.56505117708571
  0
LINE
  5
20906
  8
0
 10
263.15599582401381
 20
349.40348223823912
 30
0.0
 11
265.65599582401381
 21
356.90348223823912
 31
0.0
  0
ARC
  5
20907
  8
0
 10
269.92507066524109
 20
355.48045729116348
 30
0.0
 40
4.4999999999999938
 50
341.56505117708582
 51
161.56505117708571
  0
LINE
  5
20908
  8
0
 10
274.19414550646837
 20
354.05743234408692
 30
0.0
 11
271.69414550646837
 21
346.55743234408692
 31
0.0
  0
ARC
  5
20909
  8
0
 10
267.42507066524092
 20
407.98045729116342
 30
0.0
 40
4.5000000000000018
 50
18.434948822914329
 51
198.43494882291429
  0
LINE
  5
2090A
  8
0
 10
271.6941455064682
 20
409.40348223823912
 30
0.0
 11
274.1941455064682
 21
401.90348223823912
 31
0.0
  0
ARC
  5
2090B
  8
0
 10
269.92507066524092
 20
400.48045729116342
 30
0.0
 40
4.5000000000000018
 50
198.43494882291429
 51
18.434948822914329
  0
LINE
  5
2090C
  8
0
 10
265.65599582401347
 20
399.05743234408692
 30
0.0
 11
263.15599582401347
 21
406.55743234408692
 31
0.0
  0
ARC
  5
2090D
  8
0
 10
344.92507066524109
 20
355.48045729116348
 30
0.0
 40
4.4999999999999973
 50
18.434948822914329
 51
198.43494882291429
  0
LINE
  5
2090E
  8
0
 10
349.19414550646837
 20
356.90348223823912
 30
0.0
 11
351.69414550646837
 21
349.40348223823912
 31
0.0
  0
ARC
  5
2090F
  8
0
 10
347.42507066524121
 20
347.98045729116348
 30
0.0
 40
4.5000000000000009
 50
198.43494882291429
 51
18.434948822914329
  0
LINE
  5
20910
  8
0
 10
343.15599582401393
 20
346.55743234408777
 30
0.0
 11
340.65599582401381
 21
354.05743234408777
 31
0.0
  0
ARC
  5
20911
  8
0
 10
344.92507066524092
 20
400.48045729116342
 30
0.0
 40
4.5000000000000027
 50
161.56505117708571
 51
341.56505117708571
  0
LINE
  5
20912
  8
0
 10
340.6559958240137
 20
401.90348223823912
 30
0.0
 11
343.15599582401347
 21
409.40348223823912
 31
0.0
  0
ARC
  5
20913
  8
0
 10
347.42507066524092
 20
407.98045729116342
 30
0.0
 40
4.5000000000000027
 50
341.56505117708571
 51
161.56505117708571
  0
LINE
  5
20914
  8
0
 10
351.6941455064682
 20
406.55743234408777
 30
0.0
 11
349.19414550646832
 21
399.05743234408789
 31
0.0
  0
LINE
  5
20915
  8
1
 10
307.42507066524109
 20
336.71219016166378
 30
0.0
 11
307.42507066524081
 21
419.24872442066311
 31
0.0
  0
LINE
  5
20916
  8
1
 10
259.95185691577751
 20
347.98045729116262
 30
0.0
 11
274.89828441470479
 21
347.98045729116348
 31
0.0
  0
LINE
  5
20917
  8
1
 10
267.42507066524109
 20
355.45367104062638
 30
0.0
 11
267.42507066524109
 21
340.50724354169961
 31
0.0
  0
LINE
  5
20918
  8
1
 10
262.4518569157774
 20
355.48045729116348
 30
0.0
 11
277.39828441470479
 21
355.48045729116348
 31
0.0
  0
LINE
  5
20919
  8
1
 10
269.92507066524109
 20
362.95367104062638
 30
0.0
 11
269.92507066524109
 21
348.00724354169961
 31
0.0
  0
LINE
  5
2091A
  8
1
 10
259.95185691577723
 20
407.98045729116251
 30
0.0
 11
274.89828441470462
 21
407.98045729116251
 31
0.0
  0
LINE
  5
2091B
  8
1
 10
267.42507066524092
 20
415.45367104062638
 30
0.0
 11
267.42507066524092
 21
400.50724354169949
 31
0.0
  0
LINE
  5
2091C
  8
1
 10
262.45185691577728
 20
400.48045729116342
 30
0.0
 11
277.39828441470462
 21
400.48045729116342
 31
0.0
  0
LINE
  5
2091D
  8
1
 10
269.92507066524092
 20
407.95367104062638
 30
0.0
 11
269.92507066524092
 21
393.00724354169961
 31
0.0
  0
LINE
  5
2091E
  8
1
 10
337.45185691577751
 20
355.48045729116348
 30
0.0
 11
352.39828441470479
 21
355.48045729116348
 31
0.0
  0
LINE
  5
2091F
  8
1
 10
344.92507066524109
 20
362.9536710406274
 30
0.0
 11
344.92507066524109
 21
348.00724354169961
 31
0.0
  0
LINE
  5
20920
  8
1
 10
339.95185691577751
 20
347.98045729116348
 30
0.0
 11
354.89828441470479
 21
347.98045729116348
 31
0.0
  0
LINE
  5
20921
  8
1
 10
347.42507066524121
 20
355.45367104062728
 30
0.0
 11
347.42507066524121
 21
340.50724354169961
 31
0.0
  0
LINE
  5
20922
  8
1
 10
337.45185691577728
 20
400.48045729116342
 30
0.0
 11
352.39828441470462
 21
400.48045729116342
 31
0.0
  0
LINE
  5
20923
  8
1
 10
344.92507066524092
 20
407.95367104062728
 30
0.0
 11
344.92507066524092
 21
393.00724354169961
 31
0.0
  0
LINE
  5
20924
  8
1
 10
339.95185691577728
 20
407.98045729116342
 30
0.0
 11
354.89828441470462
 21
407.98045729116342
 31
0.0
  0
LINE
  5
20925
  8
1
 10
347.42507066524092
 20
415.45367104062728
 30
0.0
 11
347.42507066524092
 21
400.50724354169949
 31
0.0
  0
LINE
  5
20926
  8
0
 10
332.42507066524109
 20
369.34075460890472
 30
0.0
 11
282.42507066524109
 21
369.34075460890472
 31
0.0
  0
LINE
  5
20927
  8
0
 10
332.42507066524098
 20
386.62015997342229
 30
0.0
 11
282.42507066524098
 21
386.62015997342229
 31
0.0
  0
LINE
  5
20928
  8
0
 10
334.06477334749979
 20
384.98045729116348
 30
0.0
 11
334.06477334749979
 21
370.98045729116348
 31
0.0
  0
LINE
  5
20929
  8
0
 10
280.78536798298228
 20
384.98045729116348
 30
0.0
 11
280.78536798298228
 21
370.98045729116348
 31
0.0
  0
ARC
  5
2092A
  8
0
 10
282.42507066524098
 20
370.98045729116348
 30
0.0
 40
1.6397026822587399
 50
180.0
 51
270.0
  0
LINE
  5
2092B
  8
0
 10
339.15481657806731
 20
370.98045729116348
 30
0.0
 11
339.1548165780672
 21
384.98045729116348
 31
0.0
  0
LINE
  5
2092C
  8
0
 10
282.42507066524109
 20
364.25071137833669
 30
0.0
 11
332.42507066524109
 21
364.25071137833669
 31
0.0
  0
ARC
  5
2092D
  8
0
 10
282.42507066524098
 20
370.98045729116348
 30
0.0
 40
6.7297459128262069
 50
180.0
 51
270.0
  0
LINE
  5
2092E
  8
0
 10
275.69532475241482
 20
370.98045729116348
 30
0.0
 11
275.69532475241482
 21
384.98045729116348
 31
0.0
  0
LINE
  5
2092F
  8
0
 10
282.42507066524092
 20
391.71020320398929
 30
0.0
 11
332.42507066524092
 21
391.71020320398929
 31
0.0
  0
ARC
  5
20930
  8
0
 10
282.42507066524098
 20
384.98045729116348
 30
0.0
 40
1.6397026822587499
 50
90.0
 51
180.0
  0
ARC
  5
20931
  8
0
 10
282.42507066524098
 20
384.98045729116348
 30
0.0
 40
6.7297459128262238
 50
90.0
 51
180.0
  0
ARC
  5
20932
  8
0
 10
332.42507066524098
 20
370.98045729116348
 30
0.0
 40
6.729745912826214
 50
270.0
 51
0.0
  0
ARC
  5
20933
  8
0
 10
332.42507066524098
 20
370.98045729116348
 30
0.0
 40
1.6397026822587391
 50
270.0
 51
0.0
  0
ARC
  5
20934
  8
0
 10
332.42507066524098
 20
384.98045729116348
 30
0.0
 40
1.639702682258747
 50
0.0
 51
90.0
  0
ARC
  5
20935
  8
0
 10
332.42507066524098
 20
384.98045729116348
 30
0.0
 40
6.729745912826222
 50
359.99999914622629
 51
90.0
  0
LINE
  5
20936
  8
3
 10
310.65807066524093
 20
413.48045729116342
 30
0.0
 11
310.65807066524093
 21
410.48045729116348
 31
0.0
  0
LINE
  5
20937
  8
3
 10
304.19207066524092
 20
413.48045729116342
 30
0.0
 11
304.19207066524092
 21
410.48045729116348
 31
0.0
  0
LINE
  5
20938
  8
1
 10
245.6088706847969
 20
377.98045729116348
 30
0.0
 11
369.24127064568518
 21
377.98045729116348
 31
0.0
  0
LINE
  5
209B0
  8
1
 10
245.6088706847969
 20
189.74368873142151
 30
0.0
 11
369.24127064568518
 21
189.74368873142151
 31
0.0
  0
LINE
  5
209B1
  8
1
 10
307.42507066524098
 20
127.9274887509773
 30
0.0
 11
307.42507066524098
 21
279.55988871186401
 31
0.0
  0
LINE
  5
209B2
  8
1
 10
452.55568370057131
 20
189.74368873142251
 30
0.0
 11
537.73449106471162
 21
189.74368873142251
 31
0.0
  0
LINE
  5
209B3
  8
1
 10
495.14508738264152
 20
127.9274887509782
 30
0.0
 11
495.14508738264152
 21
279.55988871186491
 31
0.0
  0
LINE
  5
209B5
  8
3
 10
530.14508738264135
 20
186.51068873142231
 30
0.0
 11
527.64508738264135
 21
186.51068873142231
 31
0.0
  0
LINE
  5
209B7
  8
3
 10
530.14508738264135
 20
192.9766887314226
 30
0.0
 11
529.71302387317985
 21
192.9766887314226
 31
0.0
  0
LINE
  5
209B8
  8
0
 10
87.205053947840597
 20
185.74368873142251
 30
0.0
 11
85.472053947840564
 21
185.74368873142251
 31
0.0
  0
LINE
  5
209B9
  8
0
 10
84.705053947840597
 20
192.9766887314226
 30
0.0
 11
84.92108570257119
 21
193.19272048615309
 31
0.0
  0
LINE
  5
209BA
  8
0
 10
85.472053947840564
 20
185.74368873142251
 30
0.0
 11
84.705053947840597
 21
186.51068873142231
 31
0.0
  0
LINE
  5
209BB
  8
0
 10
150.00505394784059
 20
183.4853553980893
 30
0.0
 11
149.74563423842511
 21
182.51718786206581
 31
0.0
  0
LINE
  5
209BC
  8
0
 10
89.705053947840597
 20
183.9286887314228
 30
0.0
 11
87.205053947840597
 21
183.9286887314228
 31
0.0
  0
LINE
  5
209BD
  8
0
 10
89.964473657256136
 20
182.51718786206581
 30
0.0
 11
89.705053947840597
 21
183.4853553980893
 31
0.0
  0
LINE
  5
209BE
  8
0
 10
97.205053947840625
 20
195.74368873142251
 30
0.0
 11
104.7050539478406
 21
195.74368873142251
 31
0.0
  0
LINE
  5
209BF
  8
0
 10
134.70505394784061
 20
195.74368873142251
 30
0.0
 11
142.20505394784061
 21
195.74368873142251
 31
0.0
  0
LINE
  5
209C0
  8
0
 10
142.20505394784061
 20
183.74368873142251
 30
0.0
 11
134.70505394784061
 21
183.74368873142251
 31
0.0
  0
LINE
  5
209C1
  8
0
 10
104.7050539478406
 20
183.74368873142251
 30
0.0
 11
97.205053947840625
 21
183.74368873142251
 31
0.0
  0
LINE
  5
209C2
  8
0
 10
85.472053947840564
 20
185.74368873142251
 30
0.0
 11
85.472053947840564
 21
192.6445084616989
 31
0.0
  0
LINE
  5
209C3
  8
0
 10
84.705053947840597
 20
186.51068873142231
 30
0.0
 11
84.705053947840597
 21
192.9766887314226
 31
0.0
  0
LINE
  5
209C4
  8
0
 10
150.00505394784059
 20
183.4853553980893
 30
0.0
 11
150.00505394784059
 21
188.35980614146951
 31
0.0
  0
LINE
  5
209C5
  8
0
 10
149.74563423842511
 20
182.51718786206581
 30
0.0
 11
146.2023128693599
 21
182.51718786206581
 31
0.0
  0
POLYLINE
  5
209C6
  8
0
 66
     1
 10
0.0
 20
0.0
 30
0.0
  0
VERTEX
  5
272BF
  8
0
 10
149.74563423842511
 20
182.51718786206581
 30
0.0
  0
VERTEX
  5
272C0
  8
0
 10
149.82647889168331
 20
182.84176175773791
 30
0.0
  0
VERTEX
  5
272C1
  8
0
 10
149.94108923043629
 20
183.4513223365102
 30
0.0
  0
VERTEX
  5
272C2
  8
0
 10
149.99786381422069
 20
184.03373050808571
 30
0.0
  0
VERTEX
  5
272C3
  8
0
 10
150.00505394784059
 20
184.3238130794052
 30
0.0
  0
SEQEND
  5
272C4
  8
0
  0
POLYLINE
  5
209C7
  8
0
 66
     1
 10
0.0
 20
0.0
 30
0.0
  0
VERTEX
  5
272C5
  8
0
 10
150.00505394784059
 20
184.3238130794052
 30
0.0
  0
VERTEX
  5
272C6
  8
0
 10
149.99786381422069
 20
184.61389565072469
 30
0.0
  0
VERTEX
  5
272C7
  8
0
 10
149.94108923043629
 20
185.19630382230019
 30
0.0
  0
VERTEX
  5
272C8
  8
0
 10
149.82647889168331
 20
185.80586440107251
 30
0.0
  0
VERTEX
  5
272C9
  8
0
 10
149.74563423842511
 20
186.13043829674459
 30
0.0
  0
SEQEND
  5
272CA
  8
0
  0
LINE
  5
209C8
  8
0
 10
149.74563423842511
 20
186.13043829674459
 30
0.0
 11
148.5955158779548
 21
186.13043829674459
 31
0.0
  0
POLYLINE
  5
209C9
  8
0
 66
     1
 10
0.0
 20
0.0
 30
0.0
  0
VERTEX
  5
272CB
  8
0
 10
149.74563423842511
 20
186.13043829674459
 30
0.0
  0
VERTEX
  5
272CC
  8
0
 10
149.79472322984981
 20
186.51238647723949
 30
0.0
  0
VERTEX
  5
272CD
  8
0
 10
149.87631444809861
 20
187.24476272127049
 30
0.0
  0
VERTEX
  5
272CE
  8
0
 10
149.9372403013806
 20
187.94596260111661
 30
0.0
  0
VERTEX
  5
272CF
  8
0
 10
149.96032761138949
 20
188.28864350057569
 30
0.0
  0
SEQEND
  5
272D0
  8
0
  0
LINE
  5
209CA
  8
0
 10
87.205053947840597
 20
183.9286887314228
 30
0.0
 11
87.205053947840597
 21
190.90908718920579
 31
0.0
  0
LINE
  5
209CB
  8
0
 10
89.705053947840597
 20
183.4853553980893
 30
0.0
 11
89.705053947840597
 21
187.92055364347291
 31
0.0
  0
LINE
  5
209CC
  8
0
 10
93.207795026321264
 20
182.51718786206581
 30
0.0
 11
89.964473657256136
 21
182.51718786206581
 31
0.0
  0
POLYLINE
  5
209CD
  8
0
 66
     1
 10
0.0
 20
0.0
 30
0.0
  0
VERTEX
  5
272D1
  8
0
 10
89.964473657256136
 20
186.13043829674459
 30
0.0
  0
VERTEX
  5
272D2
  8
0
 10
89.883629003998067
 20
185.80586440107251
 30
0.0
  0
VERTEX
  5
272D3
  8
0
 10
89.769018665244985
 20
185.19630382230019
 30
0.0
  0
VERTEX
  5
272D4
  8
0
 10
89.712244081460554
 20
184.61389565072469
 30
0.0
  0
VERTEX
  5
272D5
  8
0
 10
89.705053947840597
 20
184.3238130794052
 30
0.0
  0
SEQEND
  5
272D6
  8
0
  0
POLYLINE
  5
209CE
  8
0
 66
     1
 10
0.0
 20
0.0
 30
0.0
  0
VERTEX
  5
272D7
  8
0
 10
89.705053947840597
 20
184.3238130794052
 30
0.0
  0
VERTEX
  5
272D8
  8
0
 10
89.712244081460554
 20
184.03373050808571
 30
0.0
  0
VERTEX
  5
272D9
  8
0
 10
89.769018665244985
 20
183.4513223365102
 30
0.0
  0
VERTEX
  5
272DA
  8
0
 10
89.883629003997953
 20
182.84176175773791
 30
0.0
  0
VERTEX
  5
272DB
  8
0
 10
89.964473657256136
 20
182.51718786206581
 30
0.0
  0
SEQEND
  5
272DC
  8
0
  0
LINE
  5
209CF
  8
0
 10
90.814592017726454
 20
186.13043829674459
 30
0.0
 11
89.964473657256136
 21
186.13043829674459
 31
0.0
  0
POLYLINE
  5
209D0
  8
0
 66
     1
 10
0.0
 20
0.0
 30
0.0
  0
VERTEX
  5
272DD
  8
0
 10
89.7833383865526
 20
187.80920004290871
 30
0.0
  0
VERTEX
  5
272DE
  8
0
 10
89.805857667500618
 20
187.5413360070952
 30
0.0
  0
VERTEX
  5
272DF
  8
0
 10
89.859833179332895
 20
186.99344339916479
 30
0.0
  0
VERTEX
  5
272E0
  8
0
 10
89.926290414773135
 20
186.42460652542741
 30
0.0
  0
VERTEX
  5
272E1
  8
0
 10
89.964473657256136
 20
186.13043829674459
 30
0.0
  0
SEQEND
  5
272E2
  8
0
  0
LINE
  5
209D1
  8
0
 10
160.20505394784061
 20
265.74368873142248
 30
0.0
 11
79.205053947840611
 21
265.74368873142248
 31
0.0
  0
LINE
  5
209D2
  8
0
 10
79.205053947840611
 20
265.74368873142248
 30
0.0
 11
79.205053947840611
 21
205.54817315836041
 31
0.0
  0
LINE
  5
209D3
  8
0
 10
97.205053947840625
 20
265.74368873142248
 30
0.0
 11
97.205053947840625
 21
180.7436887314224
 31
0.0
  0
LINE
  5
209D4
  8
0
 10
142.20505394784061
 20
265.74368873142248
 30
0.0
 11
142.20505394784061
 21
180.7436887314224
 31
0.0
  0
LINE
  5
209D5
  8
0
 10
160.20505394784061
 20
265.74368873142248
 30
0.0
 11
160.20505394784061
 21
205.54817315836041
 31
0.0
  0
POLYLINE
  5
209D6
  8
0
 66
     1
 10
0.0
 20
0.0
 30
0.0
  0
VERTEX
  5
272E3
  8
0
 10
160.20505394784061
 20
205.54817315836041
 30
0.0
  0
VERTEX
  5
272E4
  8
0
 10
160.20494269408039
 20
205.46132351252069
 30
0.0
  0
VERTEX
  5
272E5
  8
0
 10
160.20401432070051
 20
205.28907744047771
 30
0.0
  0
VERTEX
  5
272E6
  8
0
 10
160.20205922385259
 20
205.11886450240311
 30
0.0
  0
VERTEX
  5
272E7
  8
0
 10
160.2006644770226
 20
205.0345557103546
 30
0.0
  0
VERTEX
  5
272E8
  8
0
 10
160.19897443546739
 20
204.9507971511421
 30
0.0
  0
VERTEX
  5
272E9
  8
0
 10
160.19465713321469
 20
204.78498484175361
 30
0.0
  0
VERTEX
  5
272EA
  8
0
 10
160.1890051568358
 20
204.62153344949729
 30
0.0
  0
VERTEX
  5
272EB
  8
0
 10
160.18191743559871
 20
204.46054321356499
 30
0.0
  0
VERTEX
  5
272EC
  8
0
 10
160.17329440080741
 20
204.30210847092081
 30
0.0
  0
VERTEX
  5
272ED
  8
0
 10
160.16303875239521
 20
204.14632282292129
 30
0.0
  0
VERTEX
  5
272EE
  8
0
 10
160.15726905528791
 20
204.06945207686749
 30
0.0
  0
VERTEX
  5
272EF
  8
0
 10
160.15105604204601
 20
203.9932776610994
 30
0.0
  0
VERTEX
  5
272F0
  8
0
 10
160.1372552651157
 20
203.84306139832731
 30
0.0
  0
VERTEX
  5
272F1
  8
0
 10
160.12154943156679
 20
203.6957587243669
 30
0.0
  0
VERTEX
  5
272F2
  8
0
 10
160.1038561033015
 20
203.55144986686449
 30
0.0
  0
VERTEX
  5
272F3
  8
0
 10
160.08409788424041
 20
203.41020985699009
 30
0.0
  0
VERTEX
  5
272F4
  8
0
 10
160.06220284762591
 20
203.27210780005501
 30
0.0
  0
VERTEX
  5
272F5
  8
0
 10
160.05043312849929
 20
203.2042533009344
 30
0.0
  0
VERTEX
  5
272F6
  8
0
 10
160.03809111096649
 20
203.13713337222089
 30
0.0
  0
VERTEX
  5
272F7
  8
0
 10
160.01124071304969
 20
203.00318438778689
 30
0.0
  0
VERTEX
  5
272F8
  8
0
 10
159.98127956371269
 20
202.86965882275041
 30
0.0
  0
VERTEX
  5
272F9
  8
0
 10
159.96507890915871
 20
202.80321381140769
 30
0.0
  0
SEQEND
  5
272FA
  8
0
  0
POLYLINE
  5
209D7
  8
0
 66
     1
 10
0.0
 20
0.0
 30
0.0
  0
VERTEX
  5
272FB
  8
0
 10
162.01413073417879
 20
202.80321381140769
 30
0.0
  0
VERTEX
  5
272FC
  8
0
 10
162.02652355149709
 20
202.86737803727831
 30
0.0
  0
VERTEX
  5
272FD
  8
0
 10
162.0498257623307
 20
202.9980540033512
 30
0.0
  0
VERTEX
  5
272FE
  8
0
 10
162.07119201781541
 20
203.13181860711671
 30
0.0
  0
VERTEX
  5
272FF
  8
0
 10
162.0811659987846
 20
203.19984223545001
 30
0.0
  0
VERTEX
  5
27300
  8
0
 10
162.0906767677358
 20
203.2686170308352
 30
0.0
  0
VERTEX
  5
27301
  8
0
 10
162.1083389703484
 20
203.40838904401059
 30
0.0
  0
VERTEX
  5
27302
  8
0
 10
162.1242418160154
 20
203.55106955875451
 30
0.0
  0
VERTEX
  5
27303
  8
0
 10
162.13845239984079
 20
203.69658920147501
 30
0.0
  0
VERTEX
  5
27304
  8
0
 10
162.15104135377379
 20
203.8448748991004
 30
0.0
  0
VERTEX
  5
27305
  8
0
 10
162.1620824476816
 20
203.9958504787819
 30
0.0
  0
VERTEX
  5
27306
  8
0
 10
162.16704635486761
 20
204.07232247330381
 30
0.0
  0
VERTEX
  5
27307
  8
0
 10
162.17165216796309
 20
204.14943728061371
 30
0.0
  0
VERTEX
  5
27308
  8
0
 10
162.17982929374909
 20
204.30555504232689
 30
0.0
  0
VERTEX
  5
27309
  8
0
 10
162.1866944664076
 20
204.46412317331399
 30
0.0
  0
VERTEX
  5
2730A
  8
0
 10
162.1923295004743
 20
204.62505466349009
 30
0.0
  0
VERTEX
  5
2730B
  8
0
 10
162.19681718765369
 20
204.78825793566921
 30
0.0
  0
VERTEX
  5
2730C
  8
0
 10
162.20024098774721
 20
204.95363795671531
 30
0.0
  0
VERTEX
  5
2730D
  8
0
 10
162.2015801051657
 20
205.03711371823189
 30
0.0
  0
VERTEX
  5
2730E
  8
0
 10
162.20268466677589
 20
205.12109669757771
 30
0.0
  0
VERTEX
  5
2730F
  8
0
 10
162.20423192582999
 20
205.29053360376659
 30
0.0
  0
VERTEX
  5
27310
  8
0
 10
162.20496602590941
 20
205.46184607910621
 30
0.0
  0
VERTEX
  5
27311
  8
0
 10
162.20505394784061
 20
205.54817315836041
 30
0.0
  0
SEQEND
  5
27312
  8
0
  0
LINE
  5
209D8
  8
0
 10
162.20505394784061
 20
205.54817315836041
 30
0.0
 11
162.20505394784061
 21
267.74368873142248
 31
0.0
  0
POLYLINE
  5
209D9
  8
0
 66
     1
 10
0.0
 20
0.0
 30
0.0
  0
VERTEX
  5
27313
  8
0
 10
159.96507890915871
 20
202.80321381140769
 30
0.0
  0
VERTEX
  5
27314
  8
0
 10
159.91985332961821
 20
202.6309106702756
 30
0.0
  0
VERTEX
  5
27315
  8
0
 10
159.817950586004
 20
202.2895384423982
 30
0.0
  0
VERTEX
  5
27316
  8
0
 10
159.70095061581611
 20
201.95304152696099
 30
0.0
  0
VERTEX
  5
27317
  8
0
 10
159.636860520939
 20
201.7868302601118
 30
0.0
  0
VERTEX
  5
27318
  8
0
 10
159.5690854430982
 20
201.6220872350323
 30
0.0
  0
VERTEX
  5
27319
  8
0
 10
159.42261657125451
 20
201.29733188603319
 30
0.0
  0
VERTEX
  5
2731A
  8
0
 10
159.26183446446049
 20
200.9794195061904
 30
0.0
  0
VERTEX
  5
2731B
  8
0
 10
159.0870579716395
 20
200.66898055135519
 30
0.0
  0
VERTEX
  5
2731C
  8
0
 10
158.8986336941492
 20
200.36663065673841
 30
0.0
  0
VERTEX
  5
2731D
  8
0
 10
158.69693529843289
 20
200.07296941604179
 30
0.0
  0
VERTEX
  5
2731E
  8
0
 10
158.59123229632911
 20
199.92957973428199
 30
0.0
  0
VERTEX
  5
2731F
  8
0
 10
158.4823627749966
 20
199.78857919238999
 30
0.0
  0
VERTEX
  5
27320
  8
0
 10
158.25534164518359
 20
199.5140239634456
 30
0.0
  0
VERTEX
  5
27321
  8
0
 10
158.01632211731749
 20
199.2498482029732
 30
0.0
  0
VERTEX
  5
27322
  8
0
 10
157.76577819388899
 20
198.99657580109121
 30
0.0
  0
VERTEX
  5
27323
  8
0
 10
157.50420673155571
 20
198.7547090253338
 30
0.0
  0
VERTEX
  5
27324
  8
0
 10
157.23212645581981
 20
198.52472752460471
 30
0.0
  0
VERTEX
  5
27325
  8
0
 10
157.09231334211
 20
198.41433722284
 30
0.0
  0
VERTEX
  5
27326
  8
0
 10
156.95007693233751
 20
198.30708737797249
 30
0.0
  0
VERTEX
  5
27327
  8
0
 10
156.65861749689941
 20
198.10222019022331
 30
0.0
  0
VERTEX
  5
27328
  8
0
 10
156.35832614620551
 20
197.9105322359309
 30
0.0
  0
VERTEX
  5
27329
  8
0
 10
156.20505394784061
 20
197.81975030657659
 30
0.0
  0
SEQEND
  5
2732A
  8
0
  0
LINE
  5
209DA
  8
0
 10
156.20505394784061
 20
197.81975030657659
 30
0.0
 11
155.24085491875999
 21
197.2630697375844
 31
0.0
  0
POLYLINE
  5
209DB
  8
0
 66
     1
 10
0.0
 20
0.0
 30
0.0
  0
VERTEX
  5
2732B
  8
0
 10
158.8365330069542
 20
197.2630697375844
 30
0.0
  0
VERTEX
  5
2732C
  8
0
 10
158.9706004579987
 20
197.38402928283631
 30
0.0
  0
VERTEX
  5
2732D
  8
0
 10
159.23207458745969
 20
197.63311123850411
 30
0.0
  0
VERTEX
  5
2732E
  8
0
 10
159.4843847412873
 20
197.89147169850551
 30
0.0
  0
VERTEX
  5
2732F
  8
0
 10
159.6070000239695
 20
198.0240265379862
 30
0.0
  0
VERTEX
  5
27330
  8
0
 10
159.72720188044471
 20
198.1587737335667
 30
0.0
  0
VERTEX
  5
27331
  8
0
 10
159.96020934578709
 20
198.434668753659
 30
0.0
  0
VERTEX
  5
27332
  8
0
 10
160.18310327101841
 20
198.71879696259199
 30
0.0
  0
VERTEX
  5
27333
  8
0
 10
160.39559297896469
 20
199.01078782723289
 30
0.0
  0
VERTEX
  5
27334
  8
0
 10
160.5974013606484
 20
199.3102605607146
 30
0.0
  0
VERTEX
  5
27335
  8
0
 10
160.788265236667
 20
199.6168246190245
 30
0.0
  0
VERTEX
  5
27336
  8
0
 10
160.87951463519951
 20
199.77264130710591
 30
0.0
  0
VERTEX
  5
27337
  8
0
 10
160.96793570040731
 20
199.9300802103171
 30
0.0
  0
VERTEX
  5
27338
  8
0
 10
161.1361784426453
 20
200.24961881628039
 30
0.0
  0
VERTEX
  5
27339
  8
0
 10
161.2927740571109
 20
200.57502372488941
 30
0.0
  0
VERTEX
  5
2733A
  8
0
 10
161.4375183266159
 20
200.90587057384249
 30
0.0
  0
VERTEX
  5
2733B
  8
0
 10
161.57022248937531
 20
201.24172790397461
 30
0.0
  0
VERTEX
  5
2733C
  8
0
 10
161.69071348517249
 20
201.58215772192301
 30
0.0
  0
VERTEX
  5
2733D
  8
0
 10
161.74632931350561
 20
201.7539487946124
 30
0.0
  0
VERTEX
  5
2733E
  8
0
 10
161.79883418104811
 20
201.92671607132161
 30
0.0
  0
VERTEX
  5
2733F
  8
0
 10
161.89444357621781
 20
202.2749536117617
 30
0.0
  0
VERTEX
  5
27340
  8
0
 10
161.97741698595169
 20
202.62641620478371
 30
0.0
  0
VERTEX
  5
27341
  8
0
 10
162.01413073417879
 20
202.80321381140769
 30
0.0
  0
SEQEND
  5
27342
  8
0
  0
POLYLINE
  5
209DC
  8
0
 66
     1
 10
0.0
 20
0.0
 30
0.0
  0
VERTEX
  5
27343
  8
0
 10
155.24085491875999
 20
197.2630697375844
 30
0.0
  0
VERTEX
  5
27344
  8
0
 10
155.15211359491559
 20
197.2114609588225
 30
0.0
  0
VERTEX
  5
27345
  8
0
 10
154.9765927942334
 20
197.10713248354199
 30
0.0
  0
VERTEX
  5
27346
  8
0
 10
154.80371867263909
 20
197.0013412081953
 30
0.0
  0
VERTEX
  5
27347
  8
0
 10
154.71828556643379
 20
196.94790400187591
 30
0.0
  0
VERTEX
  5
27348
  8
0
 10
154.63352779925819
 20
196.89410951146141
 30
0.0
  0
VERTEX
  5
27349
  8
0
 10
154.46605617561201
 20
196.78546007671949
 30
0.0
  0
VERTEX
  5
2734A
  8
0
 10
154.30133922800229
 20
196.67541588725359
 30
0.0
  0
VERTEX
  5
2734B
  8
0
 10
154.1394118000174
 20
196.56400022138669
 30
0.0
  0
VERTEX
  5
2734C
  8
0
 10
153.9803081451613
 20
196.45123664756011
 30
0.0
  0
VERTEX
  5
2734D
  8
0
 10
153.8240619196078
 20
196.337149019344
 30
0.0
  0
VERTEX
  5
2734E
  8
0
 10
153.74702069528689
 20
196.2796162158065
 30
0.0
  0
VERTEX
  5
2734F
  8
0
 10
153.67070617508139
 20
196.22176147039681
 30
0.0
  0
VERTEX
  5
27350
  8
0
 10
153.52027335186531
 20
196.10509840935529
 30
0.0
  0
VERTEX
  5
27351
  8
0
 10
153.37279527193891
 20
195.9871845146736
 30
0.0
  0
VERTEX
  5
27352
  8
0
 10
153.22830313224699
 20
195.86804472940361
 30
0.0
  0
VERTEX
  5
27353
  8
0
 10
153.08682749809981
 20
195.7477042559149
 30
0.0
  0
VERTEX
  5
27354
  8
0
 10
152.94839829670781
 20
195.62618855056911
 30
0.0
  0
VERTEX
  5
27355
  8
0
 10
152.880335284507
 20
195.56499800918749
 30
0.0
  0
VERTEX
  5
27356
  8
0
 10
152.8130448108505
 20
195.50352331832801
 30
0.0
  0
VERTEX
  5
27357
  8
0
 10
152.6807956726829
 20
195.3797345073244
 30
0.0
  0
VERTEX
  5
27358
  8
0
 10
152.55167885767781
 20
195.2548483033643
 30
0.0
  0
VERTEX
  5
27359
  8
0
 10
152.48830363267581
 20
195.1920019257195
 30
0.0
  0
SEQEND
  5
2735A
  8
0
  0
POLYLINE
  5
209DD
  8
0
 66
     1
 10
0.0
 20
0.0
 30
0.0
  0
VERTEX
  5
2735B
  8
0
 10
156.48830363267589
 20
195.1920019257195
 30
0.0
  0
VERTEX
  5
2735C
  8
0
 10
156.60159838019729
 20
195.3036228925566
 30
0.0
  0
VERTEX
  5
2735D
  8
0
 10
156.83564361903811
 20
195.52427956680091
 30
0.0
  0
VERTEX
  5
2735E
  8
0
 10
157.0794985831003
 20
195.74136636510411
 30
0.0
  0
VERTEX
  5
2735F
  8
0
 10
157.20505394784061
 20
195.84852554718691
 30
0.0
  0
SEQEND
  5
27360
  8
0
  0
LINE
  5
209DE
  8
0
 10
157.20505394784061
 20
195.84852554718691
 30
0.0
 11
158.8365330069542
 21
197.2630697375844
 31
0.0
  0
LINE
  5
209DF
  8
0
 10
152.48830363267581
 20
195.1920019257195
 30
0.0
 11
150.95505394784061
 21
193.6587522408835
 31
0.0
  0
POLYLINE
  5
209E0
  8
0
 66
     1
 10
0.0
 20
0.0
 30
0.0
  0
VERTEX
  5
27361
  8
0
 10
150.95505394784061
 20
193.6587522408835
 30
0.0
  0
VERTEX
  5
27362
  8
0
 10
150.7882233283795
 20
193.4897874026928
 30
0.0
  0
VERTEX
  5
27363
  8
0
 10
150.4578446684813
 20
193.1423365546006
 30
0.0
  0
VERTEX
  5
27364
  8
0
 10
150.13197685784661
 20
192.78233269550401
 30
0.0
  0
VERTEX
  5
27365
  8
0
 10
149.9707842842262
 20
192.5976780287792
 30
0.0
  0
VERTEX
  5
27366
  8
0
 10
149.8107788569281
 20
192.409951437643
 30
0.0
  0
VERTEX
  5
27367
  8
0
 10
149.49440734821479
 20
192.02537443103481
 30
0.0
  0
VERTEX
  5
27368
  8
0
 10
149.18301665980121
 20
191.62878927486321
 30
0.0
  0
VERTEX
  5
27369
  8
0
 10
148.87675869010491
 20
191.2203894259637
 30
0.0
  0
VERTEX
  5
2736A
  8
0
 10
148.57578283376989
 20
190.80037410446039
 30
0.0
  0
VERTEX
  5
2736B
  8
0
 10
148.2802359087903
 20
190.3689481965757
 30
0.0
  0
VERTEX
  5
2736C
  8
0
 10
148.1345434539783
 20
190.1490218244717
 30
0.0
  0
VERTEX
  5
2736D
  8
0
 10
147.99026208489249
 20
189.92632215469621
 30
0.0
  0
VERTEX
  5
2736E
  8
0
 10
147.70600281320719
 20
189.472711894703
 30
0.0
  0
VERTEX
  5
2736F
  8
0
 10
147.42759675726921
 20
189.00833869065349
 30
0.0
  0
VERTEX
  5
27370
  8
0
 10
147.15517972537651
 20
188.5334290668379
 30
0.0
  0
VERTEX
  5
27371
  8
0
 10
146.8888846043418
 20
188.04821468728181
 30
0.0
  0
VERTEX
  5
27372
  8
0
 10
146.6288412946696
 20
187.55293224273919
 30
0.0
  0
VERTEX
  5
27373
  8
0
 10
146.501203830809
 20
187.3015908080888
 30
0.0
  0
VERTEX
  5
27374
  8
0
 10
146.3751766471899
 20
187.0478233352305
 30
0.0
  0
VERTEX
  5
27375
  8
0
 10
146.12801440117931
 20
186.53313436018831
 30
0.0
  0
VERTEX
  5
27376
  8
0
 10
145.8874751240007
 20
186.00911638626889
 30
0.0
  0
VERTEX
  5
27377
  8
0
 10
145.7697258941981
 20
185.74368873142251
 30
0.0
  0
SEQEND
  5
27378
  8
0
  0
POLYLINE
  5
209E1
  8
0
 66
     1
 10
0.0
 20
0.0
 30
0.0
  0
VERTEX
  5
27379
  8
0
 10
148.3828029365516
 20
185.74368873142251
 30
0.0
  0
VERTEX
  5
2737A
  8
0
 10
148.4700468647618
 20
185.90399075055211
 30
0.0
  0
VERTEX
  5
2737B
  8
0
 10
148.64679830206239
 20
186.22084798319429
 30
0.0
  0
VERTEX
  5
2737C
  8
0
 10
148.82652809188471
 20
186.5326384987529
 30
0.0
  0
VERTEX
  5
2737D
  8
0
 10
148.91749477273601
 20
186.6866074413683
 30
0.0
  0
VERTEX
  5
2737E
  8
0
 10
149.00918782707589
 20
186.83927832177139
 30
0.0
  0
VERTEX
  5
2737F
  8
0
 10
149.19472831135209
 20
187.14068486404361
 30
0.0
  0
VERTEX
  5
27380
  8
0
 10
149.38309957254901
 20
187.43677694685991
 30
0.0
  0
VERTEX
  5
27381
  8
0
 10
149.57425087608041
 20
187.72747482286829
 30
0.0
  0
VERTEX
  5
27382
  8
0
 10
149.76813073860379
 20
188.0127001975543
 30
0.0
  0
VERTEX
  5
27383
  8
0
 10
149.9646869418853
 20
188.2923762503296
 30
0.0
  0
VERTEX
  5
27384
  8
0
 10
150.0639521556227
 20
188.43010968269209
 30
0.0
  0
VERTEX
  5
27385
  8
0
 10
150.1638665468646
 20
188.5664276552188
 30
0.0
  0
VERTEX
  5
27386
  8
0
 10
150.36561590791271
 20
188.83478060115249
 30
0.0
  0
VERTEX
  5
27387
  8
0
 10
150.56988068728069
 20
189.0973628118418
 30
0.0
  0
VERTEX
  5
27388
  8
0
 10
150.77660586973491
 20
189.35410356524699
 30
0.0
  0
VERTEX
  5
27389
  8
0
 10
150.98573577737361
 20
189.60493371262601
 30
0.0
  0
VERTEX
  5
2738A
  8
0
 10
151.19721408462371
 20
189.8497856971571
 30
0.0
  0
VERTEX
  5
2738B
  8
0
 10
151.3038161129935
 20
189.96994920662561
 30
0.0
  0
VERTEX
  5
2738C
  8
0
 10
151.41098383341071
 20
190.0885935721353
 30
0.0
  0
VERTEX
  5
2738D
  8
0
 10
151.62698744849911
 20
190.32129301873371
 30
0.0
  0
VERTEX
  5
2738E
  8
0
 10
151.84516675300009
 20
190.54782136332591
 30
0.0
  0
VERTEX
  5
2738F
  8
0
 10
151.95505394784061
 20
190.65875224088359
 30
0.0
  0
SEQEND
  5
27390
  8
0
  0
LINE
  5
209E2
  8
0
 10
151.95505394784061
 20
190.65875224088359
 30
0.0
 11
156.48830363267589
 21
195.1920019257195
 31
0.0
  0
POLYLINE
  5
209E3
  8
0
 66
     1
 10
0.0
 20
0.0
 30
0.0
  0
VERTEX
  5
27391
  8
0
 10
145.7697258941981
 20
185.74368873142251
 30
0.0
  0
VERTEX
  5
27392
  8
0
 10
145.65764199488081
 20
185.4937473707659
 30
0.0
  0
VERTEX
  5
27393
  8
0
 10
145.4274649209064
 20
185.01130185110739
 30
0.0
  0
VERTEX
  5
27394
  8
0
 10
145.19251661427029
 20
184.55374328829021
 30
0.0
  0
VERTEX
  5
27395
  8
0
 10
145.07443689477881
 20
184.33487412040901
 30
0.0
  0
VERTEX
  5
27396
  8
0
 10
144.956563513113
 20
184.12289991024861
 30
0.0
  0
VERTEX
  5
27397
  8
0
 10
144.72317203699231
 20
183.720407517133
 30
0.0
  0
VERTEX
  5
27398
  8
0
 10
144.49007574248191
 20
183.33875664060989
 30
0.0
  0
VERTEX
  5
27399
  8
0
 10
144.2554348934618
 20
182.97288859687521
 30
0.0
  0
VERTEX
  5
2739A
  8
0
 10
144.0223763312211
 20
182.62623435240221
 30
0.0
  0
VERTEX
  5
2739B
  8
0
 10
143.79394484222919
 20
182.30190841930289
 30
0.0
  0
VERTEX
  5
2739C
  8
0
 10
143.68237684960749
 20
182.1490052585122
 30
0.0
  0
VERTEX
  5
2739D
  8
0
 10
143.573042770813
 20
182.00271595188951
 30
0.0
  0
VERTEX
  5
2739E
  8
0
 10
143.36241268451229
 20
181.73119794542981
 30
0.0
  0
VERTEX
  5
2739F
  8
0
 10
143.16456342689759
 20
181.4895813347002
 30
0.0
  0
VERTEX
  5
273A0
  8
0
 10
142.98160648709941
 20
181.27962900835701
 30
0.0
  0
VERTEX
  5
273A1
  8
0
 10
142.81548076205061
 20
181.10294123449151
 30
0.0
  0
VERTEX
  5
273A2
  8
0
 10
142.6678485111633
 20
180.96081428589241
 30
0.0
  0
VERTEX
  5
273A3
  8
0
 10
142.60137842609481
 20
180.9029958474411
 30
0.0
  0
VERTEX
  5
273A4
  8
0
 10
142.53997231936091
 20
180.85410181597581
 30
0.0
  0
VERTEX
  5
273A5
  8
0
 10
142.43270635032741
 20
180.7832041038055
 30
0.0
  0
VERTEX
  5
273A6
  8
0
 10
142.34649442532319
 20
180.7480417097286
 30
0.0
  0
VERTEX
  5
273A7
  8
0
 10
142.31129837671619
 20
180.7436887314224
 30
0.0
  0
SEQEND
  5
273A8
  8
0
  0
POLYLINE
  5
209E4
  8
0
 66
     1
 10
0.0
 20
0.0
 30
0.0
  0
VERTEX
  5
273A9
  8
0
 10
144.3251081459847
 20
180.7436887314224
 30
0.0
  0
VERTEX
  5
273AA
  8
0
 10
144.33145046012771
 20
180.7438137398257
 30
0.0
  0
VERTEX
  5
273AB
  8
0
 10
144.34464442563771
 20
180.74481532842941
 30
0.0
  0
VERTEX
  5
273AC
  8
0
 10
144.35851894494641
 20
180.74682217372259
 30
0.0
  0
VERTEX
  5
273AD
  8
0
 10
144.36571185684889
 20
180.74820365295909
 30
0.0
  0
VERTEX
  5
273AE
  8
0
 10
144.37307539004891
 20
180.7498376948424
 30
0.0
  0
VERTEX
  5
273AF
  8
0
 10
144.3883147272648
 20
180.75386487797459
 30
0.0
  0
VERTEX
  5
273B0
  8
0
 10
144.404237515939
 20
180.75890627195071
 30
0.0
  0
VERTEX
  5
273B1
  8
0
 10
144.4208439084245
 20
180.76496398569091
 30
0.0
  0
VERTEX
  5
273B2
  8
0
 10
144.43813365133079
 20
180.77203968744649
 30
0.0
  0
VERTEX
  5
273B3
  8
0
 10
144.45610608801229
 20
180.78013460580669
 30
0.0
  0
VERTEX
  5
273B4
  8
0
 10
144.46534800193979
 20
180.78456453556549
 30
0.0
  0
VERTEX
  5
273B5
  8
0
 10
144.47476016227569
 20
180.78924953243131
 30
0.0
  0
VERTEX
  5
273B6
  8
0
 10
144.49409442327689
 20
180.7993848264577
 30
0.0
  0
VERTEX
  5
273B7
  8
0
 10
144.51410703158029
 20
180.81054042054981
 30
0.0
  0
VERTEX
  5
273B8
  8
0
 10
144.53479576634791
 20
180.82271582853349
 30
0.0
  0
VERTEX
  5
273B9
  8
0
 10
144.5561580336248
 20
180.8359101545866
 30
0.0
  0
VERTEX
  5
273BA
  8
0
 10
144.57819087568811
 20
180.85012210392779
 30
0.0
  0
VERTEX
  5
273BB
  8
0
 10
144.58945774104069
 20
180.85760917657899
 30
0.0
  0
VERTEX
  5
273BC
  8
0
 10
144.60089098141941
 20
180.8653499949541
 30
0.0
  0
VERTEX
  5
273BD
  8
0
 10
144.6242546976635
 20
180.88159177280249
 30
0.0
  0
VERTEX
  5
273BE
  8
0
 10
144.6482780415343
 20
180.89884502425679
 30
0.0
  0
VERTEX
  5
273BF
  8
0
 10
144.66053574224981
 20
180.90785010443869
 30
0.0
  0
VERTEX
  5
273C0
  8
0
 10
144.73748954843779
 20
180.96715409833899
 30
0.0
  0
VERTEX
  5
273C1
  8
0
 10
144.9084501971663
 20
181.11253980538461
 30
0.0
  0
VERTEX
  5
273C2
  8
0
 10
145.10090550110971
 20
181.2926593133588
 30
0.0
  0
VERTEX
  5
273C3
  8
0
 10
145.31298752142931
 20
181.50597082993499
 30
0.0
  0
VERTEX
  5
273C4
  8
0
 10
145.54253743367011
 20
181.75064570374249
 30
0.0
  0
VERTEX
  5
273C5
  8
0
 10
145.78722356137229
 20
182.02471678556051
 30
0.0
  0
VERTEX
  5
273C6
  8
0
 10
145.9143856147941
 20
182.1720335136888
 30
0.0
  0
VERTEX
  5
273C7
  8
0
 10
146.0442663419276
 20
182.32576915286521
 30
0.0
  0
VERTEX
  5
273C8
  8
0
 10
146.31062107433101
 20
182.6510987512502
 30
0.0
  0
VERTEX
  5
273C9
  8
0
 10
146.5830522545119
 20
182.9977651822237
 30
0.0
  0
VERTEX
  5
273CA
  8
0
 10
146.85814239244499
 20
183.3625509879048
 30
0.0
  0
VERTEX
  5
273CB
  8
0
 10
147.13234908891681
 20
183.74195812431569
 30
0.0
  0
VERTEX
  5
273CC
  8
0
 10
147.4081526375827
 20
184.1412058600454
 30
0.0
  0
VERTEX
  5
273CD
  8
0
 10
147.5480128850524
 20
184.3511963359588
 30
0.0
  0
VERTEX
  5
273CE
  8
0
 10
147.68853919136509
 20
184.5678459570872
 30
0.0
  0
VERTEX
  5
273CF
  8
0
 10
147.969543825301
 20
185.0203040209671
 30
0.0
  0
VERTEX
  5
273D0
  8
0
 10
148.24689942112701
 20
185.49689219877379
 30
0.0
  0
VERTEX
  5
273D1
  8
0
 10
148.3828029365516
 20
185.74368873142251
 30
0.0
  0
SEQEND
  5
273D2
  8
0
  0
LINE
  5
209E5
  8
0
 10
142.20505394784061
 20
180.7436887314224
 30
0.0
 11
144.3251081459847
 21
180.7436887314224
 31
0.0
  0
POLYLINE
  5
209E6
  8
0
 66
     1
 10
0.0
 20
0.0
 30
0.0
  0
VERTEX
  5
273D3
  8
0
 10
162.20505394784061
 20
205.54817315836041
 30
0.0
  0
VERTEX
  5
273D4
  8
0
 10
162.20496602590941
 20
205.46184607910621
 30
0.0
  0
VERTEX
  5
273D5
  8
0
 10
162.2042319258299
 20
205.29053360376659
 30
0.0
  0
VERTEX
  5
273D6
  8
0
 10
162.20268466677589
 20
205.12109669757871
 30
0.0
  0
VERTEX
  5
273D7
  8
0
 10
162.2015801051657
 20
205.03711371823189
 30
0.0
  0
VERTEX
  5
273D8
  8
0
 10
162.20024098774721
 20
204.95363795671619
 30
0.0
  0
VERTEX
  5
273D9
  8
0
 10
162.19681718765369
 20
204.78825793567009
 30
0.0
  0
VERTEX
  5
273DA
  8
0
 10
162.1923295004743
 20
204.625054663491
 30
0.0
  0
VERTEX
  5
273DB
  8
0
 10
162.1866944664076
 20
204.46412317331399
 30
0.0
  0
VERTEX
  5
273DC
  8
0
 10
162.17982929374909
 20
204.30555504232689
 30
0.0
  0
VERTEX
  5
273DD
  8
0
 10
162.17165216796309
 20
204.14943728061371
 30
0.0
  0
VERTEX
  5
273DE
  8
0
 10
162.16704635486761
 20
204.07232247330381
 30
0.0
  0
VERTEX
  5
273DF
  8
0
 10
162.1620824476816
 20
203.99585047878281
 30
0.0
  0
VERTEX
  5
273E0
  8
0
 10
162.15104135377379
 20
203.8448748991004
 30
0.0
  0
VERTEX
  5
273E1
  8
0
 10
162.13845239984079
 20
203.69658920147501
 30
0.0
  0
VERTEX
  5
273E2
  8
0
 10
162.1242418160154
 20
203.55106955875451
 30
0.0
  0
VERTEX
  5
273E3
  8
0
 10
162.1083389703484
 20
203.40838904401059
 30
0.0
  0
VERTEX
  5
273E4
  8
0
 10
162.0906767677358
 20
203.2686170308362
 30
0.0
  0
VERTEX
  5
273E5
  8
0
 10
162.0811659987846
 20
203.19984223545001
 30
0.0
  0
VERTEX
  5
273E6
  8
0
 10
162.07119201781541
 20
203.13181860711751
 30
0.0
  0
VERTEX
  5
273E7
  8
0
 10
162.04982576233081
 20
202.99805400335211
 30
0.0
  0
VERTEX
  5
273E8
  8
0
 10
162.02652355149709
 20
202.86737803727831
 30
0.0
  0
VERTEX
  5
273E9
  8
0
 10
162.01413073417891
 20
202.8032138114086
 30
0.0
  0
SEQEND
  5
273EA
  8
0
  0
POLYLINE
  5
209E7
  8
0
 66
     1
 10
0.0
 20
0.0
 30
0.0
  0
VERTEX
  5
273EB
  8
0
 10
77.205053947840611
 20
205.54817315836041
 30
0.0
  0
VERTEX
  5
273EC
  8
0
 10
77.205141869771865
 20
205.46184607910621
 30
0.0
  0
VERTEX
  5
273ED
  8
0
 10
77.205875969851263
 20
205.29053360376659
 30
0.0
  0
VERTEX
  5
273EE
  8
0
 10
77.207423228905327
 20
205.12109669757771
 30
0.0
  0
VERTEX
  5
273EF
  8
0
 10
77.208527790515504
 20
205.03711371823189
 30
0.0
  0
VERTEX
  5
273F0
  8
0
 10
77.209866907934043
 20
204.95363795671531
 30
0.0
  0
VERTEX
  5
273F1
  8
0
 10
77.213290708027444
 20
204.78825793566921
 30
0.0
  0
VERTEX
  5
273F2
  8
0
 10
77.217778395206892
 20
204.62505466349009
 30
0.0
  0
VERTEX
  5
273F3
  8
0
 10
77.223413429273705
 20
204.46412317331399
 30
0.0
  0
VERTEX
  5
273F4
  8
0
 10
77.230278601932113
 20
204.30555504232689
 30
0.0
  0
VERTEX
  5
273F5
  8
0
 10
77.238455727718247
 20
204.14943728061371
 30
0.0
  0
VERTEX
  5
273F6
  8
0
 10
77.243061540813642
 20
204.07232247330381
 30
0.0
  0
VERTEX
  5
273F7
  8
0
 10
77.24802544799968
 20
203.9958504787819
 30
0.0
  0
VERTEX
  5
273F8
  8
0
 10
77.259066541907487
 20
203.8448748991004
 30
0.0
  0
VERTEX
  5
273F9
  8
0
 10
77.271655495840491
 20
203.6965892014741
 30
0.0
  0
VERTEX
  5
273FA
  8
0
 10
77.28586607966588
 20
203.55106955875451
 30
0.0
  0
VERTEX
  5
273FB
  8
0
 10
77.301768925332894
 20
203.40838904401059
 30
0.0
  0
VERTEX
  5
273FC
  8
0
 10
77.319431127945563
 20
203.2686170308352
 30
0.0
  0
VERTEX
  5
273FD
  8
0
 10
77.328941896896595
 20
203.19984223545001
 30
0.0
  0
VERTEX
  5
273FE
  8
0
 10
77.338915877865929
 20
203.13181860711751
 30
0.0
  0
VERTEX
  5
273FF
  8
0
 10
77.360282133350552
 20
202.9980540033512
 30
0.0
  0
VERTEX
  5
27400
  8
0
 10
77.383584344184101
 20
202.86737803727831
 30
0.0
  0
VERTEX
  5
27401
  8
0
 10
77.395977161502401
 20
202.80321381140769
 30
0.0
  0
SEQEND
  5
27402
  8
0
  0
POLYLINE
  5
209E8
  8
0
 66
     1
 10
0.0
 20
0.0
 30
0.0
  0
VERTEX
  5
27403
  8
0
 10
79.445028986522516
 20
202.80321381140769
 30
0.0
  0
VERTEX
  5
27404
  8
0
 10
79.428828331968475
 20
202.86965882275041
 30
0.0
  0
VERTEX
  5
27405
  8
0
 10
79.398867182631534
 20
203.00318438778689
 30
0.0
  0
VERTEX
  5
27406
  8
0
 10
79.372016784714774
 20
203.13713337222089
 30
0.0
  0
VERTEX
  5
27407
  8
0
 10
79.3596747671819
 20
203.2042533009344
 30
0.0
  0
VERTEX
  5
27408
  8
0
 10
79.347905048055281
 20
203.27210780005501
 30
0.0
  0
VERTEX
  5
27409
  8
0
 10
79.326010011440744
 20
203.41020985699009
 30
0.0
  0
VERTEX
  5
2740A
  8
0
 10
79.306251792379726
 20
203.55144986686449
 30
0.0
  0
VERTEX
  5
2740B
  8
0
 10
79.288558464114431
 20
203.6957587243669
 30
0.0
  0
VERTEX
  5
2740C
  8
0
 10
79.272852630565467
 20
203.84306139832731
 30
0.0
  0
VERTEX
  5
2740D
  8
0
 10
79.259051853635242
 20
203.9932776610994
 30
0.0
  0
VERTEX
  5
2740E
  8
0
 10
79.252838840393338
 20
204.06945207686749
 30
0.0
  0
VERTEX
  5
2740F
  8
0
 10
79.247069143286012
 20
204.14632282292129
 30
0.0
  0
VERTEX
  5
27410
  8
0
 10
79.2368134948739
 20
204.30210847092081
 30
0.0
  0
VERTEX
  5
27411
  8
0
 10
79.228190460082487
 20
204.46054321356499
 30
0.0
  0
VERTEX
  5
27412
  8
0
 10
79.221102738845502
 20
204.62153344949729
 30
0.0
  0
VERTEX
  5
27413
  8
0
 10
79.215450762466503
 20
204.78498484175361
 30
0.0
  0
VERTEX
  5
27414
  8
0
 10
79.211133460213773
 20
204.9507971511421
 30
0.0
  0
VERTEX
  5
27415
  8
0
 10
79.20944341865868
 20
205.0345557103546
 30
0.0
  0
VERTEX
  5
27416
  8
0
 10
79.208048671828692
 20
205.11886450240311
 30
0.0
  0
VERTEX
  5
27417
  8
0
 10
79.206093574980741
 20
205.28907744047771
 30
0.0
  0
VERTEX
  5
27418
  8
0
 10
79.205165201600835
 20
205.46132351252069
 30
0.0
  0
VERTEX
  5
27419
  8
0
 10
79.205053947840611
 20
205.54817315836041
 30
0.0
  0
SEQEND
  5
2741A
  8
0
  0
POLYLINE
  5
209E9
  8
0
 66
     1
 10
0.0
 20
0.0
 30
0.0
  0
VERTEX
  5
2741B
  8
0
 10
83.205053947840625
 20
197.81975030657659
 30
0.0
  0
VERTEX
  5
2741C
  8
0
 10
83.051781749475694
 20
197.9105322359309
 30
0.0
  0
VERTEX
  5
2741D
  8
0
 10
82.751490398781812
 20
198.10222019022331
 30
0.0
  0
VERTEX
  5
2741E
  8
0
 10
82.460030963343684
 20
198.30708737797249
 30
0.0
  0
VERTEX
  5
2741F
  8
0
 10
82.317794553571275
 20
198.41433722284
 30
0.0
  0
VERTEX
  5
27420
  8
0
 10
82.177981439861355
 20
198.52472752460471
 30
0.0
  0
VERTEX
  5
27421
  8
0
 10
81.905901164125567
 20
198.7547090253338
 30
0.0
  0
VERTEX
  5
27422
  8
0
 10
81.64432970179223
 20
198.99657580109121
 30
0.0
  0
VERTEX
  5
27423
  8
0
 10
81.393785778363736
 20
199.2498482029732
 30
0.0
  0
VERTEX
  5
27424
  8
0
 10
81.154766250497687
 20
199.5140239634456
 30
0.0
  0
VERTEX
  5
27425
  8
0
 10
80.927745120684676
 20
199.78857919238999
 30
0.0
  0
VERTEX
  5
27426
  8
0
 10
80.818875599352154
 20
199.92957973428199
 30
0.0
  0
VERTEX
  5
27427
  8
0
 10
80.713172597248345
 20
200.07296941604179
 30
0.0
  0
VERTEX
  5
27428
  8
0
 10
80.511474201531996
 20
200.36663065673841
 30
0.0
  0
VERTEX
  5
27429
  8
0
 10
80.323049924041683
 20
200.66898055135519
 30
0.0
  0
VERTEX
  5
2742A
  8
0
 10
80.148273431220673
 20
200.9794195061904
 30
0.0
  0
VERTEX
  5
2742B
  8
0
 10
79.987491324426742
 20
201.29733188603319
 30
0.0
  0
VERTEX
  5
2742C
  8
0
 10
79.841022452583047
 20
201.6220872350323
 30
0.0
  0
VERTEX
  5
2742D
  8
0
 10
79.773247374742141
 20
201.7868302601118
 30
0.0
  0
VERTEX
  5
2742E
  8
0
 10
79.709157279865053
 20
201.95304152696099
 30
0.0
  0
VERTEX
  5
2742F
  8
0
 10
79.592157309677305
 20
202.2895384423982
 30
0.0
  0
VERTEX
  5
27430
  8
0
 10
79.490254566062958
 20
202.6309106702756
 30
0.0
  0
VERTEX
  5
27431
  8
0
 10
79.445028986522516
 20
202.80321381140769
 30
0.0
  0
SEQEND
  5
27432
  8
0
  0
POLYLINE
  5
209EA
  8
0
 66
     1
 10
0.0
 20
0.0
 30
0.0
  0
VERTEX
  5
27433
  8
0
 10
77.395977161502401
 20
202.80321381140769
 30
0.0
  0
VERTEX
  5
27434
  8
0
 10
77.432690909729558
 20
202.62641620478371
 30
0.0
  0
VERTEX
  5
27435
  8
0
 10
77.515664319463426
 20
202.2749536117617
 30
0.0
  0
VERTEX
  5
27436
  8
0
 10
77.611273714633057
 20
201.92671607132161
 30
0.0
  0
VERTEX
  5
27437
  8
0
 10
77.66377858217561
 20
201.7539487946124
 30
0.0
  0
VERTEX
  5
27438
  8
0
 10
77.719394410508698
 20
201.58215772192301
 30
0.0
  0
VERTEX
  5
27439
  8
0
 10
77.839885406305939
 20
201.24172790397461
 30
0.0
  0
VERTEX
  5
2743A
  8
0
 10
77.972589569065349
 20
200.90587057384249
 30
0.0
  0
VERTEX
  5
2743B
  8
0
 10
78.117333838570403
 20
200.57502372488941
 30
0.0
  0
VERTEX
  5
2743C
  8
0
 10
78.273929453035862
 20
200.24961881628039
 30
0.0
  0
VERTEX
  5
2743D
  8
0
 10
78.442172195273997
 20
199.9300802103171
 30
0.0
  0
VERTEX
  5
2743E
  8
0
 10
78.530593260481737
 20
199.77264130710591
 30
0.0
  0
VERTEX
  5
2743F
  8
0
 10
78.621842659014192
 20
199.6168246190245
 30
0.0
  0
VERTEX
  5
27440
  8
0
 10
78.812706535032817
 20
199.3102605607146
 30
0.0
  0
VERTEX
  5
27441
  8
0
 10
79.014514916716493
 20
199.01078782723289
 30
0.0
  0
VERTEX
  5
27442
  8
0
 10
79.227004624662868
 20
198.71879696259199
 30
0.0
  0
VERTEX
  5
27443
  8
0
 10
79.449898549894101
 20
198.434668753659
 30
0.0
  0
VERTEX
  5
27444
  8
0
 10
79.68290601523654
 20
198.1587737335667
 30
0.0
  0
VERTEX
  5
27445
  8
0
 10
79.803107871711745
 20
198.0240265379862
 30
0.0
  0
VERTEX
  5
27446
  8
0
 10
79.92572315439395
 20
197.89147169850551
 30
0.0
  0
VERTEX
  5
27447
  8
0
 10
80.178033308221515
 20
197.63311123850411
 30
0.0
  0
VERTEX
  5
27448
  8
0
 10
80.439507437682536
 20
197.38402928283631
 30
0.0
  0
VERTEX
  5
27449
  8
0
 10
80.573574888727094
 20
197.2630697375844
 30
0.0
  0
SEQEND
  5
2744A
  8
0
  0
LINE
  5
209EB
  8
0
 10
84.169252976921257
 20
197.2630697375844
 30
0.0
 11
83.205053947840625
 21
197.81975030657659
 31
0.0
  0
POLYLINE
  5
209EC
  8
0
 66
     1
 10
0.0
 20
0.0
 30
0.0
  0
VERTEX
  5
2744B
  8
0
 10
82.205053947840597
 20
195.84852554718691
 30
0.0
  0
VERTEX
  5
2744C
  8
0
 10
82.330609312580918
 20
195.74136636510411
 30
0.0
  0
VERTEX
  5
2744D
  8
0
 10
82.574464276643084
 20
195.52427956680091
 30
0.0
  0
VERTEX
  5
2744E
  8
0
 10
82.808509515484047
 20
195.3036228925566
 30
0.0
  0
VERTEX
  5
2744F
  8
0
 10
82.921804263005356
 20
195.1920019257195
 30
0.0
  0
SEQEND
  5
27450
  8
0
  0
POLYLINE
  5
209ED
  8
0
 66
     1
 10
0.0
 20
0.0
 30
0.0
  0
VERTEX
  5
27451
  8
0
 10
86.921804263005356
 20
195.1920019257195
 30
0.0
  0
VERTEX
  5
27452
  8
0
 10
86.858429038003464
 20
195.2548483033643
 30
0.0
  0
VERTEX
  5
27453
  8
0
 10
86.729312222998374
 20
195.3797345073244
 30
0.0
  0
VERTEX
  5
27454
  8
0
 10
86.597063084830779
 20
195.50352331832801
 30
0.0
  0
VERTEX
  5
27455
  8
0
 10
86.52977261117428
 20
195.56499800918749
 30
0.0
  0
VERTEX
  5
27456
  8
0
 10
86.461709598973471
 20
195.62618855056911
 30
0.0
  0
VERTEX
  5
27457
  8
0
 10
86.323280397581357
 20
195.7477042559149
 30
0.0
  0
VERTEX
  5
27458
  8
0
 10
86.181804763434229
 20
195.86804472940361
 30
0.0
  0
VERTEX
  5
27459
  8
0
 10
86.037312623742295
 20
195.9871845146736
 30
0.0
  0
VERTEX
  5
2745A
  8
0
 10
85.889834543815937
 20
196.10509840935529
 30
0.0
  0
VERTEX
  5
2745B
  8
0
 10
85.739401720599744
 20
196.22176147039681
 30
0.0
  0
VERTEX
  5
2745C
  8
0
 10
85.66308720039433
 20
196.2796162158065
 30
0.0
  0
VERTEX
  5
2745D
  8
0
 10
85.586045976073365
 20
196.337149019344
 30
0.0
  0
VERTEX
  5
2745E
  8
0
 10
85.429799750520047
 20
196.45123664756011
 30
0.0
  0
VERTEX
  5
2745F
  8
0
 10
85.270696095663865
 20
196.56400022138669
 30
0.0
  0
VERTEX
  5
27460
  8
0
 10
85.108768667678987
 20
196.67541588725359
 30
0.0
  0
VERTEX
  5
27461
  8
0
 10
84.944051720069297
 20
196.78546007671949
 30
0.0
  0
VERTEX
  5
27462
  8
0
 10
84.776580096423103
 20
196.89410951146141
 30
0.0
  0
VERTEX
  5
27463
  8
0
 10
84.691822329247415
 20
196.94790400187591
 30
0.0
  0
VERTEX
  5
27464
  8
0
 10
84.606389223042257
 20
197.0013412081953
 30
0.0
  0
VERTEX
  5
27465
  8
0
 10
84.433515101447924
 20
197.10713248354199
 30
0.0
  0
VERTEX
  5
27466
  8
0
 10
84.257994300765745
 20
197.2114609588225
 30
0.0
  0
VERTEX
  5
27467
  8
0
 10
84.169252976921257
 20
197.2630697375844
 30
0.0
  0
SEQEND
  5
27468
  8
0
  0
LINE
  5
209EE
  8
0
 10
77.205053947840611
 20
267.74368873142248
 30
0.0
 11
77.205053947840611
 21
205.54817315836041
 31
0.0
  0
LINE
  5
209EF
  8
0
 10
88.455053947840597
 20
193.6587522408835
 30
0.0
 11
86.921804263005356
 21
195.1920019257195
 31
0.0
  0
LINE
  5
209F0
  8
0
 10
82.921804263005356
 20
195.1920019257195
 30
0.0
 11
87.455053947840611
 21
190.65875224088359
 31
0.0
  0
POLYLINE
  5
209F1
  8
0
 66
     1
 10
0.0
 20
0.0
 30
0.0
  0
VERTEX
  5
27469
  8
0
 10
87.455053947840611
 20
190.65875224088359
 30
0.0
  0
VERTEX
  5
2746A
  8
0
 10
87.564941142681064
 20
190.54782136332591
 30
0.0
  0
VERTEX
  5
2746B
  8
0
 10
87.783120447182114
 20
190.32129301873371
 30
0.0
  0
VERTEX
  5
2746C
  8
0
 10
87.999124062270539
 20
190.0885935721353
 30
0.0
  0
VERTEX
  5
2746D
  8
0
 10
88.106291782687777
 20
189.96994920662561
 30
0.0
  0
VERTEX
  5
2746E
  8
0
 10
88.212893811057484
 20
189.8497856971571
 30
0.0
  0
VERTEX
  5
2746F
  8
0
 10
88.424372118307701
 20
189.60493371262601
 30
0.0
  0
VERTEX
  5
27470
  8
0
 10
88.633502025946314
 20
189.35410356524699
 30
0.0
  0
VERTEX
  5
27471
  8
0
 10
88.840227208400506
 20
189.0973628118418
 30
0.0
  0
VERTEX
  5
27472
  8
0
 10
89.044491987768538
 20
188.83478060115249
 30
0.0
  0
VERTEX
  5
27473
  8
0
 10
89.246241348816625
 20
188.5664276552188
 30
0.0
  0
VERTEX
  5
27474
  8
0
 10
89.346155740058506
 20
188.43010968269209
 30
0.0
  0
VERTEX
  5
27475
  8
0
 10
89.445420953795974
 20
188.2923762503296
 30
0.0
  0
VERTEX
  5
27476
  8
0
 10
89.641977157077449
 20
188.0127001975543
 30
0.0
  0
VERTEX
  5
27477
  8
0
 10
89.835857019600795
 20
187.72747482286829
 30
0.0
  0
VERTEX
  5
27478
  8
0
 10
90.027008323132364
 20
187.43677694685991
 30
0.0
  0
VERTEX
  5
27479
  8
0
 10
90.215379584329057
 20
187.14068486404361
 30
0.0
  0
VERTEX
  5
2747A
  8
0
 10
90.400920068605274
 20
186.83927832177139
 30
0.0
  0
VERTEX
  5
2747B
  8
0
 10
90.492613122945272
 20
186.6866074413683
 30
0.0
  0
VERTEX
  5
2747C
  8
0
 10
90.583579803796525
 20
186.5326384987529
 30
0.0
  0
VERTEX
  5
2747D
  8
0
 10
90.763309593618814
 20
186.22084798319429
 30
0.0
  0
VERTEX
  5
2747E
  8
0
 10
90.940061030919424
 20
185.90399075055211
 30
0.0
  0
VERTEX
  5
2747F
  8
0
 10
91.027304959129651
 20
185.74368873142251
 30
0.0
  0
SEQEND
  5
27480
  8
0
  0
POLYLINE
  5
209F2
  8
0
 66
     1
 10
0.0
 20
0.0
 30
0.0
  0
VERTEX
  5
27481
  8
0
 10
93.64038200148309
 20
185.74368873142251
 30
0.0
  0
VERTEX
  5
27482
  8
0
 10
93.522632771680492
 20
186.00911638626889
 30
0.0
  0
VERTEX
  5
27483
  8
0
 10
93.282093494501851
 20
186.53313436018831
 30
0.0
  0
VERTEX
  5
27484
  8
0
 10
93.034931248491375
 20
187.0478233352305
 30
0.0
  0
VERTEX
  5
27485
  8
0
 10
92.908904064872203
 20
187.3015908080888
 30
0.0
  0
VERTEX
  5
27486
  8
0
 10
92.781266601011566
 20
187.55293224273919
 30
0.0
  0
VERTEX
  5
27487
  8
0
 10
92.521223291339425
 20
188.04821468728181
 30
0.0
  0
VERTEX
  5
27488
  8
0
 10
92.254928170304765
 20
188.5334290668379
 30
0.0
  0
VERTEX
  5
27489
  8
0
 10
91.982511138412065
 20
189.00833869065349
 30
0.0
  0
VERTEX
  5
2748A
  8
0
 10
91.704105082474143
 20
189.472711894703
 30
0.0
  0
VERTEX
  5
2748B
  8
0
 10
91.419845810788715
 20
189.92632215469621
 30
0.0
  0
VERTEX
  5
2748C
  8
0
 10
91.275564441702954
 20
190.1490218244717
 30
0.0
  0
VERTEX
  5
2748D
  8
0
 10
91.129871986890976
 20
190.3689481965757
 30
0.0
  0
VERTEX
  5
2748E
  8
0
 10
90.834325061911386
 20
190.80037410445951
 30
0.0
  0
VERTEX
  5
2748F
  8
0
 10
90.533349205576314
 20
191.2203894259637
 30
0.0
  0
VERTEX
  5
27490
  8
0
 10
90.227091235880039
 20
191.62878927486321
 30
0.0
  0
VERTEX
  5
27491
  8
0
 10
89.915700547466486
 20
192.02537443103481
 30
0.0
  0
VERTEX
  5
27492
  8
0
 10
89.599329038753126
 20
192.409951437643
 30
0.0
  0
VERTEX
  5
27493
  8
0
 10
89.439323611454938
 20
192.5976780287792
 30
0.0
  0
VERTEX
  5
27494
  8
0
 10
89.278131037834669
 20
192.78233269550401
 30
0.0
  0
VERTEX
  5
27495
  8
0
 10
88.952263227199964
 20
193.1423365546006
 30
0.0
  0
VERTEX
  5
27496
  8
0
 10
88.621884567301777
 20
193.4897874026928
 30
0.0
  0
VERTEX
  5
27497
  8
0
 10
88.455053947840725
 20
193.6587522408835
 30
0.0
  0
SEQEND
  5
27498
  8
0
  0
POLYLINE
  5
209F3
  8
0
 66
     1
 10
0.0
 20
0.0
 30
0.0
  0
VERTEX
  5
27499
  8
0
 10
91.027304959129651
 20
185.74368873142251
 30
0.0
  0
VERTEX
  5
2749A
  8
0
 10
91.163208474554153
 20
185.49689219877379
 30
0.0
  0
VERTEX
  5
2749B
  8
0
 10
91.440564070380205
 20
185.0203040209671
 30
0.0
  0
VERTEX
  5
2749C
  8
0
 10
91.721568704316056
 20
184.5678459570872
 30
0.0
  0
VERTEX
  5
2749D
  8
0
 10
91.862095010628764
 20
184.3511963359588
 30
0.0
  0
VERTEX
  5
2749E
  8
0
 10
92.001955258098505
 20
184.1412058600454
 30
0.0
  0
VERTEX
  5
2749F
  8
0
 10
92.277758806764368
 20
183.74195812431569
 30
0.0
  0
VERTEX
  5
274A0
  8
0
 10
92.551965503236261
 20
183.3625509879048
 30
0.0
  0
VERTEX
  5
274A1
  8
0
 10
92.827055641169295
 20
182.9977651822237
 30
0.0
  0
VERTEX
  5
274A2
  8
0
 10
93.099486821350297
 20
182.6510987512502
 30
0.0
  0
VERTEX
  5
274A3
  8
0
 10
93.365841553753626
 20
182.32576915286521
 30
0.0
  0
VERTEX
  5
274A4
  8
0
 10
93.495722280887094
 20
182.1720335136888
 30
0.0
  0
VERTEX
  5
274A5
  8
0
 10
93.622884334308878
 20
182.02471678556051
 30
0.0
  0
VERTEX
  5
274A6
  8
0
 10
93.867570462011145
 20
181.75064570374249
 30
0.0
  0
VERTEX
  5
274A7
  8
0
 10
94.097120374251844
 20
181.50597082993499
 30
0.0
  0
VERTEX
  5
274A8
  8
0
 10
94.309202394571457
 20
181.2926593133588
 30
0.0
  0
VERTEX
  5
274A9
  8
0
 10
94.501657698514919
 20
181.11253980538461
 30
0.0
  0
VERTEX
  5
274AA
  8
0
 10
94.672618347243429
 20
180.96715409833899
 30
0.0
  0
VERTEX
  5
274AB
  8
0
 10
94.749572153431359
 20
180.90785010443869
 30
0.0
  0
VERTEX
  5
274AC
  8
0
 10
94.761829854146981
 20
180.89884502425679
 30
0.0
  0
VERTEX
  5
274AD
  8
0
 10
94.785853198017776
 20
180.88159177280249
 30
0.0
  0
VERTEX
  5
274AE
  8
0
 10
94.809216914261796
 20
180.8653499949541
 30
0.0
  0
VERTEX
  5
274AF
  8
0
 10
94.820650154640575
 20
180.85760917657899
 30
0.0
  0
VERTEX
  5
274B0
  8
0
 10
94.831917019993057
 20
180.85012210392779
 30
0.0
  0
VERTEX
  5
274B1
  8
0
 10
94.853949862056425
 20
180.8359101545866
 30
0.0
  0
VERTEX
  5
274B2
  8
0
 10
94.875312129333466
 20
180.82271582853349
 30
0.0
  0
VERTEX
  5
274B3
  8
0
 10
94.89600086410087
 20
180.81054042054981
 30
0.0
  0
VERTEX
  5
274B4
  8
0
 10
94.916013472404316
 20
180.7993848264577
 30
0.0
  0
VERTEX
  5
274B5
  8
0
 10
94.935347733405465
 20
180.78924953243131
 30
0.0
  0
VERTEX
  5
274B6
  8
0
 10
94.944759893741434
 20
180.78456453556549
 30
0.0
  0
VERTEX
  5
274B7
  8
0
 10
94.954001807668874
 20
180.78013460580669
 30
0.0
  0
VERTEX
  5
274B8
  8
0
 10
94.971974244350335
 20
180.77203968744649
 30
0.0
  0
VERTEX
  5
274B9
  8
0
 10
94.989263987256663
 20
180.76496398569091
 30
0.0
  0
VERTEX
  5
274BA
  8
0
 10
95.005870379742305
 20
180.75890627195071
 30
0.0
  0
VERTEX
  5
274BB
  8
0
 10
95.021793168416366
 20
180.75386487797459
 30
0.0
  0
VERTEX
  5
274BC
  8
0
 10
95.037032505632396
 20
180.7498376948424
 30
0.0
  0
VERTEX
  5
274BD
  8
0
 10
95.04439603883236
 20
180.74820365295909
 30
0.0
  0
VERTEX
  5
274BE
  8
0
 10
95.051588950734867
 20
180.74682217372259
 30
0.0
  0
VERTEX
  5
274BF
  8
0
 10
95.065463470043596
 20
180.74481532842941
 30
0.0
  0
VERTEX
  5
274C0
  8
0
 10
95.078657435553509
 20
180.7438137398257
 30
0.0
  0
VERTEX
  5
274C1
  8
0
 10
95.084999749696522
 20
180.7436887314224
 30
0.0
  0
SEQEND
  5
274C2
  8
0
  0
POLYLINE
  5
209F4
  8
0
 66
     1
 10
0.0
 20
0.0
 30
0.0
  0
VERTEX
  5
274C3
  8
0
 10
97.098809518965155
 20
180.7436887314224
 30
0.0
  0
VERTEX
  5
274C4
  8
0
 10
97.063613470358064
 20
180.7480417097286
 30
0.0
  0
VERTEX
  5
274C5
  8
0
 10
96.977401545353814
 20
180.7832041038055
 30
0.0
  0
VERTEX
  5
274C6
  8
0
 10
96.870135576320308
 20
180.85410181597581
 30
0.0
  0
VERTEX
  5
274C7
  8
0
 10
96.808729469586424
 20
180.9029958474411
 30
0.0
  0
VERTEX
  5
274C8
  8
0
 10
96.742259384517965
 20
180.96081428589241
 30
0.0
  0
VERTEX
  5
274C9
  8
0
 10
96.594627133630638
 20
181.10294123449151
 30
0.0
  0
VERTEX
  5
274CA
  8
0
 10
96.428501408581837
 20
181.27962900835701
 30
0.0
  0
VERTEX
  5
274CB
  8
0
 10
96.245544468783706
 20
181.4895813347002
 30
0.0
  0
VERTEX
  5
274CC
  8
0
 10
96.047695211168843
 20
181.73119794542981
 30
0.0
  0
VERTEX
  5
274CD
  8
0
 10
95.837065124868317
 20
182.00271595188951
 30
0.0
  0
VERTEX
  5
274CE
  8
0
 10
95.727731046073814
 20
182.1490052585122
 30
0.0
  0
VERTEX
  5
274CF
  8
0
 10
95.616163053452055
 20
182.30190841930289
 30
0.0
  0
VERTEX
  5
274D0
  8
0
 10
95.387731564460168
 20
182.62623435240221
 30
0.0
  0
VERTEX
  5
274D1
  8
0
 10
95.154673002219511
 20
182.97288859687521
 30
0.0
  0
VERTEX
  5
274D2
  8
0
 10
94.920032153199386
 20
183.33875664060989
 30
0.0
  0
VERTEX
  5
274D3
  8
0
 10
94.686935858688912
 20
183.720407517133
 30
0.0
  0
VERTEX
  5
274D4
  8
0
 10
94.453544382568225
 20
184.12289991024861
 30
0.0
  0
VERTEX
  5
274D5
  8
0
 10
94.335671000902494
 20
184.33487412040901
 30
0.0
  0
VERTEX
  5
274D6
  8
0
 10
94.217591281410932
 20
184.55374328829021
 30
0.0
  0
VERTEX
  5
274D7
  8
0
 10
93.982642974774762
 20
185.01130185110739
 30
0.0
  0
VERTEX
  5
274D8
  8
0
 10
93.752465900800416
 20
185.4937473707659
 30
0.0
  0
VERTEX
  5
274D9
  8
0
 10
93.64038200148309
 20
185.74368873142251
 30
0.0
  0
SEQEND
  5
274DA
  8
0
  0
LINE
  5
209F5
  8
0
 10
97.205053947840625
 20
180.7436887314224
 30
0.0
 11
95.084999749696522
 21
180.7436887314224
 31
0.0
  0
LINE
  5
209F6
  8
0
 10
82.205053947840597
 20
195.84852554718691
 30
0.0
 11
80.573574888727094
 21
197.2630697375844
 31
0.0
  0
POLYLINE
  5
209F7
  8
0
 66
     1
 10
0.0
 20
0.0
 30
0.0
  0
VERTEX
  5
274DB
  8
0
 10
80.573574888727094
 20
197.2630697375844
 30
0.0
  0
VERTEX
  5
274DC
  8
0
 10
80.439507437682536
 20
197.38402928283631
 30
0.0
  0
VERTEX
  5
274DD
  8
0
 10
80.178033308221515
 20
197.63311123850411
 30
0.0
  0
VERTEX
  5
274DE
  8
0
 10
79.92572315439395
 20
197.89147169850551
 30
0.0
  0
VERTEX
  5
274DF
  8
0
 10
79.803107871711745
 20
198.0240265379862
 30
0.0
  0
VERTEX
  5
274E0
  8
0
 10
79.68290601523654
 20
198.1587737335667
 30
0.0
  0
VERTEX
  5
274E1
  8
0
 10
79.449898549894215
 20
198.434668753659
 30
0.0
  0
VERTEX
  5
274E2
  8
0
 10
79.227004624662868
 20
198.71879696259199
 30
0.0
  0
VERTEX
  5
274E3
  8
0
 10
79.014514916716493
 20
199.01078782723289
 30
0.0
  0
VERTEX
  5
274E4
  8
0
 10
78.812706535032817
 20
199.3102605607146
 30
0.0
  0
VERTEX
  5
274E5
  8
0
 10
78.621842659014192
 20
199.6168246190245
 30
0.0
  0
VERTEX
  5
274E6
  8
0
 10
78.530593260481737
 20
199.77264130710591
 30
0.0
  0
VERTEX
  5
274E7
  8
0
 10
78.442172195273997
 20
199.93008021031801
 30
0.0
  0
VERTEX
  5
274E8
  8
0
 10
78.273929453035862
 20
200.24961881628039
 30
0.0
  0
VERTEX
  5
274E9
  8
0
 10
78.117333838570403
 20
200.57502372488941
 30
0.0
  0
VERTEX
  5
274EA
  8
0
 10
77.972589569065349
 20
200.90587057384249
 30
0.0
  0
VERTEX
  5
274EB
  8
0
 10
77.839885406305939
 20
201.24172790397461
 30
0.0
  0
VERTEX
  5
274EC
  8
0
 10
77.719394410508698
 20
201.58215772192301
 30
0.0
  0
VERTEX
  5
274ED
  8
0
 10
77.66377858217561
 20
201.7539487946124
 30
0.0
  0
VERTEX
  5
274EE
  8
0
 10
77.611273714633057
 20
201.92671607132161
 30
0.0
  0
VERTEX
  5
274EF
  8
0
 10
77.515664319463426
 20
202.2749536117617
 30
0.0
  0
VERTEX
  5
274F0
  8
0
 10
77.432690909729558
 20
202.62641620478371
 30
0.0
  0
VERTEX
  5
274F1
  8
0
 10
77.395977161502401
 20
202.8032138114086
 30
0.0
  0
SEQEND
  5
274F2
  8
0
  0
LINE
  5
209F8
  8
0
 10
126.7111544279294
 20
258.74368873142248
 30
0.0
 11
112.69895346775181
 21
258.74368873142248
 31
0.0
  0
POLYLINE
  5
209F9
  8
0
 66
     1
 10
0.0
 20
0.0
 30
0.0
  0
VERTEX
  5
274F3
  8
0
 10
129.88323168255761
 20
260.76452481533028
 30
0.0
  0
VERTEX
  5
274F4
  8
0
 10
129.87541917928601
 20
260.74788507341049
 30
0.0
  0
VERTEX
  5
274F5
  8
0
 10
129.85953253195339
 20
260.71472983266091
 30
0.0
  0
VERTEX
  5
274F6
  8
0
 10
129.84329849500881
 20
260.68174329605699
 30
0.0
  0
VERTEX
  5
274F7
  8
0
 10
129.8350517637061
 20
260.66531442995711
 30
0.0
  0
VERTEX
  5
274F8
  8
0
 10
129.82671885970339
 20
260.64892910330769
 30
0.0
  0
VERTEX
  5
274F9
  8
0
 10
129.80979545542141
 20
260.61629087510659
 30
0.0
  0
VERTEX
  5
274FA
  8
0
 10
129.7925301494781
 20
260.58383221272931
 30
0.0
  0
VERTEX
  5
274FB
  8
0
 10
129.7749248469141
 20
260.55155669764008
 30
0.0
  0
VERTEX
  5
274FC
  8
0
 10
129.75698149028489
 20
260.51946789109388
 30
0.0
  0
VERTEX
  5
274FD
  8
0
 10
129.7387020594465
 20
260.48756933374619
 30
0.0
  0
VERTEX
  5
274FE
  8
0
 10
129.72943694504971
 20
260.47169249924718
 30
0.0
  0
VERTEX
  5
274FF
  8
0
 10
129.7200885713375
 20
260.45586454525892
 30
0.0
  0
VERTEX
  5
27500
  8
0
 10
129.7011430797555
 20
260.42435702391322
 30
0.0
  0
VERTEX
  5
27501
  8
0
 10
129.68186767513171
 20
260.39305024622439
 30
0.0
  0
VERTEX
  5
27502
  8
0
 10
129.6118367256083
 20
260.28510704869132
 30
0.0
  0
VERTEX
  5
27503
  8
0
 10
129.54868621302509
 20
260.19468571322801
 30
0.0
  0
VERTEX
  5
27504
  8
0
 10
129.48271808809611
 20
260.1062989968068
 30
0.0
  0
VERTEX
  5
27505
  8
0
 10
129.34259375410579
 20
259.93597837857209
 30
0.0
  0
VERTEX
  5
27506
  8
0
 10
129.19202014812501
 20
259.77482152592978
 30
0.0
  0
VERTEX
  5
27507
  8
0
 10
129.03159518801081
 20
259.62346838211027
 30
0.0
  0
VERTEX
  5
27508
  8
0
 10
128.86195591069799
 20
259.48251996046378
 30
0.0
  0
VERTEX
  5
27509
  8
0
 10
128.68377594256731
 20
259.35253595787623
 30
0.0
  0
VERTEX
  5
2750A
  8
0
 10
128.59170305714321
 20
259.29181867107758
 30
0.0
  0
VERTEX
  5
2750B
  8
0
 10
128.49776282451899
 20
259.23403253224751
 30
0.0
  0
VERTEX
  5
2750C
  8
0
 10
128.3046552023751
 20
259.12748025286419
 30
0.0
  0
VERTEX
  5
2750D
  8
0
 10
128.10521989376559
 20
259.03330223180001
 30
0.0
  0
VERTEX
  5
2750E
  8
0
 10
127.9002488431459
 20
258.95187244376302
 30
0.0
  0
VERTEX
  5
2750F
  8
0
 10
127.6905559770379
 20
258.88351424107168
 30
0.0
  0
VERTEX
  5
27510
  8
0
 10
127.4769739719811
 20
258.8284990696402
 30
0.0
  0
VERTEX
  5
27511
  8
0
 10
127.3689890683298
 20
258.8060654847759
 30
0.0
  0
VERTEX
  5
27512
  8
0
 10
127.2603509480294
 20
258.78704539108372
 30
0.0
  0
VERTEX
  5
27513
  8
0
 10
127.0415471009223
 20
258.7593178152265
 30
0.0
  0
VERTEX
  5
27514
  8
0
 10
126.82143128630391
 20
258.74542644644413
 30
0.0
  0
VERTEX
  5
27515
  8
0
 10
126.7111544279294
 20
258.74368873142248
 30
0.0
  0
SEQEND
  5
27516
  8
0
  0
LINE
  5
209FA
  8
0
 10
131.8011976584969
 20
264.87761612403392
 30
0.0
 11
129.88323168255769
 21
260.76452481533028
 31
0.0
  0
POLYLINE
  5
209FB
  8
0
 66
     1
 10
0.0
 20
0.0
 30
0.0
  0
VERTEX
  5
27517
  8
0
 10
133.16065933905179
 20
265.74368873142248
 30
0.0
  0
VERTEX
  5
27518
  8
0
 10
133.14738283772061
 20
265.7436299751098
 30
0.0
  0
VERTEX
  5
27519
  8
0
 10
133.1155059850131
 20
265.74300896893692
 30
0.0
  0
VERTEX
  5
2751A
  8
0
 10
133.0765372749814
 20
265.7413280332367
 30
0.0
  0
VERTEX
  5
2751B
  8
0
 10
133.05441199307381
 20
265.73992116706631
 30
0.0
  0
VERTEX
  5
2751C
  8
0
 10
133.03054460122499
 20
265.73803479408713
 30
0.0
  0
VERTEX
  5
2751D
  8
0
 10
132.97766459171399
 20
265.73248452750983
 30
0.0
  0
VERTEX
  5
2751E
  8
0
 10
132.91810142181549
 20
265.72394737665581
 30
0.0
  0
VERTEX
  5
2751F
  8
0
 10
132.85213134457979
 20
265.71161600367668
 30
0.0
  0
VERTEX
  5
27520
  8
0
 10
132.7800934305827
 20
265.69460898743631
 30
0.0
  0
VERTEX
  5
27521
  8
0
 10
132.70237938180961
 20
265.67196723395318
 30
0.0
  0
VERTEX
  5
27522
  8
0
 10
132.66153331452281
 20
265.65821098704049
 30
0.0
  0
VERTEX
  5
27523
  8
0
 10
132.61944361853469
 20
265.6426474670061
 30
0.0
  0
VERTEX
  5
27524
  8
0
 10
132.53180772759251
 20
265.6055057715439
 30
0.0
  0
VERTEX
  5
27525
  8
0
 10
132.44007820622301
 20
265.5592733280991
 30
0.0
  0
VERTEX
  5
27526
  8
0
 10
132.34491102772969
 20
265.5024796960297
 30
0.0
  0
VERTEX
  5
27527
  8
0
 10
132.28810097575939
 20
265.46378786782498
 30
0.0
  0
VERTEX
  5
27528
  8
0
 10
132.27172419024711
 20
265.45190820702283
 30
0.0
  0
VERTEX
  5
27529
  8
0
 10
132.25529027999031
 20
265.43964310634419
 30
0.0
  0
VERTEX
  5
2752A
  8
0
 10
132.2470532218974
 20
265.43336257861671
 30
0.0
  0
VERTEX
  5
2752B
  8
0
 10
132.23880348038941
 20
265.42698149986609
 30
0.0
  0
VERTEX
  5
2752C
  8
0
 10
132.222268155851
 20
265.4139117816531
 30
0.0
  0
VERTEX
  5
2752D
  8
0
 10
132.2056888267478
 20
265.40042176917632
 30
0.0
  0
VERTEX
  5
2752E
  8
0
 10
132.1890702016517
 20
265.38649866666401
 30
0.0
  0
VERTEX
  5
2752F
  8
0
 10
132.17241721532159
 20
265.37212902886222
 30
0.0
  0
VERTEX
  5
27530
  8
0
 10
132.15573507292481
 20
265.35729872569749
 30
0.0
  0
VERTEX
  5
27531
  8
0
 10
132.1473847811427
 20
265.34970621333468
 30
0.0
  0
VERTEX
  5
27532
  8
0
 10
132.13902930095799
 20
265.34199290844481
 30
0.0
  0
VERTEX
  5
27533
  8
0
 10
132.12230580531161
 20
265.32619597803568
 30
0.0
  0
VERTEX
  5
27534
  8
0
 10
132.105524286795
 20
265.3098453904085
 30
0.0
  0
VERTEX
  5
27535
  8
0
 10
132.0970511141357
 20
265.3013926332269
 30
0.0
  0
VERTEX
  5
27536
  8
0
 10
132.08852378867181
 20
265.2927480060161
 30
0.0
  0
VERTEX
  5
27537
  8
0
 10
132.0713291724135
 20
265.27488211195401
 30
0.0
  0
VERTEX
  5
27538
  8
0
 10
132.0539861037885
 20
265.25624705090468
 30
0.0
  0
VERTEX
  5
27539
  8
0
 10
132.04527343913111
 20
265.24664151907473
 30
0.0
  0
VERTEX
  5
2753A
  8
0
 10
132.0365412124016
 20
265.23684452853468
 30
0.0
  0
VERTEX
  5
2753B
  8
0
 10
132.0190418945534
 20
265.21667876755691
 30
0.0
  0
VERTEX
  5
2753C
  8
0
 10
132.00153608570491
 20
265.19575663002621
 30
0.0
  0
VERTEX
  5
2753D
  8
0
 10
131.9840719994888
 20
265.1740876955127
 30
0.0
  0
VERTEX
  5
2753E
  8
0
 10
131.96669783098861
 20
265.15168428056592
 30
0.0
  0
VERTEX
  5
2753F
  8
0
 10
131.9494614230189
 20
265.12856138225828
 30
0.0
  0
VERTEX
  5
27540
  8
0
 10
131.94090964331099
 20
265.11673551123482
 30
0.0
  0
VERTEX
  5
27541
  8
0
 10
131.932409895489
 20
265.10473652590832
 30
0.0
  0
VERTEX
  5
27542
  8
0
 10
131.91558886045399
 20
265.08022892969439
 30
0.0
  0
VERTEX
  5
27543
  8
0
 10
131.89904184005229
 20
265.05505873716447
 30
0.0
  0
VERTEX
  5
27544
  8
0
 10
131.8828141050567
 20
265.02925321506251
 30
0.0
  0
VERTEX
  5
27545
  8
0
 10
131.866950540235
 20
265.00284454142729
 30
0.0
  0
VERTEX
  5
27546
  8
0
 10
131.8514948679821
 20
264.97586930183479
 30
0.0
  0
VERTEX
  5
27547
  8
0
 10
131.8439332085089
 20
264.96218180525563
 30
0.0
  0
VERTEX
  5
27548
  8
0
 10
131.83648912558391
 20
264.94836826551182
 30
0.0
  0
VERTEX
  5
27549
  8
0
 10
131.82197313528181
 20
264.92038604029591
 30
0.0
  0
VERTEX
  5
2754A
  8
0
 10
131.8079839730371
 20
264.89197057921501
 30
0.0
  0
VERTEX
  5
2754B
  8
0
 10
131.8011976584969
 20
264.87761612403392
 30
0.0
  0
SEQEND
  5
2754C
  8
0
  0
POLYLINE
  5
209FC
  8
0
 66
     1
 10
0.0
 20
0.0
 30
0.0
  0
VERTEX
  5
2754D
  8
0
 10
112.69895346775181
 20
258.74368873142248
 30
0.0
  0
VERTEX
  5
2754E
  8
0
 10
112.5886766093773
 20
258.74542644644413
 30
0.0
  0
VERTEX
  5
2754F
  8
0
 10
112.36856079475901
 20
258.7593178152265
 30
0.0
  0
VERTEX
  5
27550
  8
0
 10
112.1497569476518
 20
258.78704539108372
 30
0.0
  0
VERTEX
  5
27551
  8
0
 10
112.0411188273514
 20
258.8060654847759
 30
0.0
  0
VERTEX
  5
27552
  8
0
 10
111.9331339237002
 20
258.8284990696402
 30
0.0
  0
VERTEX
  5
27553
  8
0
 10
111.7195519186433
 20
258.88351424107168
 30
0.0
  0
VERTEX
  5
27554
  8
0
 10
111.50985905253521
 20
258.95187244376302
 30
0.0
  0
VERTEX
  5
27555
  8
0
 10
111.3048880019156
 20
259.03330223180001
 30
0.0
  0
VERTEX
  5
27556
  8
0
 10
111.10545269330611
 20
259.12748025286419
 30
0.0
  0
VERTEX
  5
27557
  8
0
 10
110.91234507116231
 20
259.23403253224751
 30
0.0
  0
VERTEX
  5
27558
  8
0
 10
110.8184048385379
 20
259.29181867107758
 30
0.0
  0
VERTEX
  5
27559
  8
0
 10
110.7263319531139
 20
259.35253595787623
 30
0.0
  0
VERTEX
  5
2755A
  8
0
 10
110.54815198498321
 20
259.48251996046378
 30
0.0
  0
VERTEX
  5
2755B
  8
0
 10
110.3785127076704
 20
259.62346838211027
 30
0.0
  0
VERTEX
  5
2755C
  8
0
 10
110.2180877475563
 20
259.77482152592978
 30
0.0
  0
VERTEX
  5
2755D
  8
0
 10
110.0675141415754
 20
259.93597837857209
 30
0.0
  0
VERTEX
  5
2755E
  8
0
 10
109.9273898075851
 20
260.1062989968068
 30
0.0
  0
VERTEX
  5
2755F
  8
0
 10
109.8614216826561
 20
260.19468571322801
 30
0.0
  0
VERTEX
  5
27560
  8
0
 10
109.79827117007289
 20
260.28510704869132
 30
0.0
  0
VERTEX
  5
27561
  8
0
 10
109.72824022054949
 20
260.39305024622439
 30
0.0
  0
VERTEX
  5
27562
  8
0
 10
109.7089648159257
 20
260.42435702391322
 30
0.0
  0
VERTEX
  5
27563
  8
0
 10
109.69001932434379
 20
260.45586454525892
 30
0.0
  0
VERTEX
  5
27564
  8
0
 10
109.6806709506314
 20
260.47169249924718
 30
0.0
  0
VERTEX
  5
27565
  8
0
 10
109.6714058362347
 20
260.48756933374619
 30
0.0
  0
VERTEX
  5
27566
  8
0
 10
109.65312640539641
 20
260.51946789109388
 30
0.0
  0
VERTEX
  5
27567
  8
0
 10
109.6351830487671
 20
260.55155669764008
 30
0.0
  0
VERTEX
  5
27568
  8
0
 10
109.6175777462031
 20
260.58383221272931
 30
0.0
  0
VERTEX
  5
27569
  8
0
 10
109.6003124402598
 20
260.61629087510659
 30
0.0
  0
VERTEX
  5
2756A
  8
0
 10
109.5833890359778
 20
260.64892910330769
 30
0.0
  0
VERTEX
  5
2756B
  8
0
 10
109.5750561319751
 20
260.66531442995711
 30
0.0
  0
VERTEX
  5
2756C
  8
0
 10
109.5668094006724
 20
260.68174329605699
 30
0.0
  0
VERTEX
  5
2756D
  8
0
 10
109.5505753637278
 20
260.71472983266091
 30
0.0
  0
VERTEX
  5
2756E
  8
0
 10
109.53468871639519
 20
260.74788507341049
 30
0.0
  0
VERTEX
  5
2756F
  8
0
 10
109.5268762131235
 20
260.76452481533028
 30
0.0
  0
SEQEND
  5
27570
  8
0
  0
LINE
  5
209FD
  8
0
 10
109.5268762131235
 20
260.76452481533028
 30
0.0
 11
107.6089102371843
 21
264.87761612403392
 31
0.0
  0
POLYLINE
  5
209FE
  8
0
 66
     1
 10
0.0
 20
0.0
 30
0.0
  0
VERTEX
  5
27571
  8
0
 10
107.6089102371843
 20
264.87761612403392
 30
0.0
  0
VERTEX
  5
27572
  8
0
 10
107.6021239226441
 20
264.89197057921501
 30
0.0
  0
VERTEX
  5
27573
  8
0
 10
107.5881347603994
 20
264.92038604029591
 30
0.0
  0
VERTEX
  5
27574
  8
0
 10
107.5736187700972
 20
264.94836826551182
 30
0.0
  0
VERTEX
  5
27575
  8
0
 10
107.56617468717231
 20
264.96218180525563
 30
0.0
  0
VERTEX
  5
27576
  8
0
 10
107.5586130276991
 20
264.97586930183479
 30
0.0
  0
VERTEX
  5
27577
  8
0
 10
107.5431573554463
 20
265.00284454142729
 30
0.0
  0
VERTEX
  5
27578
  8
0
 10
107.5272937906246
 20
265.02925321506251
 30
0.0
  0
VERTEX
  5
27579
  8
0
 10
107.511066055629
 20
265.05505873716447
 30
0.0
  0
VERTEX
  5
2757A
  8
0
 10
107.4945190352272
 20
265.08022892969439
 30
0.0
  0
VERTEX
  5
2757B
  8
0
 10
107.47769800019211
 20
265.10473652590832
 30
0.0
  0
VERTEX
  5
2757C
  8
0
 10
107.46919825237021
 20
265.11673551123482
 30
0.0
  0
VERTEX
  5
2757D
  8
0
 10
107.4606464726623
 20
265.12856138225828
 30
0.0
  0
VERTEX
  5
2757E
  8
0
 10
107.4434100646925
 20
265.15168428056592
 30
0.0
  0
VERTEX
  5
2757F
  8
0
 10
107.4260358961924
 20
265.1740876955127
 30
0.0
  0
VERTEX
  5
27580
  8
0
 10
107.40857180997629
 20
265.19575663002621
 30
0.0
  0
VERTEX
  5
27581
  8
0
 10
107.3910660011278
 20
265.21667876755691
 30
0.0
  0
VERTEX
  5
27582
  8
0
 10
107.37356668327961
 20
265.23684452853468
 30
0.0
  0
VERTEX
  5
27583
  8
0
 10
107.36483445655
 20
265.24664151907473
 30
0.0
  0
VERTEX
  5
27584
  8
0
 10
107.3561217918927
 20
265.25624705090468
 30
0.0
  0
VERTEX
  5
27585
  8
0
 10
107.33877872326769
 20
265.27488211195401
 30
0.0
  0
VERTEX
  5
27586
  8
0
 10
107.3215841070094
 20
265.2927480060161
 30
0.0
  0
VERTEX
  5
27587
  8
0
 10
107.3130567815455
 20
265.3013926332269
 30
0.0
  0
VERTEX
  5
27588
  8
0
 10
107.3045836088862
 20
265.3098453904085
 30
0.0
  0
VERTEX
  5
27589
  8
0
 10
107.2878020903696
 20
265.32619597803568
 30
0.0
  0
VERTEX
  5
2758A
  8
0
 10
107.27107859472321
 20
265.34199290844481
 30
0.0
  0
VERTEX
  5
2758B
  8
0
 10
107.2627231145385
 20
265.34970621333468
 30
0.0
  0
VERTEX
  5
2758C
  8
0
 10
107.25437282275639
 20
265.35729872569749
 30
0.0
  0
VERTEX
  5
2758D
  8
0
 10
107.23769068035961
 20
265.37212902886222
 30
0.0
  0
VERTEX
  5
2758E
  8
0
 10
107.2210376940295
 20
265.38649866666401
 30
0.0
  0
VERTEX
  5
2758F
  8
0
 10
107.2044190689334
 20
265.40042176917632
 30
0.0
  0
VERTEX
  5
27590
  8
0
 10
107.1878397398302
 20
265.4139117816531
 30
0.0
  0
VERTEX
  5
27591
  8
0
 10
107.1713044152918
 20
265.42698149986609
 30
0.0
  0
VERTEX
  5
27592
  8
0
 10
107.1630546737838
 20
265.43336257861671
 30
0.0
  0
VERTEX
  5
27593
  8
0
 10
107.1548176156909
 20
265.43964310634419
 30
0.0
  0
VERTEX
  5
27594
  8
0
 10
107.13838370543409
 20
265.45190820702283
 30
0.0
  0
VERTEX
  5
27595
  8
0
 10
107.1220069199218
 20
265.46378786782498
 30
0.0
  0
VERTEX
  5
27596
  8
0
 10
107.0651968679515
 20
265.5024796960297
 30
0.0
  0
VERTEX
  5
27597
  8
0
 10
106.9700296894582
 20
265.5592733280991
 30
0.0
  0
VERTEX
  5
27598
  8
0
 10
106.8783001680887
 20
265.6055057715439
 30
0.0
  0
VERTEX
  5
27599
  8
0
 10
106.7906642771465
 20
265.6426474670061
 30
0.0
  0
VERTEX
  5
2759A
  8
0
 10
106.74857458115839
 20
265.65821098704049
 30
0.0
  0
VERTEX
  5
2759B
  8
0
 10
106.7077285138716
 20
265.67196723395318
 30
0.0
  0
VERTEX
  5
2759C
  8
0
 10
106.6300144650986
 20
265.69460898743631
 30
0.0
  0
VERTEX
  5
2759D
  8
0
 10
106.55797655110131
 20
265.71161600367668
 30
0.0
  0
VERTEX
  5
2759E
  8
0
 10
106.4920064738656
 20
265.72394737665581
 30
0.0
  0
VERTEX
  5
2759F
  8
0
 10
106.4324433039671
 20
265.73248452750983
 30
0.0
  0
VERTEX
  5
275A0
  8
0
 10
106.3795632944562
 20
265.73803479408713
 30
0.0
  0
VERTEX
  5
275A1
  8
0
 10
106.35569590260739
 20
265.73992116706631
 30
0.0
  0
VERTEX
  5
275A2
  8
0
 10
106.3335706206998
 20
265.7413280332367
 30
0.0
  0
VERTEX
  5
275A3
  8
0
 10
106.29460191066821
 20
265.74300896893692
 30
0.0
  0
VERTEX
  5
275A4
  8
0
 10
106.26272505796049
 20
265.7436299751098
 30
0.0
  0
VERTEX
  5
275A5
  8
0
 10
106.2494485566294
 20
265.74368873142248
 30
0.0
  0
SEQEND
  5
275A6
  8
0
  0
LINE
  5
209FF
  8
0
 10
162.20505394784061
 20
267.74368873142248
 30
0.0
 11
77.205053947840611
 21
267.74368873142248
 31
0.0
  0
LINE
  5
20A00
  8
0
 10
116.7050539478406
 20
239.74368873142251
 30
0.0
 11
122.7050539478406
 21
239.74368873142251
 31
0.0
  0
LINE
  5
20A01
  8
0
 10
122.7050539478406
 20
139.74368873142251
 30
0.0
 11
116.7050539478406
 21
139.74368873142251
 31
0.0
  0
ARC
  5
20A02
  8
0
 10
116.7050539478406
 20
140.04368873142261
 30
0.0
 40
0.3000000000000185
 50
180.0
 51
270.0
  0
ARC
  5
20A03
  8
0
 10
116.7050539478406
 20
239.44368873142321
 30
0.0
 40
0.3000000000000136
 50
90.0
 51
180.0
  0
LINE
  5
20A04
  8
0
 10
114.00505394784059
 20
239.44368873142321
 30
0.0
 11
116.4050539478406
 21
239.44368873142321
 31
0.0
  0
LINE
  5
20A05
  8
0
 10
116.4050539478406
 20
140.04368873142261
 30
0.0
 11
114.00505394784059
 21
140.04368873142261
 31
0.0
  0
ARC
  5
20A06
  8
0
 10
113.7050539478406
 20
140.04368873142261
 30
0.0
 40
0.2999999999999998
 50
270.0
 51
0.0
  0
ARC
  5
20A07
  8
0
 10
113.7050539478406
 20
239.44368873142321
 30
0.0
 40
0.2999999999999971
 50
0.0
 51
90.0
  0
LINE
  5
20A08
  8
0
 10
112.30489928153089
 20
239.74368873142251
 30
0.0
 11
113.7050539478406
 21
239.74368873142251
 31
0.0
  0
LINE
  5
20A09
  8
0
 10
113.7050539478406
 20
139.74368873142251
 30
0.0
 11
112.30489928153089
 21
139.74368873142251
 31
0.0
  0
ARC
  5
20A0A
  8
0
 10
112.30489928153089
 20
140.74368873142251
 30
0.0
 40
1.0000000000000211
 50
198.9999999999882
 51
270.0
  0
ARC
  5
20A0B
  8
0
 10
112.30489928153089
 20
238.74368873142251
 30
0.0
 40
1.0000000000000191
 50
90.0
 51
161.0000000000118
  0
LINE
  5
20A0C
  8
0
 10
110.3117743539393
 20
236.0267871229016
 30
0.0
 11
111.3593807059316
 21
239.06925688588041
 31
0.0
  0
LINE
  5
20A0D
  8
0
 10
111.3593807059316
 20
140.41812057696549
 30
0.0
 11
110.3117743539393
 21
143.46059033994419
 31
0.0
  0
ARC
  5
20A0E
  8
0
 10
113.1483300807373
 20
144.4372948033151
 30
0.0
 40
3.0000000000000022
 50
180.0
 51
198.9999999999882
  0
ARC
  5
20A0F
  8
0
 10
113.1483300807373
 20
235.05008265952981
 30
0.0
 40
3.000000000000087
 50
161.0000000000118
 51
180.0
  0
ARC
  5
20A10
  8
0
 10
109.6483300807373
 20
145.3873724149089
 30
0.0
 40
0.5
 50
180.0
 51
0.0
  0
ARC
  5
20A11
  8
0
 10
109.6483300807373
 20
234.100005047937
 30
0.0
 40
0.5
 50
0.0
 51
180.0
  0
ARC
  5
20A12
  8
0
 10
108.6483300807373
 20
148.29158329258459
 30
0.0
 40
0.5
 50
180.0
 51
0.0
  0
ARC
  5
20A13
  8
0
 10
108.6483300807373
 20
231.19579417026031
 30
0.0
 40
0.5
 50
0.0
 51
180.0
  0
LINE
  5
20A14
  8
0
 10
104.8684982210427
 20
220.21836536755021
 30
0.0
 11
108.1483300807373
 21
229.74368873142251
 31
0.0
  0
LINE
  5
20A15
  8
0
 10
108.1483300807373
 20
149.74368873142251
 30
0.0
 11
104.8684982210427
 21
159.26901209529569
 31
0.0
  0
ARC
  5
20A16
  8
0
 10
107.7050539478405
 20
160.24571655866649
 30
0.0
 40
2.9999999999999121
 50
180.0
 51
198.9999999999882
  0
ARC
  5
20A17
  8
0
 10
107.7050539478405
 20
219.24166090417839
 30
0.0
 40
2.9999999999999121
 50
161.0000000000118
 51
180.0
  0
ARC
  5
20A18
  8
0
 10
131.70505394784041
 20
160.24571655866751
 30
0.0
 40
3.000000000000246
 50
341.00000000001188
 51
0.0
  0
ARC
  5
20A19
  8
0
 10
131.70505394784021
 20
219.24166090417839
 30
0.0
 40
3.0000000000003491
 50
0.0000008537736463
 51
18.999999999988098
  0
LINE
  5
20A1A
  8
0
 10
131.26177781494391
 20
229.74368873142251
 30
0.0
 11
134.54160967463861
 21
220.21836536755021
 31
0.0
  0
LINE
  5
20A1B
  8
0
 10
134.54160967463861
 20
159.26901209529569
 30
0.0
 11
131.26177781494391
 21
149.74368873142251
 31
0.0
  0
ARC
  5
20A1C
  8
0
 10
130.761777814944
 20
148.29158329258459
 30
0.0
 40
0.5
 50
180.0
 51
0.0
  0
ARC
  5
20A1D
  8
0
 10
130.761777814944
 20
231.19579417026031
 30
0.0
 40
0.5
 50
0.0
 51
180.0
  0
ARC
  5
20A1E
  8
0
 10
129.761777814944
 20
145.3873724149089
 30
0.0
 40
0.5
 50
180.0
 51
0.0
  0
ARC
  5
20A1F
  8
0
 10
129.761777814944
 20
234.100005047937
 30
0.0
 40
0.5
 50
0.0
 51
180.0
  0
ARC
  5
20A20
  8
0
 10
126.2617778149441
 20
144.4372948033151
 30
0.0
 40
2.9999999999998561
 50
341.00000000001182
 51
0.0000008537736463
  0
ARC
  5
20A21
  8
0
 10
126.2617778149441
 20
235.05008265952981
 30
0.0
 40
2.9999999999998561
 50
0.0
 51
18.999999999988191
  0
LINE
  5
20A22
  8
0
 10
128.05072718974961
 20
239.06925688588041
 30
0.0
 11
129.09833354174191
 21
236.0267871229016
 31
0.0
  0
LINE
  5
20A23
  8
0
 10
129.09833354174191
 20
143.46059033994419
 30
0.0
 11
128.05072718974961
 21
140.41812057696549
 31
0.0
  0
ARC
  5
20A24
  8
0
 10
127.1052086141503
 20
140.74368873142251
 30
0.0
 40
1.0000000000000191
 50
270.0
 51
341.00000000001182
  0
ARC
  5
20A25
  8
0
 10
127.1052086141503
 20
238.74368873142251
 30
0.0
 40
1.0000000000000211
 50
18.999999999988191
 51
90.0
  0
LINE
  5
20A26
  8
0
 10
125.7050539478406
 20
239.74368873142251
 30
0.0
 11
127.1052086141503
 21
239.74368873142251
 31
0.0
  0
LINE
  5
20A27
  8
0
 10
127.1052086141503
 20
139.74368873142251
 30
0.0
 11
125.7050539478406
 21
139.74368873142251
 31
0.0
  0
ARC
  5
20A28
  8
0
 10
125.7050539478406
 20
140.04368873142261
 30
0.0
 40
0.3000000000000043
 50
180.0
 51
270.0
  0
ARC
  5
20A29
  8
0
 10
125.7050539478406
 20
239.44368873142321
 30
0.0
 40
0.3000000000000016
 50
90.0
 51
180.0
  0
LINE
  5
20A2A
  8
0
 10
123.00505394784059
 20
239.44368873142321
 30
0.0
 11
125.4050539478406
 21
239.44368873142321
 31
0.0
  0
LINE
  5
20A2B
  8
0
 10
125.4050539478406
 20
140.04368873142261
 30
0.0
 11
123.00505394784059
 21
140.04368873142261
 31
0.0
  0
ARC
  5
20A2C
  8
0
 10
122.7050539478406
 20
140.04368873142261
 30
0.0
 40
0.2999999999999989
 50
270.0
 51
0.0
  0
ARC
  5
20A2D
  8
0
 10
122.7050539478406
 20
239.44368873142321
 30
0.0
 40
0.2999999999999971
 50
0.0
 51
90.0
  0
LINE
  5
20A2E
  8
0
 10
116.4050539478406
 20
140.04368873142261
 30
0.0
 11
116.4050539478406
 21
239.44368873142321
 31
0.0
  0
LINE
  5
20A2F
  8
0
 10
114.00505394784059
 20
140.04368873142261
 30
0.0
 11
114.00505394784059
 21
239.44368873142321
 31
0.0
  0
LINE
  5
20A30
  8
0
 10
110.1483300807373
 20
144.4372948033151
 30
0.0
 11
110.1483300807373
 21
235.05008265952981
 31
0.0
  0
LINE
  5
20A31
  8
0
 10
109.1483300807373
 20
145.3873724149089
 30
0.0
 11
109.1483300807373
 21
234.100005047937
 31
0.0
  0
LINE
  5
20A32
  8
0
 10
108.1483300807373
 20
148.29158329258459
 30
0.0
 11
108.1483300807373
 21
231.19579417026031
 31
0.0
  0
LINE
  5
20A33
  8
0
 10
104.7050539478406
 20
160.24571655866649
 30
0.0
 11
104.7050539478406
 21
219.24166090417839
 31
0.0
  0
LINE
  5
20A34
  8
0
 10
131.26177781494391
 20
148.29158329258459
 30
0.0
 11
131.26177781494391
 21
231.19579417026031
 31
0.0
  0
LINE
  5
20A35
  8
0
 10
130.26177781494391
 20
145.3873724149089
 30
0.0
 11
130.26177781494391
 21
234.100005047937
 31
0.0
  0
LINE
  5
20A36
  8
0
 10
129.26177781494391
 20
144.4372948033151
 30
0.0
 11
129.26177781494391
 21
235.05008265952981
 31
0.0
  0
LINE
  5
20A37
  8
0
 10
125.4050539478406
 20
140.04368873142261
 30
0.0
 11
125.4050539478406
 21
239.44368873142321
 31
0.0
  0
LINE
  5
20A38
  8
0
 10
123.00505394784059
 20
140.04368873142261
 30
0.0
 11
123.00505394784059
 21
239.44368873142321
 31
0.0
  0
LINE
  5
20A39
  8
0
 10
134.70505394784061
 20
160.24571655866649
 30
0.0
 11
134.70505394784061
 21
219.24166090417839
 31
0.0
  0
LINE
  5
20A3A
  8
1
 10
162.29445762991071
 20
189.74368873142251
 30
0.0
 11
77.115650265770455
 21
189.74368873142251
 31
0.0
  0
LINE
  5
20A3B
  8
1
 10
119.7050539478406
 20
127.9274887509782
 30
0.0
 11
119.7050539478406
 21
279.55988871186491
 31
0.0
  0
LINE
  5
20A3C
  8
3
 10
84.705053947840597
 20
186.51068873142231
 30
0.0
 11
87.205053947840597
 21
186.51068873142231
 31
0.0
  0
LINE
  5
20A3D
  8
3
 10
84.705053947840597
 20
192.9766887314226
 30
0.0
 11
85.137117457302224
 21
192.9766887314226
 31
0.0
  0
ARC
  5
2112F
  8
0
 10
307.42507066524098
 20
189.74368873142339
 30
0.0
 40
24.968730444297758
 50
162.70080217991111
 51
17.29919782008891
  0
LINE
  5
26E1A
  8
0
 10
313.68340399857431
 20
407.98045729116342
 30
0.0
 11
313.68340399857431
 21
402.48045729116348
 31
0.0
  0
LINE
  5
26E1C
  8
0
 10
301.1667373319076
 20
407.98045729116342
 30
0.0
 11
301.1667373319076
 21
402.48045729116348
 31
0.0
  0
LINE
  5
26E1D
  8
0
 10
313.68340399857448
 20
352.88045729116311
 30
0.0
 11
313.68340399857448
 21
348.18045729116329
 31
0.0
  0
LINE
  5
26E1E
  8
0
 10
301.16673733190783
 20
352.88045729116311
 30
0.0
 11
301.16673733190783
 21
348.18045729116329
 31
0.0
  0
TEXT
  5
26E7A
  8
0
 62
     3
 10
0.0
 20
0.0
 30
0.0
 40
10.0
  1
CAE2-100PBL
  7
STANDARD1
  0
ENDSEC
  0
EOF
