  0
SECTION
  2
HEADER
  9
$ACADVER
  1
AC1009
  9
$INSBASE
 10
0.0
 20
0.0
 30
0.0
  9
$EXTMIN
 10
0.0
 20
-2.960436562073669
 30
0.0
  9
$EXTMAX
 10
575.79406267344984
 20
478.63813956089501
 30
0.0
  9
$LIMMIN
 10
0.0
 20
0.0
  9
$LIMMAX
 10
375.0
 20
270.0
  9
$ORTHOMODE
 70
     1
  9
$REGENMODE
 70
     1
  9
$FILLMODE
 70
     1
  9
$QTEXTMODE
 70
     0
  9
$MIRRTEXT
 70
     1
  9
$DRAGMODE
 70
     2
  9
$LTSCALE
 40
10.0
  9
$OSMODE
 70
  3071
  9
$ATTMODE
 70
     1
  9
$TEXTSIZE
 40
5.0
  9
$TRACEWID
 40
0.05
  9
$TEXTSTYLE
  7
STANDARD
  9
$CLAYER
  8
0
  9
$CELTYPE
  6
BYLAYER
  9
$CECOLOR
 62
     6
  9
$DIMSCALE
 40
2.0
  9
$DIMASZ
 40
3.0
  9
$DIMEXO
 40
2.0
  9
$DIMDLI
 40
0.38
  9
$DIMRND
 40
0.0
  9
$DIMDLE
 40
0.0
  9
$DIMEXE
 40
2.0
  9
$DIMTP
 40
0.0
  9
$DIMTM
 40
0.0
  9
$DIMTXT
 40
3.2000000000000002
  9
$DIMCEN
 40
0.0
  9
$DIMTSZ
 40
0.0
  9
$DIMTOL
 70
     0
  9
$DIMLIM
 70
     0
  9
$DIMTIH
 70
     0
  9
$DIMTOH
 70
     0
  9
$DIMSE1
 70
     0
  9
$DIMSE2
 70
     0
  9
$DIMTAD
 70
     1
  9
$DIMZIN
 70
     8
  9
$DIMBLK
  1

  9
$DIMASO
 70
     0
  9
$DIMSHO
 70
     0
  9
$DIMPOST
  1

  9
$DIMAPOST
  1

  9
$DIMALT
 70
     0
  9
$DIMALTD
 70
     2
  9
$DIMALTF
 40
25.399999999999999
  9
$DIMLFAC
 40
1.0
  9
$DIMTOFL
 70
     0
  9
$DIMTVP
 40
1.6000000000000001
  9
$DIMTIX
 70
     1
  9
$DIMSOXD
 70
     0
  9
$DIMSAH
 70
     0
  9
$DIMBLK1
  1

  9
$DIMBLK2
  1

  9
$DIMSTYLE
  2
STANDARD
  9
$DIMCLRD
 70
     0
  9
$DIMCLRE
 70
     0
  9
$DIMCLRT
 70
     0
  9
$DIMTFAC
 40
1.0
  9
$DIMGAP
 40
1.1999999999999991
  9
$LUNITS
 70
     2
  9
$LUPREC
 70
     4
  9
$SKETCHINC
 40
0.1
  9
$FILLETRAD
 40
0.0
  9
$AUNITS
 70
     0
  9
$AUPREC
 70
     4
  9
$MENU
  1
ACAD
  9
$ELEVATION
 40
0.0
  9
$PELEVATION
 40
0.0
  9
$THICKNESS
 40
0.0
  9
$LIMCHECK
 70
     0
  9
$BLIPMODE
 70
     0
  9
$CHAMFERA
 40
0.0
  9
$CHAMFERB
 40
0.0
  9
$SKPOLY
 70
     0
  9
$TDCREATE
 40
2448055.7149187499
  9
$TDUPDATE
 40
2456598.5584733328
  9
$TDINDWG
 40
2.7186040740999999
  9
$TDUSRTIMER
 40
2.7186040740999999
  9
$USRTIMER
 70
     1
  9
$ANGBASE
 50
0.0
  9
$ANGDIR
 70
     0
  9
$PDMODE
 70
     0
  9
$PDSIZE
 40
0.0
  9
$PLINEWID
 40
0.0
  9
$COORDS
 70
     1
  9
$SPLFRAME
 70
     0
  9
$SPLINETYPE
 70
     6
  9
$SPLINESEGS
 70
     8
  9
$ATTDIA
 70
     0
  9
$ATTREQ
 70
     1
  9
$HANDLING
 70
     1
  9
$HANDSEED
  5
275FB
  9
$SURFTAB1
 70
     6
  9
$SURFTAB2
 70
     6
  9
$SURFTYPE
 70
     6
  9
$SURFU
 70
     6
  9
$SURFV
 70
     6
  9
$UCSNAME
  2

  9
$UCSORG
 10
0.0
 20
0.0
 30
0.0
  9
$UCSXDIR
 10
1.0
 20
0.0
 30
0.0
  9
$UCSYDIR
 10
0.0
 20
1.0
 30
0.0
  9
$PUCSNAME
  2

  9
$PUCSORG
 10
0.0
 20
0.0
 30
0.0
  9
$PUCSXDIR
 10
1.0
 20
0.0
 30
0.0
  9
$PUCSYDIR
 10
0.0
 20
1.0
 30
0.0
  9
$USERI1
 70
     0
  9
$USERI2
 70
     0
  9
$USERI3
 70
     0
  9
$USERI4
 70
     0
  9
$USERI5
 70
     0
  9
$USERR1
 40
0.0
  9
$USERR2
 40
0.0
  9
$USERR3
 40
0.0
  9
$USERR4
 40
0.0
  9
$USERR5
 40
0.0
  9
$WORLDVIEW
 70
     1
  9
$SHADEDGE
 70
     3
  9
$SHADEDIF
 70
    70
  9
$TILEMODE
 70
     1
  9
$MAXACTVP
 70
    16
  9
$PLIMCHECK
 70
     0
  9
$PEXTMIN
 10
1.0000000000000000E+020
 20
1.0000000000000000E+020
 30
1.0000000000000000E+020
  9
$PEXTMAX
 10
-1.0000000000000000E+020
 20
-1.0000000000000000E+020
 30
-1.0000000000000000E+020
  9
$PLIMMIN
 10
0.0
 20
0.0
  9
$PLIMMAX
 10
12.0
 20
9.0
  9
$UNITMODE
 70
     0
  9
$VISRETAIN
 70
     0
  9
$PLINEGEN
 70
     1
  9
$PSLTSCALE
 70
     0
  0
ENDSEC
  0
SECTION
  2
TABLES
  0
TABLE
  2
VPORT
 70
     1
  0
VPORT
  2
*ACTIVE
 70
     0
 10
0.0
 20
0.0
 11
1.0
 21
1.0
 12
301.24234815012238
 22
237.84012461535451
 13
0.0
 23
0.0
 14
5.0
 24
5.0
 15
10.0
 25
10.0
 16
0.0
 26
0.0
 36
1.0
 17
0.0
 27
0.0
 37
0.0
 40
485.9447548051844
 41
1.831871345029239
 42
50.0
 43
0.0
 44
0.0
 50
0.0
 51
0.0
 71
     0
 72
   500
 73
     1
 74
     1
 75
     0
 76
     0
 77
     0
 78
     2
  0
ENDTAB
  0
TABLE
  2
LTYPE
 70
     3
  0
LTYPE
  2
CONTINUOUS
 70
     0
  3
実線
 72
    65
 73
     0
 40
0.0
  0
LTYPE
  2
CENTER
 70
     0
  3
____ _ ____ _ ____ _ ____ _ ____ _ ____ _ ____
 72
    65
 73
     4
 40
2.0
 49
1.25
 49
-0.25
 49
0.25
 49
-0.25
  0
LTYPE
  2
PHANTOM2
 70
     0
  3
___ _ _ ___ _ _ ___ _ _ ___ _ _
 72
    65
 73
     6
 40
1.25
 49
0.625
 49
-0.125
 49
0.125
 49
-0.125
 49
0.125
 49
-0.125
  0
ENDTAB
  0
TABLE
  2
LAYER
 70
     4
  0
LAYER
  2
0
 70
     0
 62
     7
  6
CONTINUOUS
  0
LAYER
  2
1
 70
     0
 62
     1
  6
CENTER
  0
LAYER
  2
DEFPOINTS
 70
     0
 62
     7
  6
CONTINUOUS
  0
LAYER
  2
3
 70
     0
 62
     3
  6
CONTINUOUS
  0
ENDTAB
  0
TABLE
  2
STYLE
 70
     3
  0
STYLE
  2
STANDARD
 70
     0
 40
0.0
 41
1.0
 50
0.0
 71
     0
 42
5.0
  3
simplex.shx
  4
bigfont.shx
  0
STYLE
  2
07500
 70
     0
 40
0.0
 41
0.75
 50
0.0
 71
     0
 42
0.2
  3
simplex.shx
  4
bigfont.shx
  0
STYLE
  2
STANDARD1
 70
     0
 40
0.0
 41
1.0
 50
0.0
 71
     0
 42
3.0
  3
txt
  4

  0
ENDTAB
  0
TABLE
  2
VIEW
 70
     2
  0
VIEW
  2
ALL
 70
     0
 40
270.0
 10
220.99159663865549
 20
135.0
 41
0.0
 11
0.0
 21
0.0
 31
1.0
 12
0.0
 22
0.0
 32
0.0
 42
0.0
 43
0.0
 44
0.0
 50
0.0
 71
     0
  0
VIEW
  2
OLE1
 70
     0
 40
168.2487151179721
 10
2892.3009567448912
 20
702.51600084347126
 41
162.5749581879237
 11
0.0
 21
0.0
 31
1.0
 12
0.0
 22
0.0
 32
0.0
 42
50.0
 43
0.0
 44
0.0
 50
0.0
 71
     0
  0
ENDTAB
  0
TABLE
  2
UCS
 70
     0
  0
ENDTAB
  0
TABLE
  2
APPID
 70
    48
  0
APPID
  2
ACAD
 70
     0
  0
APPID
  2
DCO15
 70
     0
  0
APPID
  2
GENIUS_GENOREF_13
 70
     0
  0
APPID
  2
GENIUS_GENOENT_13
 70
     0
  0
APPID
  2
GENIUS_GENBH_13
 70
     0
  0
APPID
  2
GENIUS_GENOBJ_13
 70
     0
  0
APPID
  2
GENIUS_GENODEF_13
 70
     0
  0
APPID
  2
GENIUS_GENOLIS_13
 70
     0
  0
APPID
  2
GENIUS_GENOBJ-NBEHI-BHF_13
 70
     0
  0
APPID
  2
GENIUS_GENOBJ-NBEHI-BHB_13
 70
     0
  0
APPID
  2
GENIUS_GENOBJ-F-PART_13
 70
     0
  0
APPID
  2
GENIUS_GEFSTDP_13
 70
     0
  0
APPID
  2
GENIUS_GENOBJ-N-RSSYM_13
 70
     0
  0
APPID
  2
GENIUS_GENSYMENT_13
 70
     0
  0
APPID
  2
GENIUS_GENOBJ-N-TIT_13
 70
     0
  0
APPID
  2
GENIUS_GENTITLE_13
 70
     0
  0
APPID
  2
GENIUS_GENZVEED_13
 70
     0
  0
APPID
  2
GENIUS_GENOBJ-N-LEADER_13
 70
     0
  0
APPID
  2
GENIUS_GENOBJ-N-FIL_13
 70
     0
  0
APPID
  2
GENIUS_GENOBJ-N-SEC_13
 70
     0
  0
APPID
  2
GENIUS_GENOBJ-N-CRS_13
 70
     0
  0
APPID
  2
GENIUS_GENOBJ-N-ZOO_13
 70
     0
  0
APPID
  2
GENIUS_GENZOO_13
 70
     0
  0
APPID
  2
GENIUS_GENOBJ-F-TOL_13
 70
     0
  0
APPID
  2
GENIUS_GENFIL_13
 70
     0
  0
APPID
  2
GENIUS_GENOBJ-N-CHA_13
 70
     0
  0
APPID
  2
_CALL_MAC$
 70
     0
  0
APPID
  2
ASM_BASE
 70
     0
  0
APPID
  2
ASM_EXPLO_VER_2_00
 70
     0
  0
APPID
  2
ASM_CADM_VER_12_00
 70
     0
  0
APPID
  2
ASM_BASEFORO
 70
     0
  0
APPID
  2
ASM_BASETRAVI
 70
     0
  0
APPID
  2
ASM_BASETRAVI1
 70
     0
  0
APPID
  2
ASM_GRUPPI
 70
     0
  0
APPID
  2
ASM_CADM_ALBERO
 70
     0
  0
APPID
  2
ASM_GOLE
 70
     0
  0
APPID
  2
ACAD_MLEADERVER
 70
     0
  0
APPID
  2
ACAD_DSTYLE_DIMJAG
 70
     0
  0
APPID
  2
ACAD_DSTYLE_DIMTALN
 70
     0
  0
APPID
  2
ACAD_EXEMPT_FROM_CAD_STANDARDS
 70
     0
  0
APPID
  2
ACAD_DSTYLE_DIMRADIAL_EXTENSION
 70
     0
  0
APPID
  2
ACAD_PSEXT
 70
     0
  0
APPID
  2
ACAD_DSTYLE_DIMBREAK
 70
     0
  0
APPID
  2
ACAECLAYERSTANDARD
 70
     0
  0
APPID
  2
ACCMTRANSPARENCY
 70
     0
  0
APPID
  2
GRADIENTCOLOR1ACI
 70
     0
  0
APPID
  2
GRADIENTCOLOR2ACI
 70
     0
  0
APPID
  2
ACAD_NAV_VCDISPLAY
 70
     0
  0
ENDTAB
  0
TABLE
  2
DIMSTYLE
 70
     1
  0
DIMSTYLE
  2
STANDARD
 70
     0
  3

  4

  5

  6

  7

 40
1.0
 41
0.18
 42
0.0625
 43
0.38
 44
0.18
 45
0.0
 46
0.0
 47
0.0
 48
0.0
140
0.18
141
0.09
142
0.0
143
25.399999999999999
144
1.0
145
0.0
146
1.0
147
0.09
 71
     0
 72
     0
 73
     1
 74
     1
 75
     0
 76
     0
 77
     0
 78
     0
170
     0
171
     2
172
     0
173
     0
174
     0
175
     0
176
     0
177
     0
178
     0
  0
ENDTAB
  0
ENDSEC
  0
SECTION
  2
BLOCKS
  0
BLOCK
  8
0
  2
$MODEL_SPACE
 70
     0
 10
0.0
 20
0.0
 30
0.0
  3
$MODEL_SPACE
  1

  0
ENDBLK
  5
36
  8
0
  0
BLOCK
 67
     1
  8
0
  2
$PAPER_SPACE
 70
     0
 10
0.0
 20
0.0
 30
0.0
  3
$PAPER_SPACE
  1

  0
ENDBLK
  5
34
 67
     1
  8
0
  0
ENDSEC
  0
SECTION
  2
ENTITIES
  0
LINE
  5
1AA0C
  8
0
 10
313.08731598404762
 20
410.27251748445991
 30
0.0
 11
313.08731598404762
 21
409.67251748445949
 31
0.0
  0
LINE
  5
1AA0D
  8
0
 10
324.71731598404762
 20
409.67251748445949
 30
0.0
 11
324.71731598404762
 21
410.27251748445991
 31
0.0
  0
LINE
  5
1AA0E
  8
0
 10
314.90231598404762
 20
469.00551748446009
 30
0.0
 11
314.90231598404762
 21
467.27251748445991
 31
0.0
  0
LINE
  5
1AA0F
  8
0
 10
322.90231598404762
 20
467.27251748445991
 30
0.0
 11
322.90231598404762
 21
469.00551748446009
 31
0.0
  0
LINE
  5
1AA10
  8
0
 10
315.66931598404761
 20
469.77251748445991
 30
0.0
 11
314.90231598404762
 21
469.00551748446009
 31
0.0
  0
LINE
  5
1AA11
  8
0
 10
322.90231598404762
 20
469.00551748446009
 30
0.0
 11
322.13531598404762
 21
469.77251748445991
 31
0.0
  0
LINE
  5
1AA12
  8
0
 10
313.08731598404762
 20
467.27251748445991
 30
0.0
 11
313.08731598404762
 21
464.77251748445991
 31
0.0
  0
LINE
  5
1AA13
  8
0
 10
324.71731598404762
 20
464.77251748445991
 30
0.0
 11
324.71731598404762
 21
467.27251748445991
 31
0.0
  0
LINE
  5
1AA14
  8
0
 10
322.90231598404762
 20
469.00551748446009
 30
0.0
 11
314.90231598404762
 21
469.00551748446009
 31
0.0
  0
LINE
  5
1AA15
  8
0
 10
322.13531598404762
 20
469.77251748445991
 30
0.0
 11
315.66931598404761
 21
469.77251748445991
 31
0.0
  0
LINE
  5
1AA16
  8
0
 10
325.160649317381
 20
404.47251748445979
 30
0.0
 11
312.64398265071429
 21
404.47251748445979
 31
0.0
  0
LINE
  5
1AA17
  8
0
 10
325.160649317381
 20
409.67251748445949
 30
0.0
 11
312.64398265071429
 21
409.67251748445949
 31
0.0
  0
LINE
  5
1AA18
  8
0
 10
325.160649317381
 20
404.47251748445979
 30
0.0
 11
325.160649317381
 21
409.67251748445949
 31
0.0
  0
POLYLINE
  5
1AA19
  8
0
 66
     1
 10
0.0
 20
0.0
 30
0.0
  0
VERTEX
  5
26ED7
  8
0
 10
315.7731493173809
 20
409.67251748445949
 30
0.0
  0
VERTEX
  5
26ED8
  8
0
 10
316.27558706929648
 20
409.6653273508399
 30
0.0
  0
VERTEX
  5
26ED9
  8
0
 10
317.28434761320881
 20
409.6085527670557
 30
0.0
  0
VERTEX
  5
26EDA
  8
0
 10
318.34013750593277
 20
409.49394242830289
 30
0.0
  0
VERTEX
  5
26EDB
  8
0
 10
318.90231598404762
 20
409.4130977750446
 30
0.0
  0
SEQEND
  5
26EDC
  8
0
  0
POLYLINE
  5
1AA1A
  8
0
 66
     1
 10
0.0
 20
0.0
 30
0.0
  0
VERTEX
  5
26EDD
  8
0
 10
318.90231598404762
 20
404.73193719387558
 30
0.0
  0
VERTEX
  5
26EDE
  8
0
 10
318.34013750593277
 20
404.6510925406173
 30
0.0
  0
VERTEX
  5
26EDF
  8
0
 10
317.28434761320881
 20
404.5364822018646
 30
0.0
  0
VERTEX
  5
26EE0
  8
0
 10
316.27558706929648
 20
404.47970761808023
 30
0.0
  0
VERTEX
  5
26EE1
  8
0
 10
315.7731493173809
 20
404.47251748445979
 30
0.0
  0
SEQEND
  5
26EE2
  8
0
  0
POLYLINE
  5
1AA1B
  8
0
 66
     1
 10
0.0
 20
0.0
 30
0.0
  0
VERTEX
  5
26EE3
  8
0
 10
315.7731493173809
 20
404.47251748445979
 30
0.0
  0
VERTEX
  5
26EE4
  8
0
 10
315.27071156546538
 20
404.47970761808023
 30
0.0
  0
VERTEX
  5
26EE5
  8
0
 10
314.26195102155299
 20
404.5364822018646
 30
0.0
  0
VERTEX
  5
26EE6
  8
0
 10
313.20616112882908
 20
404.6510925406173
 30
0.0
  0
VERTEX
  5
26EE7
  8
0
 10
312.64398265071429
 20
404.73193719387558
 30
0.0
  0
SEQEND
  5
26EE8
  8
0
  0
POLYLINE
  5
1AA1C
  8
0
 66
     1
 10
0.0
 20
0.0
 30
0.0
  0
VERTEX
  5
26EE9
  8
0
 10
312.64398265071429
 20
409.4130977750446
 30
0.0
  0
VERTEX
  5
26EEA
  8
0
 10
313.20616112882908
 20
409.49394242830289
 30
0.0
  0
VERTEX
  5
26EEB
  8
0
 10
314.26195102155299
 20
409.6085527670557
 30
0.0
  0
VERTEX
  5
26EEC
  8
0
 10
315.27071156546538
 20
409.6653273508399
 30
0.0
  0
VERTEX
  5
26EED
  8
0
 10
315.7731493173809
 20
409.67251748445949
 30
0.0
  0
SEQEND
  5
26EEE
  8
0
  0
POLYLINE
  5
1AA1D
  8
0
 66
     1
 10
0.0
 20
0.0
 30
0.0
  0
VERTEX
  5
26EEF
  8
0
 10
322.03148265071428
 20
409.67251748445949
 30
0.0
  0
VERTEX
  5
26EF0
  8
0
 10
322.5339204026298
 20
409.6653273508399
 30
0.0
  0
VERTEX
  5
26EF1
  8
0
 10
323.54268094654219
 20
409.6085527670557
 30
0.0
  0
VERTEX
  5
26EF2
  8
0
 10
324.59847083926621
 20
409.49394242830289
 30
0.0
  0
VERTEX
  5
26EF3
  8
0
 10
325.160649317381
 20
409.4130977750446
 30
0.0
  0
SEQEND
  5
26EF4
  8
0
  0
POLYLINE
  5
1AA1E
  8
0
 66
     1
 10
0.0
 20
0.0
 30
0.0
  0
VERTEX
  5
26EF5
  8
0
 10
325.160649317381
 20
404.73193719387558
 30
0.0
  0
VERTEX
  5
26EF6
  8
0
 10
324.59847083926621
 20
404.6510925406173
 30
0.0
  0
VERTEX
  5
26EF7
  8
0
 10
323.54268094654219
 20
404.5364822018646
 30
0.0
  0
VERTEX
  5
26EF8
  8
0
 10
322.5339204026298
 20
404.47970761808023
 30
0.0
  0
VERTEX
  5
26EF9
  8
0
 10
322.03148265071428
 20
404.47251748445979
 30
0.0
  0
SEQEND
  5
26EFA
  8
0
  0
POLYLINE
  5
1AA1F
  8
0
 66
     1
 10
0.0
 20
0.0
 30
0.0
  0
VERTEX
  5
26EFB
  8
0
 10
322.03148265071428
 20
404.47251748445979
 30
0.0
  0
VERTEX
  5
26EFC
  8
0
 10
321.52904489879882
 20
404.47970761808023
 30
0.0
  0
VERTEX
  5
26EFD
  8
0
 10
320.52028435488643
 20
404.5364822018646
 30
0.0
  0
VERTEX
  5
26EFE
  8
0
 10
319.46449446216241
 20
404.6510925406173
 30
0.0
  0
VERTEX
  5
26EFF
  8
0
 10
318.90231598404762
 20
404.73193719387558
 30
0.0
  0
SEQEND
  5
26F00
  8
0
  0
LINE
  5
1AA20
  8
0
 10
318.90231598404762
 20
404.73193719387558
 30
0.0
 11
318.90231598404762
 21
409.4130977750446
 31
0.0
  0
POLYLINE
  5
1AA21
  8
0
 66
     1
 10
0.0
 20
0.0
 30
0.0
  0
VERTEX
  5
26F01
  8
0
 10
318.90231598404762
 20
409.4130977750446
 30
0.0
  0
VERTEX
  5
26F02
  8
0
 10
319.46449446216241
 20
409.49394242830289
 30
0.0
  0
VERTEX
  5
26F03
  8
0
 10
320.52028435488643
 20
409.6085527670557
 30
0.0
  0
VERTEX
  5
26F04
  8
0
 10
321.52904489879882
 20
409.6653273508399
 30
0.0
  0
VERTEX
  5
26F05
  8
0
 10
322.03148265071428
 20
409.67251748445949
 30
0.0
  0
SEQEND
  5
26F06
  8
0
  0
LINE
  5
1AA22
  8
0
 10
312.64398265071429
 20
409.67251748445949
 30
0.0
 11
312.64398265071429
 21
404.47251748445979
 31
0.0
  0
LINE
  5
1AA23
  8
0
 10
324.71731598404762
 20
467.27251748445991
 30
0.0
 11
313.08731598404762
 21
467.27251748445991
 31
0.0
  0
LINE
  5
1AA24
  8
0
 10
325.160649317381
 20
464.77251748445991
 30
0.0
 11
312.64398265071429
 21
464.77251748445991
 31
0.0
  0
LINE
  5
1AA25
  8
0
 10
325.160649317381
 20
459.27251748445991
 30
0.0
 11
325.160649317381
 21
464.77251748445991
 31
0.0
  0
POLYLINE
  5
1AA26
  8
0
 66
     1
 10
0.0
 20
0.0
 30
0.0
  0
VERTEX
  5
26F07
  8
0
 10
315.7731493173809
 20
464.77251748445991
 30
0.0
  0
VERTEX
  5
26F08
  8
0
 10
316.27558706929648
 20
464.76532735084032
 30
0.0
  0
VERTEX
  5
26F09
  8
0
 10
317.28434761320881
 20
464.70855276705612
 30
0.0
  0
VERTEX
  5
26F0A
  8
0
 10
318.34013750593277
 20
464.5939424283024
 30
0.0
  0
VERTEX
  5
26F0B
  8
0
 10
318.90231598404762
 20
464.51309777504412
 30
0.0
  0
SEQEND
  5
26F0C
  8
0
  0
POLYLINE
  5
1AA27
  8
0
 66
     1
 10
0.0
 20
0.0
 30
0.0
  0
VERTEX
  5
26F0D
  8
0
 10
318.90231598404762
 20
459.53193719387571
 30
0.0
  0
VERTEX
  5
26F0E
  8
0
 10
318.34013750594198
 20
459.45109254061839
 30
0.0
  0
VERTEX
  5
26F0F
  8
0
 10
317.2843476132345
 20
459.33648220186649
 30
0.0
  0
VERTEX
  5
26F10
  8
0
 10
316.27558706933843
 20
459.27970761808132
 30
0.0
  0
VERTEX
  5
26F11
  8
0
 10
315.77314931743172
 20
459.27251748445991
 30
0.0
  0
SEQEND
  5
26F12
  8
0
  0
POLYLINE
  5
1AA28
  8
0
 66
     1
 10
0.0
 20
0.0
 30
0.0
  0
VERTEX
  5
26F13
  8
0
 10
315.7731493173809
 20
459.27251748445991
 30
0.0
  0
VERTEX
  5
26F14
  8
0
 10
315.27071156546538
 20
459.2797076180795
 30
0.0
  0
VERTEX
  5
26F15
  8
0
 10
314.2619510215531
 20
459.33648220186387
 30
0.0
  0
VERTEX
  5
26F16
  8
0
 10
313.20616112882908
 20
459.45109254061748
 30
0.0
  0
VERTEX
  5
26F17
  8
0
 10
312.64398265071429
 20
459.53193719387571
 30
0.0
  0
SEQEND
  5
26F18
  8
0
  0
POLYLINE
  5
1AA29
  8
0
 66
     1
 10
0.0
 20
0.0
 30
0.0
  0
VERTEX
  5
26F19
  8
0
 10
312.64398265071429
 20
464.51309777504412
 30
0.0
  0
VERTEX
  5
26F1A
  8
0
 10
313.20616112882908
 20
464.5939424283024
 30
0.0
  0
VERTEX
  5
26F1B
  8
0
 10
314.2619510215531
 20
464.70855276705612
 30
0.0
  0
VERTEX
  5
26F1C
  8
0
 10
315.27071156546538
 20
464.76532735084032
 30
0.0
  0
VERTEX
  5
26F1D
  8
0
 10
315.7731493173809
 20
464.77251748445991
 30
0.0
  0
SEQEND
  5
26F1E
  8
0
  0
POLYLINE
  5
1AA2A
  8
0
 66
     1
 10
0.0
 20
0.0
 30
0.0
  0
VERTEX
  5
26F1F
  8
0
 10
322.03148265071428
 20
464.77251748445991
 30
0.0
  0
VERTEX
  5
26F20
  8
0
 10
322.5339204026298
 20
464.76532735084032
 30
0.0
  0
VERTEX
  5
26F21
  8
0
 10
323.54268094654208
 20
464.70855276705612
 30
0.0
  0
VERTEX
  5
26F22
  8
0
 10
324.59847083926621
 20
464.5939424283024
 30
0.0
  0
VERTEX
  5
26F23
  8
0
 10
325.160649317381
 20
464.51309777504412
 30
0.0
  0
SEQEND
  5
26F24
  8
0
  0
POLYLINE
  5
1AA2B
  8
0
 66
     1
 10
0.0
 20
0.0
 30
0.0
  0
VERTEX
  5
26F25
  8
0
 10
325.160649317381
 20
459.53193719387571
 30
0.0
  0
VERTEX
  5
26F26
  8
0
 10
324.59847083927679
 20
459.45109254061839
 30
0.0
  0
VERTEX
  5
26F27
  8
0
 10
323.54268094657209
 20
459.33648220186649
 30
0.0
  0
VERTEX
  5
26F28
  8
0
 10
322.53392040267858
 20
459.27970761808132
 30
0.0
  0
VERTEX
  5
26F29
  8
0
 10
322.03148265077328
 20
459.27251748445991
 30
0.0
  0
SEQEND
  5
26F2A
  8
0
  0
POLYLINE
  5
1AA2C
  8
0
 66
     1
 10
0.0
 20
0.0
 30
0.0
  0
VERTEX
  5
26F2B
  8
0
 10
322.03148265071428
 20
459.27251748445991
 30
0.0
  0
VERTEX
  5
26F2C
  8
0
 10
321.52904489879882
 20
459.2797076180795
 30
0.0
  0
VERTEX
  5
26F2D
  8
0
 10
320.52028435488643
 20
459.33648220186387
 30
0.0
  0
VERTEX
  5
26F2E
  8
0
 10
319.46449446216252
 20
459.45109254061748
 30
0.0
  0
VERTEX
  5
26F2F
  8
0
 10
318.90231598404762
 20
459.53193719387571
 30
0.0
  0
SEQEND
  5
26F30
  8
0
  0
LINE
  5
1AA2D
  8
0
 10
318.90231598404762
 20
459.53193719387571
 30
0.0
 11
318.90231598404762
 21
464.51309777504412
 31
0.0
  0
POLYLINE
  5
1AA2E
  8
0
 66
     1
 10
0.0
 20
0.0
 30
0.0
  0
VERTEX
  5
26F31
  8
0
 10
318.90231598404762
 20
464.51309777504412
 30
0.0
  0
VERTEX
  5
26F32
  8
0
 10
319.46449446216252
 20
464.5939424283024
 30
0.0
  0
VERTEX
  5
26F33
  8
0
 10
320.52028435488643
 20
464.70855276705612
 30
0.0
  0
VERTEX
  5
26F34
  8
0
 10
321.52904489879882
 20
464.76532735084032
 30
0.0
  0
VERTEX
  5
26F35
  8
0
 10
322.03148265071428
 20
464.77251748445991
 30
0.0
  0
SEQEND
  5
26F36
  8
0
  0
LINE
  5
1AA2F
  8
0
 10
312.64398265071429
 20
464.77251748445991
 30
0.0
 11
312.64398265071429
 21
459.27251748445991
 31
0.0
  0
LINE
  5
1AA83
  8
1
 10
354.1773159840476
 20
404.77251748445991
 30
0.0
 11
363.62731598404758
 21
404.77251748445991
 31
0.0
  0
LINE
  5
1AA84
  8
1
 10
358.90231598404762
 20
400.0475174844596
 30
0.0
 11
358.90231598404762
 21
409.49751748446027
 31
0.0
  0
LINE
  5
1AA85
  8
1
 10
351.6773159840476
 20
412.27251748446002
 30
0.0
 11
361.1273159840477
 21
412.27251748446002
 31
0.0
  0
LINE
  5
1AA86
  8
1
 10
356.40231598404762
 20
407.5475174844596
 30
0.0
 11
356.40231598404762
 21
416.99751748446027
 31
0.0
  0
LINE
  5
1AA87
  8
1
 10
354.1773159840476
 20
464.77251748445991
 30
0.0
 11
363.62731598404758
 21
464.77251748445991
 31
0.0
  0
LINE
  5
1AA88
  8
1
 10
358.90231598404762
 20
460.0475174844596
 30
0.0
 11
358.90231598404762
 21
469.49751748446027
 31
0.0
  0
LINE
  5
1AA89
  8
1
 10
351.6773159840476
 20
457.27251748445991
 30
0.0
 11
361.1273159840477
 21
457.27251748445991
 31
0.0
  0
LINE
  5
1AA8A
  8
1
 10
356.40231598404762
 20
452.54751748445949
 30
0.0
 11
356.40231598404762
 21
461.99751748446027
 31
0.0
  0
LINE
  5
1AA8B
  8
1
 10
276.67731598404771
 20
412.27251748446002
 30
0.0
 11
286.1273159840477
 21
412.27251748446002
 31
0.0
  0
LINE
  5
1AA8C
  8
1
 10
281.40231598404762
 20
407.5475174844596
 30
0.0
 11
281.40231598404762
 21
416.99751748446027
 31
0.0
  0
LINE
  5
1AA8D
  8
1
 10
274.1773159840476
 20
404.77251748445991
 30
0.0
 11
283.6273159840477
 21
404.77251748445991
 31
0.0
  0
LINE
  5
1AA8E
  8
1
 10
278.90231598404762
 20
400.0475174844596
 30
0.0
 11
278.90231598404762
 21
409.49751748446027
 31
0.0
  0
LINE
  5
1AA8F
  8
1
 10
276.6773159840476
 20
457.27251748445991
 30
0.0
 11
286.1273159840477
 21
457.27251748445991
 31
0.0
  0
LINE
  5
1AA90
  8
1
 10
281.40231598404762
 20
452.54751748445949
 30
0.0
 11
281.40231598404762
 21
461.99751748446027
 31
0.0
  0
LINE
  5
1AA91
  8
1
 10
274.1773159840476
 20
464.77251748445991
 30
0.0
 11
283.62731598404758
 21
464.77251748445991
 31
0.0
  0
LINE
  5
1AA92
  8
1
 10
278.90231598404762
 20
460.0475174844596
 30
0.0
 11
278.90231598404762
 21
469.49751748446027
 31
0.0
  0
LINE
  5
1AA94
  8
0
 10
293.90231598404762
 20
426.13281480220121
 30
0.0
 11
343.90231598404762
 21
426.13281480220121
 31
0.0
  0
LINE
  5
1AA95
  8
0
 10
293.90231598404762
 20
443.41222016671873
 30
0.0
 11
343.90231598404762
 21
443.41222016671873
 31
0.0
  0
LINE
  5
1AA98
  8
0
 10
292.26261330178892
 20
441.77251748446002
 30
0.0
 11
292.26261330178892
 21
427.77251748445991
 31
0.0
  0
LINE
  5
1AA99
  8
0
 10
345.54201866630638
 20
441.77251748446002
 30
0.0
 11
345.54201866630638
 21
427.77251748445991
 31
0.0
  0
ARC
  5
1AA9C
  8
0
 10
343.90231598404762
 20
427.77251748445991
 30
0.0
 40
1.6397026822587399
 50
270.0
 51
0.0
  0
LINE
  5
1AA9F
  8
0
 10
287.48650844673813
 20
477.27251748445991
 30
0.0
 11
273.5914268515923
 21
477.27251748445991
 31
0.0
  0
ARC
  5
1AAA0
  8
0
 10
287.48650844673813
 20
467.27251748445991
 30
0.0
 40
10.00000000000003
 50
30.000000000000121
 51
90.0
  0
LINE
  5
1AAA1
  8
0
 10
299.17785139782802
 20
467.02251748445991
 30
0.0
 11
296.1467624845825
 21
472.27251748445991
 31
0.0
  0
ARC
  5
1AAA2
  8
0
 10
312.60124515648681
 20
474.77251748446002
 30
0.0
 40
15.5
 50
210.00000000000011
 51
270.0
  0
LINE
  5
1AAA3
  8
0
 10
325.20338681160842
 20
459.27251748445991
 30
0.0
 11
312.60124515648681
 21
459.27251748445991
 31
0.0
  0
ARC
  5
1AAA4
  8
0
 10
325.20338681160842
 20
474.77251748446002
 30
0.0
 40
15.49999999999998
 50
270.0
 51
329.99999999999989
  0
LINE
  5
1AAA5
  8
0
 10
341.65786948351268
 20
472.27251748445991
 30
0.0
 11
338.62678057026721
 21
467.02251748445991
 31
0.0
  0
ARC
  5
1AAA6
  8
0
 10
350.31812352135722
 20
467.27251748445991
 30
0.0
 40
10.000000000000011
 50
90.0
 51
149.99999999999989
  0
LINE
  5
1AAA7
  8
0
 10
364.21320511650299
 20
477.27251748445991
 30
0.0
 11
350.31812352135722
 21
477.27251748445991
 31
0.0
  0
LINE
  5
1AAA8
  8
0
 10
368.90231598404762
 20
459.77251748445991
 30
0.0
 11
364.21320511650299
 21
477.27251748445991
 31
0.0
  0
LINE
  5
1AAA9
  8
0
 10
368.90231598404762
 20
409.77251748445991
 30
0.0
 11
368.90231598404762
 21
459.77251748445991
 31
0.0
  0
LINE
  5
1AAAA
  8
0
 10
364.21320511650299
 20
392.27251748446002
 30
0.0
 11
368.90231598404762
 21
409.77251748445991
 31
0.0
  0
LINE
  5
1AAAB
  8
0
 10
350.31812352135722
 20
392.27251748446002
 30
0.0
 11
364.21320511650299
 21
392.27251748446002
 31
0.0
  0
ARC
  5
1AAAC
  8
0
 10
350.31812352135722
 20
402.27251748445991
 30
0.0
 40
10.00000000000005
 50
210.00000000000011
 51
270.0
  0
LINE
  5
1AAAD
  8
0
 10
338.62678057026721
 20
402.52251748445991
 30
0.0
 11
341.65786948351268
 21
397.27251748446002
 31
0.0
  0
ARC
  5
1AAAE
  8
0
 10
325.20338681160842
 20
394.77251748446002
 30
0.0
 40
15.49999999999998
 50
30.000000000000121
 51
90.0
  0
LINE
  5
1AAAF
  8
0
 10
312.60124515648681
 20
410.27251748445991
 30
0.0
 11
325.20338681160842
 21
410.27251748445991
 31
0.0
  0
ARC
  5
1AAB0
  8
0
 10
312.60124515648681
 20
394.77251748446002
 30
0.0
 40
15.49999999999998
 50
90.0
 51
149.99999999999989
  0
LINE
  5
1AAB1
  8
0
 10
296.1467624845825
 20
397.27251748446002
 30
0.0
 11
299.17785139782802
 21
402.52251748445991
 31
0.0
  0
ARC
  5
1AAB2
  8
0
 10
287.48650844673813
 20
402.27251748445991
 30
0.0
 40
10.000000000000011
 50
270.0
 51
329.99999999999989
  0
LINE
  5
1AAB3
  8
0
 10
273.5914268515923
 20
392.27251748446002
 30
0.0
 11
287.48650844673813
 21
392.27251748446002
 31
0.0
  0
LINE
  5
1AAB4
  8
0
 10
268.90231598404762
 20
409.77251748445991
 30
0.0
 11
273.5914268515923
 21
392.27251748446002
 31
0.0
  0
LINE
  5
1AAB5
  8
0
 10
268.90231598404762
 20
459.77251748445991
 30
0.0
 11
268.90231598404762
 21
409.77251748445991
 31
0.0
  0
LINE
  5
1AAB6
  8
0
 10
273.5914268515923
 20
477.27251748445991
 30
0.0
 11
268.90231598404762
 21
459.77251748445991
 31
0.0
  0
ARC
  5
1AAB7
  8
0
 10
358.90231598404762
 20
404.77251748445991
 30
0.0
 40
4.4999999999999876
 50
198.43494882291421
 51
18.434948822914279
  0
LINE
  5
1AAB8
  8
0
 10
363.1713908252749
 20
406.19554243153561
 30
0.0
 11
360.6713908252749
 21
413.69554243153561
 31
0.0
  0
ARC
  5
1AAB9
  8
0
 10
356.40231598404762
 20
412.27251748446002
 30
0.0
 40
4.4999999999999938
 50
18.434948822914279
 51
198.43494882291421
  0
LINE
  5
1AABA
  8
0
 10
352.1332411428204
 20
410.84949253738432
 30
0.0
 11
354.63324114282028
 21
403.34949253738432
 31
0.0
  0
ARC
  5
1AABB
  8
0
 10
358.90231598404762
 20
464.77251748445991
 30
0.0
 40
4.5000000000000018
 50
341.56505117708571
 51
161.56505117708571
  0
LINE
  5
1AABC
  8
0
 10
354.63324114282028
 20
466.19554243153561
 30
0.0
 11
352.1332411428204
 21
458.6955424315355
 31
0.0
  0
ARC
  5
1AABD
  8
0
 10
356.40231598404762
 20
457.27251748445991
 30
0.0
 40
4.5000000000000018
 50
161.56505117708571
 51
341.56505117708571
  0
LINE
  5
1AABE
  8
0
 10
360.6713908252749
 20
455.84949253738421
 30
0.0
 11
363.1713908252749
 21
463.34949253738432
 31
0.0
  0
ARC
  5
1AABF
  8
0
 10
281.40231598404762
 20
412.27251748446002
 30
0.0
 40
4.4999999999999956
 50
341.56505117708571
 51
161.56505117708571
  0
LINE
  5
1AAC0
  8
0
 10
277.1332411428204
 20
413.69554243153561
 30
0.0
 11
274.63324114282028
 21
406.19554243153561
 31
0.0
  0
ARC
  5
1AAC1
  8
0
 10
278.90231598404762
 20
404.77251748445991
 30
0.0
 40
4.4999999999999938
 50
161.56505117708571
 51
341.56505117708571
  0
LINE
  5
1AAC2
  8
0
 10
283.1713908252749
 20
403.34949253738432
 30
0.0
 11
285.6713908252749
 21
410.84949253738432
 31
0.0
  0
ARC
  5
1AAC3
  8
0
 10
281.40231598404762
 20
457.27251748445991
 30
0.0
 40
4.5000000000000018
 50
198.43494882291421
 51
18.434948822914279
  0
LINE
  5
1AAC4
  8
0
 10
285.6713908252749
 20
458.6955424315355
 30
0.0
 11
283.1713908252749
 21
466.19554243153561
 31
0.0
  0
ARC
  5
1AAC5
  8
0
 10
278.90231598404762
 20
464.77251748445991
 30
0.0
 40
4.5000000000000027
 50
18.434948822914279
 51
198.43494882291421
  0
LINE
  5
1AAC6
  8
0
 10
274.63324114282028
 20
463.34949253738432
 30
0.0
 11
277.13324114282028
 21
455.84949253738421
 31
0.0
  0
LINE
  5
1AAC7
  8
0
 10
287.1725700712214
 20
427.77251748445991
 30
0.0
 11
287.1725700712214
 21
441.77251748446002
 31
0.0
  0
LINE
  5
1AAC8
  8
0
 10
343.90231598404762
 20
421.04277157163409
 30
0.0
 11
293.90231598404762
 21
421.04277157163409
 31
0.0
  0
ARC
  5
1AAC9
  8
0
 10
343.90231598404762
 20
427.77251748445991
 30
0.0
 40
6.7297459128262087
 50
270.0
 51
0.0
  0
LINE
  5
1AACA
  8
0
 10
350.63206189687389
 20
427.77251748445991
 30
0.0
 11
350.63206189687389
 21
441.77251748446002
 31
0.0
  0
LINE
  5
1AACB
  8
0
 10
343.90231598404762
 20
448.50226339728579
 30
0.0
 11
293.90231598404762
 21
448.50226339728579
 31
0.0
  0
ARC
  5
1AACC
  8
0
 10
343.90231598404762
 20
441.77251748446002
 30
0.0
 40
1.6397026822587499
 50
0.0
 51
90.0
  0
ARC
  5
1AACF
  8
0
 10
343.90231598404762
 20
441.77251748446002
 30
0.0
 40
6.7297459128262238
 50
0.0
 51
90.0
  0
ARC
  5
1AAD7
  8
0
 10
293.90231598404762
 20
427.77251748445991
 30
0.0
 40
6.7297459128262096
 50
180.0
 51
270.0
  0
ARC
  5
1AAD9
  8
0
 10
293.90231598404762
 20
427.77251748445991
 30
0.0
 40
1.6397026822587391
 50
180.0
 51
270.0
  0
ARC
  5
1AADF
  8
0
 10
293.90231598404762
 20
441.77251748446002
 30
0.0
 40
1.639702682258747
 50
90.0
 51
180.0
  0
ARC
  5
1AAE1
  8
0
 10
293.90231598404762
 20
441.77251748446002
 30
0.0
 40
6.7297459128262203
 50
90.0
 51
179.99999914622629
  0
LINE
  5
1AB94
  8
0
 10
256.40231598404762
 20
437.77251748445991
 30
0.0
 11
256.40231598404762
 21
431.77251748445991
 31
0.0
  0
LINE
  5
1AB95
  8
0
 10
381.40231598404762
 20
431.77251748445991
 30
0.0
 11
381.40231598404762
 21
437.77251748445991
 31
0.0
  0
ARC
  5
1AB96
  8
0
 10
381.10231598404761
 20
437.77251748445991
 30
0.0
 40
0.3000000000000185
 50
0.0000008537736463
 51
90.0
  0
ARC
  5
1AB97
  8
0
 10
256.70231598404757
 20
437.77251748445991
 30
0.0
 40
0.3000000000000136
 50
90.0
 51
179.99999914622629
  0
LINE
  5
1AB98
  8
0
 10
256.70231598404757
 20
440.47251748445979
 30
0.0
 11
256.70231598404757
 21
438.07251748446009
 31
0.0
  0
LINE
  5
1AB99
  8
0
 10
381.10231598404761
 20
438.07251748446009
 30
0.0
 11
381.10231598404761
 21
440.47251748445979
 31
0.0
  0
ARC
  5
1AB9A
  8
0
 10
381.10231598404761
 20
440.77251748445991
 30
0.0
 40
0.2999999999999998
 50
270.0
 51
0.0
  0
ARC
  5
1AB9B
  8
0
 10
256.70231598404757
 20
440.77251748445991
 30
0.0
 40
0.2999999999999971
 50
180.0
 51
270.0
  0
LINE
  5
1AB9C
  8
0
 10
256.40231598404762
 20
444.20103408432169
 30
0.0
 11
256.40231598404762
 21
440.77251748445991
 31
0.0
  0
LINE
  5
1AB9D
  8
0
 10
381.40231598404762
 20
440.77251748445991
 30
0.0
 11
381.40231598404762
 21
444.20103408432169
 31
0.0
  0
ARC
  5
1AB9E
  8
0
 10
380.40231598404762
 20
444.20103408432169
 30
0.0
 40
1.0000000000000211
 50
0.0
 51
71.00000000000135
  0
ARC
  5
1AB9F
  8
0
 10
257.40231598404762
 20
444.20103408432169
 30
0.0
 40
1.000000000000018
 50
108.99999999999859
 51
180.0
  0
LINE
  5
1ABA0
  8
0
 10
261.16711215373078
 20
446.55497804513737
 30
0.0
 11
257.07674782959037
 21
445.14655265992042
 31
0.0
  0
LINE
  5
1ABA1
  8
0
 10
380.72788413850481
 20
445.14655265992042
 30
0.0
 11
376.6375198143644
 21
446.55497804513737
 31
0.0
  0
ARC
  5
1ABA2
  8
0
 10
375.660815350993
 20
443.71842231833938
 30
0.0
 40
2.9999999999999609
 50
71.00000000000135
 51
90.0
  0
ARC
  5
1ABA3
  8
0
 10
262.14381661710229
 20
443.71842231833938
 30
0.0
 40
2.99999999999996
 50
90.0
 51
108.99999999999859
  0
ARC
  5
1ABA4
  8
0
 10
374.34771137968983
 20
447.34342231833938
 30
0.0
 40
0.625
 50
270.0
 51
90.0
  0
ARC
  5
1ABA5
  8
0
 10
263.45692058840552
 20
447.34342231833938
 30
0.0
 40
0.625
 50
90.0
 51
270.0
  0
ARC
  5
1ABA6
  8
0
 10
370.717447782595
 20
448.59342231833938
 30
0.0
 40
0.625
 50
270.0
 51
90.0
  0
ARC
  5
1ABA7
  8
0
 10
267.08718418550029
 20
448.59342231833938
 30
0.0
 40
0.625
 50
90.0
 51
270.0
  0
ARC
  5
1ABA8
  8
0
 10
370.717447782595
 20
420.95161265058039
 30
0.0
 40
0.625
 50
270.0
 51
90.0
  0
ARC
  5
1ABA9
  8
0
 10
267.08718418550029
 20
420.95161265058039
 30
0.0
 40
0.625
 50
90.0
 51
270.0
  0
ARC
  5
1ABAA
  8
0
 10
374.34771137968983
 20
422.20161265058039
 30
0.0
 40
0.625
 50
270.0
 51
90.0
  0
ARC
  5
1ABAB
  8
0
 10
263.45692058840552
 20
422.20161265058039
 30
0.0
 40
0.625
 50
90.0
 51
270.0
  0
ARC
  5
1ABAC
  8
0
 10
375.660815350993
 20
425.82661265058039
 30
0.0
 40
2.9999999999999369
 50
270.0
 51
288.99999999999869
  0
ARC
  5
1ABAD
  8
0
 10
262.14381661710229
 20
425.82661265058039
 30
0.0
 40
2.9999999999999392
 50
251.00000000000131
 51
270.0
  0
LINE
  5
1ABAE
  8
0
 10
257.07674782959037
 20
424.39848230899952
 30
0.0
 11
261.16711215373078
 21
422.9900569237825
 31
0.0
  0
LINE
  5
1ABAF
  8
0
 10
376.6375198143644
 20
422.9900569237825
 30
0.0
 11
380.72788413850481
 21
424.39848230899952
 31
0.0
  0
ARC
  5
1ABB0
  8
0
 10
380.40231598404762
 20
425.34400088459819
 30
0.0
 40
1.0000000000000271
 50
288.99999999999869
 51
0.0
  0
ARC
  5
1ABB1
  8
0
 10
257.40231598404762
 20
425.34400088459819
 30
0.0
 40
1.0000000000000211
 50
180.0
 51
251.00000000000131
  0
LINE
  5
1ABB2
  8
0
 10
256.40231598404762
 20
428.77251748446002
 30
0.0
 11
256.40231598404762
 21
425.34400088459819
 31
0.0
  0
LINE
  5
1ABB3
  8
0
 10
381.40231598404762
 20
425.34400088459819
 30
0.0
 11
381.40231598404762
 21
428.77251748446002
 31
0.0
  0
ARC
  5
1ABB4
  8
0
 10
381.10231598404761
 20
428.77251748446002
 30
0.0
 40
0.3000000000000185
 50
0.0000008537736463
 51
90.0
  0
ARC
  5
1ABB5
  8
0
 10
256.70231598404757
 20
428.77251748446002
 30
0.0
 40
0.300000000000014
 50
90.0
 51
179.99999914622629
  0
LINE
  5
1ABB6
  8
0
 10
256.70231598404757
 20
431.47251748445967
 30
0.0
 11
256.70231598404757
 21
429.07251748446021
 31
0.0
  0
LINE
  5
1ABB7
  8
0
 10
381.10231598404761
 20
429.07251748446021
 30
0.0
 11
381.10231598404761
 21
431.47251748445967
 31
0.0
  0
ARC
  5
1ABB8
  8
0
 10
381.10231598404761
 20
431.77251748445991
 30
0.0
 40
0.3000000000000007
 50
270.0
 51
0.0
  0
ARC
  5
1ABB9
  8
0
 10
256.70231598404757
 20
431.77251748445991
 30
0.0
 40
0.3000000000000043
 50
180.0
 51
270.0
  0
LINE
  5
1ABBC
  8
0
 10
381.10231598404761
 20
438.07251748446009
 30
0.0
 11
368.90224981695638
 21
438.07251748446009
 31
0.0
  0
LINE
  5
1ABBD
  8
0
 10
268.9023821511388
 20
438.07251748446009
 30
0.0
 11
256.70231598404757
 21
438.07251748446009
 31
0.0
  0
LINE
  5
1ABBE
  8
0
 10
381.10231598404761
 20
440.47251748445979
 30
0.0
 11
368.90224981695638
 21
440.47251748445979
 31
0.0
  0
LINE
  5
1ABBF
  8
0
 10
268.9023821511388
 20
440.47251748445979
 30
0.0
 11
256.70231598404757
 21
440.47251748445979
 31
0.0
  0
LINE
  5
1ABC8
  8
0
 10
375.660815350993
 20
446.71842231833938
 30
0.0
 11
368.90689687872441
 21
446.71842231833938
 31
0.0
  0
LINE
  5
1ABC9
  8
0
 10
268.89773508937083
 20
446.71842231833938
 30
0.0
 11
262.14381661710229
 21
446.71842231833938
 31
0.0
  0
LINE
  5
1ABCA
  8
0
 10
374.34771137968983
 20
447.96842231833938
 30
0.0
 11
368.96249574116541
 21
447.96842231833938
 31
0.0
  0
LINE
  5
1ABCB
  8
0
 10
268.84213622692982
 20
447.96842231833938
 30
0.0
 11
263.45692058840552
 21
447.96842231833938
 31
0.0
  0
LINE
  5
1ABCC
  8
0
 10
370.717447782595
 20
449.21842231833938
 30
0.0
 11
368.95632807221142
 21
449.21842231833938
 31
0.0
  0
LINE
  5
1ABCD
  8
0
 10
268.84830389588387
 20
449.21842231833938
 30
0.0
 11
267.08718418550029
 21
449.21842231833938
 31
0.0
  0
LINE
  5
1ABCE
  8
0
 10
370.717447782595
 20
420.3266126505805
 30
0.0
 11
368.95632807221142
 21
420.3266126505805
 31
0.0
  0
LINE
  5
1ABCF
  8
0
 10
268.84830389588387
 20
420.3266126505805
 30
0.0
 11
267.08718418550029
 21
420.3266126505805
 31
0.0
  0
LINE
  5
1ABD0
  8
0
 10
374.34771137968983
 20
421.5766126505805
 30
0.0
 11
368.96249574116541
 21
421.5766126505805
 31
0.0
  0
LINE
  5
1ABD1
  8
0
 10
268.84213622692982
 20
421.5766126505805
 30
0.0
 11
263.45692058840552
 21
421.5766126505805
 31
0.0
  0
LINE
  5
1ABD2
  8
0
 10
375.660815350993
 20
422.8266126505805
 30
0.0
 11
368.90689687872441
 21
422.8266126505805
 31
0.0
  0
LINE
  5
1ABD3
  8
0
 10
268.89773508937083
 20
422.8266126505805
 30
0.0
 11
262.14381661710229
 21
422.8266126505805
 31
0.0
  0
LINE
  5
1ABDC
  8
0
 10
381.10231598404761
 20
429.07251748446021
 30
0.0
 11
368.90224981695638
 21
429.07251748446021
 31
0.0
  0
LINE
  5
1ABDD
  8
0
 10
268.9023821511388
 20
429.07251748446021
 30
0.0
 11
256.70231598404757
 21
429.07251748446021
 31
0.0
  0
LINE
  5
1ABE0
  8
0
 10
381.10231598404761
 20
431.47251748445967
 30
0.0
 11
368.90224981695638
 21
431.47251748445967
 31
0.0
  0
LINE
  5
1ABE1
  8
0
 10
268.9023821511388
 20
431.47251748445967
 30
0.0
 11
256.70231598404757
 21
431.47251748445967
 31
0.0
  0
LINE
  5
1AC20
  8
0
 10
565.00966464464113
 20
198.2436887314197
 30
0.0
 11
566.74266464464097
 21
198.2436887314197
 31
0.0
  0
LINE
  5
1AC21
  8
0
 10
566.74266464464097
 20
198.2436887314197
 30
0.0
 11
567.50966464464113
 21
199.01068873141961
 31
0.0
  0
LINE
  5
1AC22
  8
0
 10
502.20966464464112
 20
195.98535539808651
 30
0.0
 11
502.46908435405658
 21
195.01718786206311
 31
0.0
  0
LINE
  5
1AC24
  8
0
 10
562.50966464464113
 20
196.42868873141919
 30
0.0
 11
565.00966464464113
 21
196.42868873141919
 31
0.0
  0
LINE
  5
1AC25
  8
0
 10
562.25024493522562
 20
195.01718786206311
 30
0.0
 11
562.50966464464113
 21
195.98535539808651
 31
0.0
  0
LINE
  5
1AC26
  8
0
 10
555.00966464464113
 20
209.74368873141981
 30
0.0
 11
551.25966464464113
 21
209.74368873141981
 31
0.0
  0
LINE
  5
1AC27
  8
0
 10
513.75966464464113
 20
209.74368873141981
 30
0.0
 11
510.00966464464108
 21
209.74368873141981
 31
0.0
  0
LINE
  5
1AC28
  8
0
 10
510.00966464464108
 20
194.7436887314197
 30
0.0
 11
513.75966464464113
 21
194.7436887314197
 31
0.0
  0
LINE
  5
1AC29
  8
0
 10
551.25966464464113
 20
194.7436887314197
 30
0.0
 11
555.00966464464113
 21
194.7436887314197
 31
0.0
  0
LINE
  5
1AC2A
  8
0
 10
566.74266464464097
 20
198.2436887314197
 30
0.0
 11
566.74266464464097
 21
202.6417906240967
 31
0.0
  0
LINE
  5
1AC2B
  8
0
 10
567.50966464464113
 20
199.01068873141961
 30
0.0
 11
567.50966464464113
 21
203.40973628428219
 31
0.0
  0
LINE
  5
1AC2C
  8
0
 10
502.20966464464112
 20
195.98535539808651
 30
0.0
 11
502.20966464464112
 21
198.3598123369311
 31
0.0
  0
LINE
  5
1AC2D
  8
0
 10
502.46908435405658
 20
195.01718786206311
 30
0.0
 11
504.2470578233557
 21
195.01718786206311
 31
0.0
  0
POLYLINE
  5
1AC2E
  8
0
 66
     1
 10
0.0
 20
0.0
 30
0.0
  0
VERTEX
  5
26F37
  8
0
 10
502.46908435405658
 20
195.01718786206311
 30
0.0
  0
VERTEX
  5
26F38
  8
0
 10
502.38823970079852
 20
195.34176175773521
 30
0.0
  0
VERTEX
  5
26F39
  8
0
 10
502.27362936204543
 20
195.95132233650651
 30
0.0
  0
VERTEX
  5
26F3A
  8
0
 10
502.21685477826111
 20
196.5337305080829
 30
0.0
  0
VERTEX
  5
26F3B
  8
0
 10
502.20966464464112
 20
196.82381307940159
 30
0.0
  0
SEQEND
  5
26F3C
  8
0
  0
POLYLINE
  5
1AC2F
  8
0
 66
     1
 10
0.0
 20
0.0
 30
0.0
  0
VERTEX
  5
26F3D
  8
0
 10
502.20966464464112
 20
196.82381307940159
 30
0.0
  0
VERTEX
  5
26F3E
  8
0
 10
502.21370505902371
 20
197.0411645179702
 30
0.0
  0
VERTEX
  5
26F3F
  8
0
 10
502.24560006249379
 20
197.47508712371109
 30
0.0
  0
VERTEX
  5
26F40
  8
0
 10
502.30923818566652
 20
197.918054722043
 30
0.0
  0
VERTEX
  5
26F41
  8
0
 10
502.35337249578748
 20
198.1467497541698
 30
0.0
  0
SEQEND
  5
26F42
  8
0
  0
LINE
  5
1AC30
  8
0
 10
565.00966464464113
 20
196.42868873141919
 30
0.0
 11
565.00966464464113
 21
200.90720795705599
 31
0.0
  0
LINE
  5
1AC31
  8
0
 10
562.50966464464113
 20
195.98535539808651
 30
0.0
 11
562.50966464464113
 21
197.9212206778102
 31
0.0
  0
LINE
  5
1AC32
  8
0
 10
560.77227153409717
 20
195.01718786206311
 30
0.0
 11
562.25024493522562
 21
195.01718786206311
 31
0.0
  0
POLYLINE
  5
1AC33
  8
0
 66
     1
 10
0.0
 20
0.0
 30
0.0
  0
VERTEX
  5
26F43
  8
0
 10
562.42981674007785
 20
197.80089085808959
 30
0.0
  0
VERTEX
  5
26F44
  8
0
 10
562.45417353473442
 20
197.63545273436279
 30
0.0
  0
VERTEX
  5
26F45
  8
0
 10
562.48958016196036
 20
197.3095654836188
 30
0.0
  0
VERTEX
  5
26F46
  8
0
 10
562.50740915723031
 20
196.98616383337961
 30
0.0
  0
VERTEX
  5
26F47
  8
0
 10
562.50966464464113
 20
196.82381307940159
 30
0.0
  0
SEQEND
  5
26F48
  8
0
  0
POLYLINE
  5
1AC34
  8
0
 66
     1
 10
0.0
 20
0.0
 30
0.0
  0
VERTEX
  5
26F49
  8
0
 10
562.50966464464113
 20
196.82381307940159
 30
0.0
  0
VERTEX
  5
26F4A
  8
0
 10
562.50247451102121
 20
196.5337305080829
 30
0.0
  0
VERTEX
  5
26F4B
  8
0
 10
562.44569992723666
 20
195.95132233650651
 30
0.0
  0
VERTEX
  5
26F4C
  8
0
 10
562.33108958848379
 20
195.34176175773521
 30
0.0
  0
VERTEX
  5
26F4D
  8
0
 10
562.25024493522562
 20
195.01718786206311
 30
0.0
  0
SEQEND
  5
26F4E
  8
0
  0
LINE
  5
1AC69
  8
0
 10
492.00966464464108
 20
293.74368873141981
 30
0.0
 11
573.00966464464113
 21
293.74368873141981
 31
0.0
  0
LINE
  5
1AC6A
  8
0
 10
573.00966464464113
 20
293.74368873141981
 30
0.0
 11
573.00966464464113
 21
215.54817315835771
 31
0.0
  0
LINE
  5
1AC6D
  8
0
 10
555.00966464464113
 20
293.74368873141981
 30
0.0
 11
555.00966464464113
 21
190.7436887314197
 31
0.0
  0
LINE
  5
1AC6E
  8
0
 10
510.00966464464108
 20
293.74368873141981
 30
0.0
 11
510.00966464464108
 21
190.7436887314197
 31
0.0
  0
LINE
  5
1AC74
  8
0
 10
492.00966464464108
 20
293.74368873141981
 30
0.0
 11
492.00966464464108
 21
215.54817315835771
 31
0.0
  0
POLYLINE
  5
1AC75
  8
0
 66
     1
 10
0.0
 20
0.0
 30
0.0
  0
VERTEX
  5
26F4F
  8
0
 10
492.00966464464108
 20
215.54817315835771
 30
0.0
  0
VERTEX
  5
26F50
  8
0
 10
492.00977589840119
 20
215.46132351251799
 30
0.0
  0
VERTEX
  5
26F51
  8
0
 10
492.01070427178132
 20
215.2890774404741
 30
0.0
  0
VERTEX
  5
26F52
  8
0
 10
492.0126593686291
 20
215.1188645024003
 30
0.0
  0
VERTEX
  5
26F53
  8
0
 10
492.01405411545909
 20
215.0345557103519
 30
0.0
  0
VERTEX
  5
26F54
  8
0
 10
492.01574415701418
 20
214.95079715113931
 30
0.0
  0
VERTEX
  5
26F55
  8
0
 10
492.02006145926703
 20
214.78498484175091
 30
0.0
  0
VERTEX
  5
26F56
  8
0
 10
492.02571343564591
 20
214.62153344949459
 30
0.0
  0
VERTEX
  5
26F57
  8
0
 10
492.0328011568829
 20
214.4605432135622
 30
0.0
  0
VERTEX
  5
26F58
  8
0
 10
492.04142419167442
 20
214.302108470918
 30
0.0
  0
VERTEX
  5
26F59
  8
0
 10
492.05167984008648
 20
214.14632282291859
 30
0.0
  0
VERTEX
  5
26F5A
  8
0
 10
492.0574495371938
 20
214.06945207686479
 30
0.0
  0
VERTEX
  5
26F5B
  8
0
 10
492.06366255043559
 20
213.9932776610967
 30
0.0
  0
VERTEX
  5
26F5C
  8
0
 10
492.07746332736599
 20
213.84306139832461
 30
0.0
  0
VERTEX
  5
26F5D
  8
0
 10
492.0931691609149
 20
213.6957587243642
 30
0.0
  0
VERTEX
  5
26F5E
  8
0
 10
492.11086248918019
 20
213.55144986686079
 30
0.0
  0
VERTEX
  5
26F5F
  8
0
 10
492.13062070824122
 20
213.41020985698739
 30
0.0
  0
VERTEX
  5
26F60
  8
0
 10
492.1525157448558
 20
213.2721078000514
 30
0.0
  0
VERTEX
  5
26F61
  8
0
 10
492.16428546398242
 20
213.2042533009317
 30
0.0
  0
VERTEX
  5
26F62
  8
0
 10
492.1766274815152
 20
213.13713337221819
 30
0.0
  0
VERTEX
  5
26F63
  8
0
 10
492.203477879432
 20
213.0031843877841
 30
0.0
  0
VERTEX
  5
26F64
  8
0
 10
492.233439028769
 20
212.8696588227476
 30
0.0
  0
VERTEX
  5
26F65
  8
0
 10
492.24963968332298
 20
212.8032138114049
 30
0.0
  0
SEQEND
  5
26F66
  8
0
  0
POLYLINE
  5
1AC76
  8
0
 66
     1
 10
0.0
 20
0.0
 30
0.0
  0
VERTEX
  5
26F67
  8
0
 10
490.20058785830292
 20
212.8032138114049
 30
0.0
  0
VERTEX
  5
26F68
  8
0
 10
490.18819504098468
 20
212.86737803727561
 30
0.0
  0
VERTEX
  5
26F69
  8
0
 10
490.16489283015102
 20
212.99805400334839
 30
0.0
  0
VERTEX
  5
26F6A
  8
0
 10
490.14352657466628
 20
213.1318186071139
 30
0.0
  0
VERTEX
  5
26F6B
  8
0
 10
490.13355259369712
 20
213.19984223544731
 30
0.0
  0
VERTEX
  5
26F6C
  8
0
 10
490.12404182474597
 20
213.2686170308325
 30
0.0
  0
VERTEX
  5
26F6D
  8
0
 10
490.10637962213332
 20
213.40838904400701
 30
0.0
  0
VERTEX
  5
26F6E
  8
0
 10
490.09047677646629
 20
213.5510695587509
 30
0.0
  0
VERTEX
  5
26F6F
  8
0
 10
490.0762661926409
 20
213.6965892014714
 30
0.0
  0
VERTEX
  5
26F70
  8
0
 10
490.0636772387079
 20
213.84487489909679
 30
0.0
  0
VERTEX
  5
26F71
  8
0
 10
490.05263614479998
 20
213.9958504787792
 30
0.0
  0
VERTEX
  5
26F72
  8
0
 10
490.04767223761411
 20
214.072322473301
 30
0.0
  0
VERTEX
  5
26F73
  8
0
 10
490.0430664245186
 20
214.1494372806101
 30
0.0
  0
VERTEX
  5
26F74
  8
0
 10
490.03488929873259
 20
214.30555504232331
 30
0.0
  0
VERTEX
  5
26F75
  8
0
 10
490.02802412607411
 20
214.46412317331121
 30
0.0
  0
VERTEX
  5
26F76
  8
0
 10
490.02238909200742
 20
214.62505466348739
 30
0.0
  0
VERTEX
  5
26F77
  8
0
 10
490.01790140482791
 20
214.78825793566651
 30
0.0
  0
VERTEX
  5
26F78
  8
0
 10
490.01447760473451
 20
214.95363795671261
 30
0.0
  0
VERTEX
  5
26F79
  8
0
 10
490.01313848731598
 20
215.03711371822919
 30
0.0
  0
VERTEX
  5
26F7A
  8
0
 10
490.01203392570579
 20
215.12109669757501
 30
0.0
  0
VERTEX
  5
26F7B
  8
0
 10
490.01048666665167
 20
215.29053360376381
 30
0.0
  0
VERTEX
  5
26F7C
  8
0
 10
490.00975256657227
 20
215.46184607910249
 30
0.0
  0
VERTEX
  5
26F7D
  8
0
 10
490.00966464464108
 20
215.54817315835771
 30
0.0
  0
SEQEND
  5
26F7E
  8
0
  0
LINE
  5
1AC77
  8
0
 10
490.00966464464108
 20
215.54817315835771
 30
0.0
 11
490.00966464464108
 21
295.74368873141981
 31
0.0
  0
POLYLINE
  5
1AC79
  8
0
 66
     1
 10
0.0
 20
0.0
 30
0.0
  0
VERTEX
  5
26F7F
  8
0
 10
492.24963968332298
 20
212.8032138114049
 30
0.0
  0
VERTEX
  5
26F80
  8
0
 10
492.29486526286342
 20
212.6309106702729
 30
0.0
  0
VERTEX
  5
26F81
  8
0
 10
492.39676800647783
 20
212.28953844239459
 30
0.0
  0
VERTEX
  5
26F82
  8
0
 10
492.51376797666552
 20
211.9530415269582
 30
0.0
  0
VERTEX
  5
26F83
  8
0
 10
492.57785807154272
 20
211.7868302601091
 30
0.0
  0
VERTEX
  5
26F84
  8
0
 10
492.64563314938351
 20
211.6220872350286
 30
0.0
  0
VERTEX
  5
26F85
  8
0
 10
492.79210202122732
 20
211.29733188603041
 30
0.0
  0
VERTEX
  5
26F86
  8
0
 10
492.9528841280212
 20
210.9794195061877
 30
0.0
  0
VERTEX
  5
26F87
  8
0
 10
493.12766062084222
 20
210.66898055135249
 30
0.0
  0
VERTEX
  5
26F88
  8
0
 10
493.31608489833252
 20
210.36663065673559
 30
0.0
  0
VERTEX
  5
26F89
  8
0
 10
493.5177832940488
 20
210.07296941603821
 30
0.0
  0
VERTEX
  5
26F8A
  8
0
 10
493.62348629615258
 20
209.92957973427841
 30
0.0
  0
VERTEX
  5
26F8B
  8
0
 10
493.73235581748509
 20
209.7885791923872
 30
0.0
  0
VERTEX
  5
26F8C
  8
0
 10
493.9593769472981
 20
209.5140239634429
 30
0.0
  0
VERTEX
  5
26F8D
  8
0
 10
494.1983964751642
 20
209.2498482029705
 30
0.0
  0
VERTEX
  5
26F8E
  8
0
 10
494.4489403985927
 20
208.9965758010876
 30
0.0
  0
VERTEX
  5
26F8F
  8
0
 10
494.71051186092598
 20
208.7547090253311
 30
0.0
  0
VERTEX
  5
26F90
  8
0
 10
494.98259213666188
 20
208.5247275246011
 30
0.0
  0
VERTEX
  5
26F91
  8
0
 10
495.12240525037168
 20
208.41433722283639
 30
0.0
  0
VERTEX
  5
26F92
  8
0
 10
495.26464166014409
 20
208.30708737796979
 30
0.0
  0
VERTEX
  5
26F93
  8
0
 10
495.55610109558228
 20
208.10222019022061
 30
0.0
  0
VERTEX
  5
26F94
  8
0
 10
495.85639244627617
 20
207.91053223592829
 30
0.0
  0
VERTEX
  5
26F95
  8
0
 10
496.00966464464108
 20
207.81975030657401
 30
0.0
  0
SEQEND
  5
26F96
  8
0
  0
LINE
  5
1AC7A
  8
0
 10
496.00966464464108
 20
207.81975030657401
 30
0.0
 11
496.97386367372172
 21
207.26306973758159
 31
0.0
  0
POLYLINE
  5
1AC7B
  8
0
 66
     1
 10
0.0
 20
0.0
 30
0.0
  0
VERTEX
  5
26F97
  8
0
 10
493.37818558552749
 20
207.26306973758159
 30
0.0
  0
VERTEX
  5
26F98
  8
0
 10
493.24411813448302
 20
207.3840292828327
 30
0.0
  0
VERTEX
  5
26F99
  8
0
 10
492.98264400502188
 20
207.6331112385005
 30
0.0
  0
VERTEX
  5
26F9A
  8
0
 10
492.73033385119442
 20
207.8914716985027
 30
0.0
  0
VERTEX
  5
26F9B
  8
0
 10
492.60771856851221
 20
208.02402653798339
 30
0.0
  0
VERTEX
  5
26F9C
  8
0
 10
492.48751671203701
 20
208.158773733564
 30
0.0
  0
VERTEX
  5
26F9D
  8
0
 10
492.25450924669462
 20
208.43466875365539
 30
0.0
  0
VERTEX
  5
26F9E
  8
0
 10
492.03161532146339
 20
208.71879696258929
 30
0.0
  0
VERTEX
  5
26F9F
  8
0
 10
491.81912561351697
 20
209.01078782723019
 30
0.0
  0
VERTEX
  5
26FA0
  8
0
 10
491.61731723183328
 20
209.31026056071099
 30
0.0
  0
VERTEX
  5
26FA1
  8
0
 10
491.42645335581471
 20
209.6168246190218
 30
0.0
  0
VERTEX
  5
26FA2
  8
0
 10
491.3352039572822
 20
209.7726413071023
 30
0.0
  0
VERTEX
  5
26FA3
  8
0
 10
491.24678289207441
 20
209.9300802103144
 30
0.0
  0
VERTEX
  5
26FA4
  8
0
 10
491.07854014983639
 20
210.24961881627769
 30
0.0
  0
VERTEX
  5
26FA5
  8
0
 10
490.9219445353707
 20
210.57502372488671
 30
0.0
  0
VERTEX
  5
26FA6
  8
0
 10
490.77720026586582
 20
210.90587057383979
 30
0.0
  0
VERTEX
  5
26FA7
  8
0
 10
490.64449610310641
 20
211.241727903971
 30
0.0
  0
VERTEX
  5
26FA8
  8
0
 10
490.52400510730922
 20
211.5821577219194
 30
0.0
  0
VERTEX
  5
26FA9
  8
0
 10
490.46838927897608
 20
211.75394879460961
 30
0.0
  0
VERTEX
  5
26FAA
  8
0
 10
490.41588441143352
 20
211.926716071318
 30
0.0
  0
VERTEX
  5
26FAB
  8
0
 10
490.32027501626402
 20
212.274953611759
 30
0.0
  0
VERTEX
  5
26FAC
  8
0
 10
490.23730160653002
 20
212.62641620478101
 30
0.0
  0
VERTEX
  5
26FAD
  8
0
 10
490.20058785830292
 20
212.8032138114049
 30
0.0
  0
SEQEND
  5
26FAE
  8
0
  0
POLYLINE
  5
1AC7D
  8
0
 66
     1
 10
0.0
 20
0.0
 30
0.0
  0
VERTEX
  5
26FAF
  8
0
 10
496.97386367372172
 20
207.26306973758159
 30
0.0
  0
VERTEX
  5
26FB0
  8
0
 10
497.06260499756621
 20
207.2114609588198
 30
0.0
  0
VERTEX
  5
26FB1
  8
0
 10
497.23812579824829
 20
207.10713248353841
 30
0.0
  0
VERTEX
  5
26FB2
  8
0
 10
497.4109999198426
 20
207.0013412081916
 30
0.0
  0
VERTEX
  5
26FB3
  8
0
 10
497.4964330260479
 20
206.9479040018723
 30
0.0
  0
VERTEX
  5
26FB4
  8
0
 10
497.58119079322358
 20
206.8941095114578
 30
0.0
  0
VERTEX
  5
26FB5
  8
0
 10
497.74866241686971
 20
206.78546007671679
 30
0.0
  0
VERTEX
  5
26FB6
  8
0
 10
497.9133793644794
 20
206.67541588725089
 30
0.0
  0
VERTEX
  5
26FB7
  8
0
 10
498.0753067924644
 20
206.56400022138399
 30
0.0
  0
VERTEX
  5
26FB8
  8
0
 10
498.2344104473205
 20
206.4512366475565
 30
0.0
  0
VERTEX
  5
26FB9
  8
0
 10
498.39065667287377
 20
206.33714901934039
 30
0.0
  0
VERTEX
  5
26FBA
  8
0
 10
498.4676978971948
 20
206.27961621580289
 30
0.0
  0
VERTEX
  5
26FBB
  8
0
 10
498.54401241740032
 20
206.2217614703932
 30
0.0
  0
VERTEX
  5
26FBC
  8
0
 10
498.6944452406164
 20
206.1050984093518
 30
0.0
  0
VERTEX
  5
26FBD
  8
0
 10
498.84192332054278
 20
205.98718451467079
 30
0.0
  0
VERTEX
  5
26FBE
  8
0
 10
498.9864154602347
 20
205.8680447294
 30
0.0
  0
VERTEX
  5
26FBF
  8
0
 10
499.12789109438188
 20
205.7477042559122
 30
0.0
  0
VERTEX
  5
26FC0
  8
0
 10
499.26632029577388
 20
205.6261885505655
 30
0.0
  0
VERTEX
  5
26FC1
  8
0
 10
499.33438330797469
 20
205.56499800918391
 30
0.0
  0
VERTEX
  5
26FC2
  8
0
 10
499.40167378163119
 20
205.50352331832531
 30
0.0
  0
VERTEX
  5
26FC3
  8
0
 10
499.5339229197989
 20
205.3797345073217
 30
0.0
  0
VERTEX
  5
26FC4
  8
0
 10
499.66303973480399
 20
205.2548483033616
 30
0.0
  0
VERTEX
  5
26FC5
  8
0
 10
499.72641495980582
 20
205.19200192571591
 30
0.0
  0
SEQEND
  5
26FC6
  8
0
  0
POLYLINE
  5
1AC7E
  8
0
 66
     1
 10
0.0
 20
0.0
 30
0.0
  0
VERTEX
  5
26FC7
  8
0
 10
495.72641495980582
 20
205.19200192571591
 30
0.0
  0
VERTEX
  5
26FC8
  8
0
 10
495.6131202122844
 20
205.30362289255299
 30
0.0
  0
VERTEX
  5
26FC9
  8
0
 10
495.37907497344361
 20
205.52427956679821
 30
0.0
  0
VERTEX
  5
26FCA
  8
0
 10
495.13522000938138
 20
205.7413663651005
 30
0.0
  0
VERTEX
  5
26FCB
  8
0
 10
495.00966464464108
 20
205.8485255471833
 30
0.0
  0
SEQEND
  5
26FCC
  8
0
  0
LINE
  5
1AC7F
  8
0
 10
495.00966464464108
 20
205.8485255471833
 30
0.0
 11
493.37818558552749
 21
207.26306973758159
 31
0.0
  0
LINE
  5
1AC81
  8
0
 10
499.72641495980582
 20
205.19200192571591
 30
0.0
 11
501.25966464464108
 21
203.65875224088089
 31
0.0
  0
POLYLINE
  5
1AC82
  8
0
 66
     1
 10
0.0
 20
0.0
 30
0.0
  0
VERTEX
  5
26FCD
  8
0
 10
501.25966464464108
 20
203.65875224088089
 30
0.0
  0
VERTEX
  5
26FCE
  8
0
 10
501.42649526410219
 20
203.4897874026901
 30
0.0
  0
VERTEX
  5
26FCF
  8
0
 10
501.7568739240005
 20
203.1423365545979
 30
0.0
  0
VERTEX
  5
26FD0
  8
0
 10
502.08274173463508
 20
202.78233269550131
 30
0.0
  0
VERTEX
  5
26FD1
  8
0
 10
502.2439343082554
 20
202.5976780287765
 30
0.0
  0
VERTEX
  5
26FD2
  8
0
 10
502.40393973555359
 20
202.4099514376403
 30
0.0
  0
VERTEX
  5
26FD3
  8
0
 10
502.7203112442669
 20
202.02537443103211
 30
0.0
  0
VERTEX
  5
26FD4
  8
0
 10
503.03170193268051
 20
201.62878927486051
 30
0.0
  0
VERTEX
  5
26FD5
  8
0
 10
503.33795990237672
 20
201.220389425961
 30
0.0
  0
VERTEX
  5
26FD6
  8
0
 10
503.6389357587118
 20
200.80037410445669
 30
0.0
  0
VERTEX
  5
26FD7
  8
0
 10
503.93448268369139
 20
200.368948196573
 30
0.0
  0
VERTEX
  5
26FD8
  8
0
 10
504.08017513850348
 20
200.14902182446889
 30
0.0
  0
VERTEX
  5
26FD9
  8
0
 10
504.2244565075892
 20
199.92632215469251
 30
0.0
  0
VERTEX
  5
26FDA
  8
0
 10
504.50871577927461
 20
199.4727118947003
 30
0.0
  0
VERTEX
  5
26FDB
  8
0
 10
504.78712183521259
 20
199.00833869064991
 30
0.0
  0
VERTEX
  5
26FDC
  8
0
 10
505.05953886710518
 20
198.53342906683429
 30
0.0
  0
VERTEX
  5
26FDD
  8
0
 10
505.32583398813989
 20
198.04821468727911
 30
0.0
  0
VERTEX
  5
26FDE
  8
0
 10
505.58587729781209
 20
197.5529322427364
 30
0.0
  0
VERTEX
  5
26FDF
  8
0
 10
505.71351476167268
 20
197.30159080808599
 30
0.0
  0
VERTEX
  5
26FE0
  8
0
 10
505.8395419452919
 20
197.04782333522689
 30
0.0
  0
VERTEX
  5
26FE1
  8
0
 10
506.08670419130237
 20
196.53313436018561
 30
0.0
  0
VERTEX
  5
26FE2
  8
0
 10
506.32724346848102
 20
196.0091163862653
 30
0.0
  0
VERTEX
  5
26FE3
  8
0
 10
506.44499269828361
 20
195.7436887314197
 30
0.0
  0
SEQEND
  5
26FE4
  8
0
  0
POLYLINE
  5
1AC83
  8
0
 66
     1
 10
0.0
 20
0.0
 30
0.0
  0
VERTEX
  5
26FE5
  8
0
 10
503.83191565593012
 20
195.7436887314197
 30
0.0
  0
VERTEX
  5
26FE6
  8
0
 10
503.74467172771989
 20
195.90399075054839
 30
0.0
  0
VERTEX
  5
26FE7
  8
0
 10
503.56792029041929
 20
196.2208479831915
 30
0.0
  0
VERTEX
  5
26FE8
  8
0
 10
503.38819050059692
 20
196.53263849874929
 30
0.0
  0
VERTEX
  5
26FE9
  8
0
 10
503.29722381974568
 20
196.6866074413656
 30
0.0
  0
VERTEX
  5
26FEA
  8
0
 10
503.2055307654058
 20
196.83927832176769
 30
0.0
  0
VERTEX
  5
26FEB
  8
0
 10
503.01999028112959
 20
197.14068486404079
 30
0.0
  0
VERTEX
  5
26FEC
  8
0
 10
502.83161901993282
 20
197.43677694685721
 30
0.0
  0
VERTEX
  5
26FED
  8
0
 10
502.6404677164013
 20
197.72747482286559
 30
0.0
  0
VERTEX
  5
26FEE
  8
0
 10
502.44658785387787
 20
198.01270019755151
 30
0.0
  0
VERTEX
  5
26FEF
  8
0
 10
502.25003165059638
 20
198.29237625032599
 30
0.0
  0
VERTEX
  5
26FF0
  8
0
 10
502.15076643685899
 20
198.43010968268931
 30
0.0
  0
VERTEX
  5
26FF1
  8
0
 10
502.05085204561709
 20
198.5664276552161
 30
0.0
  0
VERTEX
  5
26FF2
  8
0
 10
501.84910268456912
 20
198.8347806011497
 30
0.0
  0
VERTEX
  5
26FF3
  8
0
 10
501.64483790520097
 20
199.09736281183811
 30
0.0
  0
VERTEX
  5
26FF4
  8
0
 10
501.43811272274678
 20
199.35410356524329
 30
0.0
  0
VERTEX
  5
26FF5
  8
0
 10
501.22898281510811
 20
199.6049337126224
 30
0.0
  0
VERTEX
  5
26FF6
  8
0
 10
501.01750450785801
 20
199.8497856971544
 30
0.0
  0
VERTEX
  5
26FF7
  8
0
 10
500.91090247948819
 20
199.96994920662291
 30
0.0
  0
VERTEX
  5
26FF8
  8
0
 10
500.80373475907101
 20
200.08859357213259
 30
0.0
  0
VERTEX
  5
26FF9
  8
0
 10
500.58773114398252
 20
200.32129301873101
 30
0.0
  0
VERTEX
  5
26FFA
  8
0
 10
500.36955183948152
 20
200.54782136332321
 30
0.0
  0
VERTEX
  5
26FFB
  8
0
 10
500.25966464464108
 20
200.65875224088089
 30
0.0
  0
SEQEND
  5
26FFC
  8
0
  0
LINE
  5
1AC84
  8
0
 10
500.25966464464108
 20
200.65875224088089
 30
0.0
 11
495.72641495980582
 21
205.19200192571591
 31
0.0
  0
POLYLINE
  5
1AC86
  8
0
 66
     1
 10
0.0
 20
0.0
 30
0.0
  0
VERTEX
  5
26FFD
  8
0
 10
506.44499269828361
 20
195.7436887314197
 30
0.0
  0
VERTEX
  5
26FFE
  8
0
 10
506.55700214436803
 20
195.49390983612739
 30
0.0
  0
VERTEX
  5
26FFF
  8
0
 10
506.78711928547023
 20
195.01157288388731
 30
0.0
  0
VERTEX
  5
27000
  8
0
 10
507.02216725939849
 20
194.55380866159339
 30
0.0
  0
VERTEX
  5
27001
  8
0
 10
507.14037234488768
 20
194.3347086813896
 30
0.0
  0
VERTEX
  5
27002
  8
0
 10
507.25842884829478
 20
194.12241473253471
 30
0.0
  0
VERTEX
  5
27003
  8
0
 10
507.49237354415038
 20
193.71901910649461
 30
0.0
  0
VERTEX
  5
27004
  8
0
 10
507.72480101138831
 20
193.3385040392904
 30
0.0
  0
VERTEX
  5
27005
  8
0
 10
507.95893365933
 20
192.9734215268299
 30
0.0
  0
VERTEX
  5
27006
  8
0
 10
508.19168966463889
 20
192.62718260337709
 30
0.0
  0
VERTEX
  5
27007
  8
0
 10
508.4199855281683
 20
192.30300155498199
 30
0.0
  0
VERTEX
  5
27008
  8
0
 10
508.53153644357621
 20
192.15009588205291
 30
0.0
  0
VERTEX
  5
27009
  8
0
 10
508.6408814121865
 20
192.00376599820629
 30
0.0
  0
VERTEX
  5
2700A
  8
0
 10
508.85159849143912
 20
191.7320861582821
 30
0.0
  0
VERTEX
  5
2700B
  8
0
 10
509.04958697742711
 20
191.49025481269291
 30
0.0
  0
VERTEX
  5
2700C
  8
0
 10
509.23269635916051
 20
191.28008931079779
 30
0.0
  0
VERTEX
  5
2700D
  8
0
 10
509.39897375422498
 20
191.10320947355649
 30
0.0
  0
VERTEX
  5
2700E
  8
0
 10
509.54673475327093
 20
190.96093646929421
 30
0.0
  0
VERTEX
  5
2700F
  8
0
 10
509.6132553819412
 20
190.90306659553241
 30
0.0
  0
VERTEX
  5
27010
  8
0
 10
509.67470132860132
 20
190.85413574496349
 30
0.0
  0
VERTEX
  5
27011
  8
0
 10
509.78201410168799
 20
190.7832030859413
 30
0.0
  0
VERTEX
  5
27012
  8
0
 10
509.86823256278518
 20
190.7480397727081
 30
0.0
  0
VERTEX
  5
27013
  8
0
 10
509.90342021576561
 20
190.7436887314197
 30
0.0
  0
SEQEND
  5
27014
  8
0
  0
POLYLINE
  5
1AC87
  8
0
 66
     1
 10
0.0
 20
0.0
 30
0.0
  0
VERTEX
  5
27015
  8
0
 10
507.88961044649699
 20
190.7436887314197
 30
0.0
  0
VERTEX
  5
27016
  8
0
 10
507.88327079825461
 20
190.74381363610379
 30
0.0
  0
VERTEX
  5
27017
  8
0
 10
507.8700814050315
 20
190.74481452440429
 30
0.0
  0
VERTEX
  5
27018
  8
0
 10
507.8562103175135
 20
190.74682028947919
 30
0.0
  0
VERTEX
  5
27019
  8
0
 10
507.84901864885683
 20
190.74820118539259
 30
0.0
  0
VERTEX
  5
2701A
  8
0
 10
507.84165602140871
 20
190.7498346655575
 30
0.0
  0
VERTEX
  5
2701B
  8
0
 10
507.82641742079431
 20
190.75386093375661
 30
0.0
  0
VERTEX
  5
2701C
  8
0
 10
507.81049383940791
 20
190.7589019176894
 30
0.0
  0
VERTEX
  5
2701D
  8
0
 10
507.79388502060152
 20
190.76495998099011
 30
0.0
  0
VERTEX
  5
2701E
  8
0
 10
507.77659112597951
 20
190.77203702670931
 30
0.0
  0
VERTEX
  5
2701F
  8
0
 10
507.75861273274262
 20
190.7801344985464
 30
0.0
  0
VERTEX
  5
27020
  8
0
 10
507.74936714221718
 20
190.7845662205186
 30
0.0
  0
VERTEX
  5
27021
  8
0
 10
507.73995082975989
 20
190.78925338386941
 30
0.0
  0
VERTEX
  5
27022
  8
0
 10
507.72060681240077
 20
190.79939421848621
 30
0.0
  0
VERTEX
  5
27023
  8
0
 10
507.70058247615168
 20
190.8105570931161
 30
0.0
  0
VERTEX
  5
27024
  8
0
 10
507.67988000905081
 20
190.82274166152129
 30
0.0
  0
VERTEX
  5
27025
  8
0
 10
507.65850198297591
 20
190.83594715025259
 30
0.0
  0
VERTEX
  5
27026
  8
0
 10
507.63645134381829
 20
190.85017236995819
 30
0.0
  0
VERTEX
  5
27027
  8
0
 10
507.6251748145325
 20
190.85766689665701
 30
0.0
  0
VERTEX
  5
27028
  8
0
 10
507.6137314005818
 20
190.86541572821261
 30
0.0
  0
VERTEX
  5
27029
  8
0
 10
507.59034581344679
 20
190.881675243822
 30
0.0
  0
VERTEX
  5
2702A
  8
0
 10
507.56629858083738
 20
190.8989485625489
 30
0.0
  0
VERTEX
  5
2702B
  8
0
 10
507.55402818607809
 20
190.90796456456059
 30
0.0
  0
VERTEX
  5
2702C
  8
0
 10
507.47698797949431
 20
190.96734674981369
 30
0.0
  0
VERTEX
  5
2702D
  8
0
 10
507.30580859173608
 20
191.1129516276273
 30
0.0
  0
VERTEX
  5
2702E
  8
0
 10
507.11309627147932
 20
191.29335638401921
 30
0.0
  0
VERTEX
  5
2702F
  8
0
 10
506.90075528108179
 20
191.50698257232759
 30
0.0
  0
VERTEX
  5
27030
  8
0
 10
506.67096712128898
 20
191.75197332819971
 30
0.0
  0
VERTEX
  5
27031
  8
0
 10
506.42612725476852
 20
192.02628412269181
 30
0.0
  0
VERTEX
  5
27032
  8
0
 10
506.2989411535421
 20
192.17366363339119
 30
0.0
  0
VERTEX
  5
27033
  8
0
 10
506.1690818803649
 20
192.3274085168737
 30
0.0
  0
VERTEX
  5
27034
  8
0
 10
505.90293609341381
 20
192.6525466788575
 30
0.0
  0
VERTEX
  5
27035
  8
0
 10
505.63098911620978
 20
192.9986447265228
 30
0.0
  0
VERTEX
  5
27036
  8
0
 10
505.3567249628253
 20
193.3623495545225
 30
0.0
  0
VERTEX
  5
27037
  8
0
 10
505.08354531551799
 20
193.7402953783367
 30
0.0
  0
VERTEX
  5
27038
  8
0
 10
504.80687130730507
 20
194.1407532106891
 30
0.0
  0
VERTEX
  5
27039
  8
0
 10
504.66672978362732
 20
194.35115971730599
 30
0.0
  0
VERTEX
  5
2703A
  8
0
 10
504.5260166350584
 20
194.56810037685409
 30
0.0
  0
VERTEX
  5
2703B
  8
0
 10
504.24488704959708
 20
195.02078180563149
 30
0.0
  0
VERTEX
  5
2703C
  8
0
 10
503.96767310694048
 20
195.497152347194
 30
0.0
  0
VERTEX
  5
2703D
  8
0
 10
503.83191565593012
 20
195.7436887314197
 30
0.0
  0
SEQEND
  5
2703E
  8
0
  0
LINE
  5
1AC88
  8
0
 10
510.00966464464108
 20
190.7436887314197
 30
0.0
 11
507.88961044649699
 21
190.7436887314197
 31
0.0
  0
POLYLINE
  5
1AC89
  8
0
 66
     1
 10
0.0
 20
0.0
 30
0.0
  0
VERTEX
  5
2703F
  8
0
 10
504.2484802105364
 20
195.01481727593821
 30
0.0
  0
VERTEX
  5
27040
  8
0
 10
504.4410036082719
 20
194.7021414041856
 30
0.0
  0
VERTEX
  5
27041
  8
0
 10
504.82561543384702
 20
194.1130143345604
 30
0.0
  0
VERTEX
  5
27042
  8
0
 10
505.20252742341302
 20
193.57366712923701
 30
0.0
  0
VERTEX
  5
27043
  8
0
 10
505.39097655932358
 20
193.31609361928301
 30
0.0
  0
SEQEND
  5
27044
  8
0
  0
POLYLINE
  5
1AC8A
  8
0
 66
     1
 10
0.0
 20
0.0
 30
0.0
  0
VERTEX
  5
27045
  8
0
 10
505.39098937980248
 20
193.31607635112681
 30
0.0
  0
VERTEX
  5
27046
  8
0
 10
505.49910736870322
 20
193.1716466010634
 30
0.0
  0
VERTEX
  5
27047
  8
0
 10
505.7146824843652
 20
192.89062176057271
 30
0.0
  0
VERTEX
  5
27048
  8
0
 10
505.92796468007191
 20
192.62140039073711
 30
0.0
  0
VERTEX
  5
27049
  8
0
 10
506.03323034385471
 20
192.49169888726831
 30
0.0
  0
SEQEND
  5
2704A
  8
0
  0
POLYLINE
  5
1AC8B
  8
0
 66
     1
 10
0.0
 20
0.0
 30
0.0
  0
VERTEX
  5
2704B
  8
0
 10
506.55989114613561
 20
191.87483089179429
 30
0.0
  0
VERTEX
  5
2704C
  8
0
 10
506.58945756837022
 20
191.84186403032891
 30
0.0
  0
VERTEX
  5
2704D
  8
0
 10
506.6479554250713
 20
191.77720114741891
 30
0.0
  0
VERTEX
  5
2704E
  8
0
 10
506.70557438958798
 20
191.71426053735101
 30
0.0
  0
VERTEX
  5
2704F
  8
0
 10
506.73404246663262
 20
191.683446240298
 30
0.0
  0
VERTEX
  5
27050
  8
0
 10
506.76227678544478
 20
191.65307454666211
 30
0.0
  0
VERTEX
  5
27051
  8
0
 10
506.81802615129948
 20
191.5936742962335
 30
0.0
  0
VERTEX
  5
27052
  8
0
 10
506.87278925690759
 20
191.53608759751609
 30
0.0
  0
VERTEX
  5
27053
  8
0
 10
506.92654166561351
 20
191.48033338843689
 30
0.0
  0
VERTEX
  5
27054
  8
0
 10
506.97925070609352
 20
191.4264396085614
 30
0.0
  0
VERTEX
  5
27055
  8
0
 10
507.03088321446199
 20
191.37443479155081
 30
0.0
  0
VERTEX
  5
27056
  8
0
 10
507.05628568442171
 20
191.34914938379461
 30
0.0
  0
VERTEX
  5
27057
  8
0
 10
507.08140705593058
 20
191.32434644806241
 30
0.0
  0
VERTEX
  5
27058
  8
0
 10
507.13079121049969
 20
191.27620097069479
 30
0.0
  0
VERTEX
  5
27059
  8
0
 10
507.17900585568998
 20
191.23002354411301
 30
0.0
  0
VERTEX
  5
2705A
  8
0
 10
507.22602244585801
 20
191.1858380609228
 30
0.0
  0
VERTEX
  5
2705B
  8
0
 10
507.27181378759491
 20
191.14366704395661
 30
0.0
  0
VERTEX
  5
2705C
  8
0
 10
507.31635411066537
 20
191.10353157569031
 30
0.0
  0
VERTEX
  5
2705D
  8
0
 10
507.33814749247978
 20
191.0842333511564
 30
0.0
  0
VERTEX
  5
2705E
  8
0
 10
507.35961913389792
 20
191.0654512356127
 30
0.0
  0
VERTEX
  5
2705F
  8
0
 10
507.40158612540131
 20
191.02944404641579
 30
0.0
  0
VERTEX
  5
27060
  8
0
 10
507.44223395644048
 20
190.9955264299619
 30
0.0
  0
VERTEX
  5
27061
  8
0
 10
507.46205703410129
 20
190.97935589719921
 30
0.0
  0
SEQEND
  5
27062
  8
0
  0
POLYLINE
  5
1AC8C
  8
0
 66
     1
 10
0.0
 20
0.0
 30
0.0
  0
VERTEX
  5
27063
  8
0
 10
507.58978628156211
 20
190.88207095753751
 30
0.0
  0
VERTEX
  5
27064
  8
0
 10
507.65259400959991
 20
190.83970059466989
 30
0.0
  0
VERTEX
  5
27065
  8
0
 10
507.76291016957788
 20
190.77813472595739
 30
0.0
  0
VERTEX
  5
27066
  8
0
 10
507.85255596284799
 20
190.74749454191581
 30
0.0
  0
VERTEX
  5
27067
  8
0
 10
507.88961044649699
 20
190.7436887314197
 30
0.0
  0
SEQEND
  5
27068
  8
0
  0
POLYLINE
  5
1AC8D
  8
0
 66
     1
 10
0.0
 20
0.0
 30
0.0
  0
VERTEX
  5
27069
  8
0
 10
490.00966464464108
 20
215.54817315835771
 30
0.0
  0
VERTEX
  5
2706A
  8
0
 10
490.00975256657227
 20
215.46184607910249
 30
0.0
  0
VERTEX
  5
2706B
  8
0
 10
490.01048666665167
 20
215.29053360376381
 30
0.0
  0
VERTEX
  5
2706C
  8
0
 10
490.01203392570579
 20
215.12109669757501
 30
0.0
  0
VERTEX
  5
2706D
  8
0
 10
490.01313848731598
 20
215.03711371822919
 30
0.0
  0
VERTEX
  5
2706E
  8
0
 10
490.01447760473451
 20
214.95363795671261
 30
0.0
  0
VERTEX
  5
2706F
  8
0
 10
490.01790140482791
 20
214.78825793566651
 30
0.0
  0
VERTEX
  5
27070
  8
0
 10
490.02238909200742
 20
214.62505466348739
 30
0.0
  0
VERTEX
  5
27071
  8
0
 10
490.02802412607411
 20
214.46412317331121
 30
0.0
  0
VERTEX
  5
27072
  8
0
 10
490.03488929873259
 20
214.30555504232331
 30
0.0
  0
VERTEX
  5
27073
  8
0
 10
490.0430664245186
 20
214.1494372806101
 30
0.0
  0
VERTEX
  5
27074
  8
0
 10
490.04767223761411
 20
214.072322473301
 30
0.0
  0
VERTEX
  5
27075
  8
0
 10
490.05263614479998
 20
213.9958504787792
 30
0.0
  0
VERTEX
  5
27076
  8
0
 10
490.0636772387079
 20
213.8448748990977
 30
0.0
  0
VERTEX
  5
27077
  8
0
 10
490.0762661926409
 20
213.6965892014714
 30
0.0
  0
VERTEX
  5
27078
  8
0
 10
490.09047677646629
 20
213.5510695587509
 30
0.0
  0
VERTEX
  5
27079
  8
0
 10
490.10637962213332
 20
213.40838904400701
 30
0.0
  0
VERTEX
  5
2707A
  8
0
 10
490.12404182474597
 20
213.2686170308325
 30
0.0
  0
VERTEX
  5
2707B
  8
0
 10
490.13355259369712
 20
213.19984223544731
 30
0.0
  0
VERTEX
  5
2707C
  8
0
 10
490.14352657466628
 20
213.1318186071139
 30
0.0
  0
VERTEX
  5
2707D
  8
0
 10
490.16489283015102
 20
212.99805400334839
 30
0.0
  0
VERTEX
  5
2707E
  8
0
 10
490.18819504098468
 20
212.86737803727561
 30
0.0
  0
VERTEX
  5
2707F
  8
0
 10
490.20058785830292
 20
212.8032138114049
 30
0.0
  0
SEQEND
  5
27080
  8
0
  0
POLYLINE
  5
1AC8F
  8
0
 66
     1
 10
0.0
 20
0.0
 30
0.0
  0
VERTEX
  5
27081
  8
0
 10
575.00966464464113
 20
215.54817315835771
 30
0.0
  0
VERTEX
  5
27082
  8
0
 10
575.00957672270977
 20
215.46184607910249
 30
0.0
  0
VERTEX
  5
27083
  8
0
 10
575.00884262263037
 20
215.29053360376381
 30
0.0
  0
VERTEX
  5
27084
  8
0
 10
575.00729536357642
 20
215.12109669757501
 30
0.0
  0
VERTEX
  5
27085
  8
0
 10
575.006190801966
 20
215.03711371822919
 30
0.0
  0
VERTEX
  5
27086
  8
0
 10
575.0048516845477
 20
214.95363795671261
 30
0.0
  0
VERTEX
  5
27087
  8
0
 10
575.0014278844543
 20
214.78825793566651
 30
0.0
  0
VERTEX
  5
27088
  8
0
 10
574.99694019727485
 20
214.62505466348739
 30
0.0
  0
VERTEX
  5
27089
  8
0
 10
574.99130516320815
 20
214.46412317331121
 30
0.0
  0
VERTEX
  5
2708A
  8
0
 10
574.98443999054962
 20
214.30555504232331
 30
0.0
  0
VERTEX
  5
2708B
  8
0
 10
574.97626286476361
 20
214.1494372806101
 30
0.0
  0
VERTEX
  5
2708C
  8
0
 10
574.9716570516681
 20
214.072322473301
 30
0.0
  0
VERTEX
  5
2708D
  8
0
 10
574.96669314448218
 20
213.9958504787792
 30
0.0
  0
VERTEX
  5
2708E
  8
0
 10
574.95565205057426
 20
213.84487489909679
 30
0.0
  0
VERTEX
  5
2708F
  8
0
 10
574.94306309664125
 20
213.6965892014714
 30
0.0
  0
VERTEX
  5
27090
  8
0
 10
574.92885251281575
 20
213.5510695587509
 30
0.0
  0
VERTEX
  5
27091
  8
0
 10
574.91294966714895
 20
213.40838904400701
 30
0.0
  0
VERTEX
  5
27092
  8
0
 10
574.8952874645363
 20
213.2686170308325
 30
0.0
  0
VERTEX
  5
27093
  8
0
 10
574.88577669558504
 20
213.19984223544731
 30
0.0
  0
VERTEX
  5
27094
  8
0
 10
574.87580271461593
 20
213.1318186071139
 30
0.0
  0
VERTEX
  5
27095
  8
0
 10
574.85443645913108
 20
212.99805400334839
 30
0.0
  0
VERTEX
  5
27096
  8
0
 10
574.83113424829753
 20
212.86737803727561
 30
0.0
  0
VERTEX
  5
27097
  8
0
 10
574.81874143097934
 20
212.8032138114049
 30
0.0
  0
SEQEND
  5
27098
  8
0
  0
POLYLINE
  5
1AC90
  8
0
 66
     1
 10
0.0
 20
0.0
 30
0.0
  0
VERTEX
  5
27099
  8
0
 10
572.76968960595923
 20
212.8032138114049
 30
0.0
  0
VERTEX
  5
2709A
  8
0
 10
572.78589026051327
 20
212.8696588227476
 30
0.0
  0
VERTEX
  5
2709B
  8
0
 10
572.81585140985021
 20
213.0031843877841
 30
0.0
  0
VERTEX
  5
2709C
  8
0
 10
572.84270180776696
 20
213.13713337221819
 30
0.0
  0
VERTEX
  5
2709D
  8
0
 10
572.85504382529984
 20
213.2042533009317
 30
0.0
  0
VERTEX
  5
2709E
  8
0
 10
572.86681354442635
 20
213.2721078000514
 30
0.0
  0
VERTEX
  5
2709F
  8
0
 10
572.88870858104087
 20
213.41020985698739
 30
0.0
  0
VERTEX
  5
270A0
  8
0
 10
572.90846680010202
 20
213.55144986686079
 30
0.0
  0
VERTEX
  5
270A1
  8
0
 10
572.92616012836731
 20
213.6957587243642
 30
0.0
  0
VERTEX
  5
270A2
  8
0
 10
572.94186596191605
 20
213.84306139832461
 30
0.0
  0
VERTEX
  5
270A3
  8
0
 10
572.9556667388465
 20
213.9932776610967
 30
0.0
  0
VERTEX
  5
270A4
  8
0
 10
572.96187975208841
 20
214.06945207686479
 30
0.0
  0
VERTEX
  5
270A5
  8
0
 10
572.96764944919573
 20
214.14632282291859
 30
0.0
  0
VERTEX
  5
270A6
  8
0
 10
572.97790509760785
 20
214.302108470918
 30
0.0
  0
VERTEX
  5
270A7
  8
0
 10
572.98652813239914
 20
214.4605432135622
 30
0.0
  0
VERTEX
  5
270A8
  8
0
 10
572.99361585363636
 20
214.62153344949459
 30
0.0
  0
VERTEX
  5
270A9
  8
0
 10
572.99926783001524
 20
214.78498484175091
 30
0.0
  0
VERTEX
  5
270AA
  8
0
 10
573.00358513226786
 20
214.95079715113931
 30
0.0
  0
VERTEX
  5
270AB
  8
0
 10
573.00527517382295
 20
215.0345557103519
 30
0.0
  0
VERTEX
  5
270AC
  8
0
 10
573.00666992065305
 20
215.1188645024003
 30
0.0
  0
VERTEX
  5
270AD
  8
0
 10
573.008625017501
 20
215.2890774404741
 30
0.0
  0
VERTEX
  5
270AE
  8
0
 10
573.00955339088091
 20
215.46132351251799
 30
0.0
  0
VERTEX
  5
270AF
  8
0
 10
573.00966464464113
 20
215.54817315835771
 30
0.0
  0
SEQEND
  5
270B0
  8
0
  0
POLYLINE
  5
1AC92
  8
0
 66
     1
 10
0.0
 20
0.0
 30
0.0
  0
VERTEX
  5
270B1
  8
0
 10
569.00966464464113
 20
207.81975030657401
 30
0.0
  0
VERTEX
  5
270B2
  8
0
 10
569.16293684300604
 20
207.91053223592829
 30
0.0
  0
VERTEX
  5
270B3
  8
0
 10
569.46322819369993
 20
208.10222019022061
 30
0.0
  0
VERTEX
  5
270B4
  8
0
 10
569.75468762913795
 20
208.30708737796979
 30
0.0
  0
VERTEX
  5
270B5
  8
0
 10
569.89692403891047
 20
208.41433722283639
 30
0.0
  0
VERTEX
  5
270B6
  8
0
 10
570.03673715262039
 20
208.5247275246011
 30
0.0
  0
VERTEX
  5
270B7
  8
0
 10
570.30881742835606
 20
208.7547090253311
 30
0.0
  0
VERTEX
  5
270B8
  8
0
 10
570.57038889068951
 20
208.9965758010876
 30
0.0
  0
VERTEX
  5
270B9
  8
0
 10
570.82093281411801
 20
209.2498482029705
 30
0.0
  0
VERTEX
  5
270BA
  8
0
 10
571.05995234198406
 20
209.5140239634429
 30
0.0
  0
VERTEX
  5
270BB
  8
0
 10
571.28697347179718
 20
209.7885791923872
 30
0.0
  0
VERTEX
  5
270BC
  8
0
 10
571.39584299312946
 20
209.92957973427841
 30
0.0
  0
VERTEX
  5
270BD
  8
0
 10
571.50154599523341
 20
210.07296941603821
 30
0.0
  0
VERTEX
  5
270BE
  8
0
 10
571.70324439094975
 20
210.36663065673559
 30
0.0
  0
VERTEX
  5
270BF
  8
0
 10
571.89166866844005
 20
210.66898055135249
 30
0.0
  0
VERTEX
  5
270C0
  8
0
 10
572.06644516126096
 20
210.9794195061877
 30
0.0
  0
VERTEX
  5
270C1
  8
0
 10
572.227227268055
 20
211.29733188603041
 30
0.0
  0
VERTEX
  5
270C2
  8
0
 10
572.37369613989858
 20
211.6220872350286
 30
0.0
  0
VERTEX
  5
270C3
  8
0
 10
572.44147121773938
 20
211.7868302601091
 30
0.0
  0
VERTEX
  5
270C4
  8
0
 10
572.50556131261658
 20
211.9530415269582
 30
0.0
  0
VERTEX
  5
270C5
  8
0
 10
572.62256128280455
 20
212.28953844239459
 30
0.0
  0
VERTEX
  5
270C6
  8
0
 10
572.72446402641879
 20
212.6309106702729
 30
0.0
  0
VERTEX
  5
270C7
  8
0
 10
572.76968960595923
 20
212.8032138114049
 30
0.0
  0
SEQEND
  5
270C8
  8
0
  0
POLYLINE
  5
1AC94
  8
0
 66
     1
 10
0.0
 20
0.0
 30
0.0
  0
VERTEX
  5
270C9
  8
0
 10
574.81874143097934
 20
212.8032138114049
 30
0.0
  0
VERTEX
  5
270CA
  8
0
 10
574.78202768275207
 20
212.62641620478101
 30
0.0
  0
VERTEX
  5
270CB
  8
0
 10
574.69905427301808
 20
212.274953611759
 30
0.0
  0
VERTEX
  5
270CC
  8
0
 10
574.60344487784869
 20
211.926716071318
 30
0.0
  0
VERTEX
  5
270CD
  8
0
 10
574.55094001030614
 20
211.75394879460961
 30
0.0
  0
VERTEX
  5
270CE
  8
0
 10
574.49532418197305
 20
211.5821577219194
 30
0.0
  0
VERTEX
  5
270CF
  8
0
 10
574.37483318617581
 20
211.241727903971
 30
0.0
  0
VERTEX
  5
270D0
  8
0
 10
574.2421290234164
 20
210.90587057383979
 30
0.0
  0
VERTEX
  5
270D1
  8
0
 10
574.09738475391146
 20
210.57502372488671
 30
0.0
  0
VERTEX
  5
270D2
  8
0
 10
573.94078913944577
 20
210.24961881627769
 30
0.0
  0
VERTEX
  5
270D3
  8
0
 10
573.77254639720775
 20
209.9300802103144
 30
0.0
  0
VERTEX
  5
270D4
  8
0
 10
573.68412533200001
 20
209.7726413071023
 30
0.0
  0
VERTEX
  5
270D5
  8
0
 10
573.59287593346755
 20
209.6168246190218
 30
0.0
  0
VERTEX
  5
270D6
  8
0
 10
573.40201205744893
 20
209.31026056071099
 30
0.0
  0
VERTEX
  5
270D7
  8
0
 10
573.20020367576524
 20
209.01078782723019
 30
0.0
  0
VERTEX
  5
270D8
  8
0
 10
572.98771396781888
 20
208.71879696258929
 30
0.0
  0
VERTEX
  5
270D9
  8
0
 10
572.76482004258764
 20
208.43466875365539
 30
0.0
  0
VERTEX
  5
270DA
  8
0
 10
572.5318125772452
 20
208.158773733564
 30
0.0
  0
VERTEX
  5
270DB
  8
0
 10
572.41161072077
 20
208.02402653798339
 30
0.0
  0
VERTEX
  5
270DC
  8
0
 10
572.28899543808768
 20
207.8914716985027
 30
0.0
  0
VERTEX
  5
270DD
  8
0
 10
572.03668528426033
 20
207.6331112385005
 30
0.0
  0
VERTEX
  5
270DE
  8
0
 10
571.77521115479919
 20
207.3840292828327
 30
0.0
  0
VERTEX
  5
270DF
  8
0
 10
571.64114370375455
 20
207.26306973758159
 30
0.0
  0
SEQEND
  5
270E0
  8
0
  0
LINE
  5
1AC95
  8
0
 10
568.04546561556037
 20
207.26306973758159
 30
0.0
 11
569.00966464464113
 21
207.81975030657401
 31
0.0
  0
POLYLINE
  5
1AC98
  8
0
 66
     1
 10
0.0
 20
0.0
 30
0.0
  0
VERTEX
  5
270E1
  8
0
 10
570.00966464464113
 20
205.8485255471833
 30
0.0
  0
VERTEX
  5
270E2
  8
0
 10
569.88410927990083
 20
205.7413663651005
 30
0.0
  0
VERTEX
  5
270E3
  8
0
 10
569.64025431583855
 20
205.52427956679821
 30
0.0
  0
VERTEX
  5
270E4
  8
0
 10
569.4062090769977
 20
205.30362289255299
 30
0.0
  0
VERTEX
  5
270E5
  8
0
 10
569.29291432947628
 20
205.19200192571591
 30
0.0
  0
SEQEND
  5
270E6
  8
0
  0
POLYLINE
  5
1AC99
  8
0
 66
     1
 10
0.0
 20
0.0
 30
0.0
  0
VERTEX
  5
270E7
  8
0
 10
565.29291432947628
 20
205.19200192571591
 30
0.0
  0
VERTEX
  5
270E8
  8
0
 10
565.35628955447828
 20
205.2548483033616
 30
0.0
  0
VERTEX
  5
270E9
  8
0
 10
565.48540636948326
 20
205.3797345073217
 30
0.0
  0
VERTEX
  5
270EA
  8
0
 10
565.61765550765108
 20
205.50352331832531
 30
0.0
  0
VERTEX
  5
270EB
  8
0
 10
565.68494598130735
 20
205.56499800918391
 30
0.0
  0
VERTEX
  5
270EC
  8
0
 10
565.75300899350816
 20
205.6261885505655
 30
0.0
  0
VERTEX
  5
270ED
  8
0
 10
565.89143819490016
 20
205.7477042559122
 30
0.0
  0
VERTEX
  5
270EE
  8
0
 10
566.03291382904752
 20
205.8680447294
 30
0.0
  0
VERTEX
  5
270EF
  8
0
 10
566.17740596873944
 20
205.98718451467079
 30
0.0
  0
VERTEX
  5
270F0
  8
0
 10
566.32488404866581
 20
206.1050984093518
 30
0.0
  0
VERTEX
  5
270F1
  8
0
 10
566.475316871882
 20
206.2217614703932
 30
0.0
  0
VERTEX
  5
270F2
  8
0
 10
566.5516313920873
 20
206.27961621580289
 30
0.0
  0
VERTEX
  5
270F3
  8
0
 10
566.62867261640827
 20
206.33714901934039
 30
0.0
  0
VERTEX
  5
270F4
  8
0
 10
566.78491884196171
 20
206.4512366475565
 30
0.0
  0
VERTEX
  5
270F5
  8
0
 10
566.94402249681787
 20
206.56400022138399
 30
0.0
  0
VERTEX
  5
270F6
  8
0
 10
567.10594992480264
 20
206.67541588725089
 30
0.0
  0
VERTEX
  5
270F7
  8
0
 10
567.27066687241245
 20
206.78546007671679
 30
0.0
  0
VERTEX
  5
270F8
  8
0
 10
567.43813849605863
 20
206.8941095114578
 30
0.0
  0
VERTEX
  5
270F9
  8
0
 10
567.52289626323432
 20
206.9479040018723
 30
0.0
  0
VERTEX
  5
270FA
  8
0
 10
567.60832936943962
 20
207.0013412081916
 30
0.0
  0
VERTEX
  5
270FB
  8
0
 10
567.78120349103381
 20
207.10713248353841
 30
0.0
  0
VERTEX
  5
270FC
  8
0
 10
567.95672429171589
 20
207.2114609588198
 30
0.0
  0
VERTEX
  5
270FD
  8
0
 10
568.04546561556037
 20
207.26306973758159
 30
0.0
  0
SEQEND
  5
270FE
  8
0
  0
LINE
  5
1AC9D
  8
0
 10
575.00966464464113
 20
295.74368873141981
 30
0.0
 11
575.00966464464113
 21
215.54817315835771
 31
0.0
  0
LINE
  5
1AC9F
  8
0
 10
563.75966464464113
 20
203.65875224088089
 30
0.0
 11
565.29291432947628
 21
205.19200192571591
 31
0.0
  0
LINE
  5
1ACA1
  8
0
 10
569.29291432947628
 20
205.19200192571591
 30
0.0
 11
564.75966464464113
 21
200.65875224088089
 31
0.0
  0
POLYLINE
  5
1ACA2
  8
0
 66
     1
 10
0.0
 20
0.0
 30
0.0
  0
VERTEX
  5
270FF
  8
0
 10
564.75966464464113
 20
200.65875224088089
 30
0.0
  0
VERTEX
  5
27100
  8
0
 10
564.64977744980069
 20
200.54782136332321
 30
0.0
  0
VERTEX
  5
27101
  8
0
 10
564.43159814529963
 20
200.32129301873101
 30
0.0
  0
VERTEX
  5
27102
  8
0
 10
564.21559453021109
 20
200.08859357213259
 30
0.0
  0
VERTEX
  5
27103
  8
0
 10
564.10842680979397
 20
199.96994920662291
 30
0.0
  0
VERTEX
  5
27104
  8
0
 10
564.00182478142415
 20
199.8497856971544
 30
0.0
  0
VERTEX
  5
27105
  8
0
 10
563.79034647417404
 20
199.6049337126224
 30
0.0
  0
VERTEX
  5
27106
  8
0
 10
563.58121656653543
 20
199.35410356524329
 30
0.0
  0
VERTEX
  5
27107
  8
0
 10
563.37449138408124
 20
199.09736281183811
 30
0.0
  0
VERTEX
  5
27108
  8
0
 10
563.17022660471321
 20
198.8347806011497
 30
0.0
  0
VERTEX
  5
27109
  8
0
 10
562.96847724366512
 20
198.5664276552161
 30
0.0
  0
VERTEX
  5
2710A
  8
0
 10
562.86856285242334
 20
198.43010968268931
 30
0.0
  0
VERTEX
  5
2710B
  8
0
 10
562.76929763868588
 20
198.29237625032599
 30
0.0
  0
VERTEX
  5
2710C
  8
0
 10
562.57274143540428
 20
198.01270019755151
 30
0.0
  0
VERTEX
  5
2710D
  8
0
 10
562.37886157288085
 20
197.72747482286559
 30
0.0
  0
VERTEX
  5
2710E
  8
0
 10
562.18771026934951
 20
197.43677694685721
 30
0.0
  0
VERTEX
  5
2710F
  8
0
 10
561.99933900815267
 20
197.14068486404079
 30
0.0
  0
VERTEX
  5
27110
  8
0
 10
561.81379852387647
 20
196.83927832176769
 30
0.0
  0
VERTEX
  5
27111
  8
0
 10
561.72210546953636
 20
196.6866074413656
 30
0.0
  0
VERTEX
  5
27112
  8
0
 10
561.63113878868535
 20
196.53263849874929
 30
0.0
  0
VERTEX
  5
27113
  8
0
 10
561.45140899886292
 20
196.2208479831915
 30
0.0
  0
VERTEX
  5
27114
  8
0
 10
561.27465756156232
 20
195.90399075054839
 30
0.0
  0
VERTEX
  5
27115
  8
0
 10
561.18741363335198
 20
195.7436887314197
 30
0.0
  0
SEQEND
  5
27116
  8
0
  0
POLYLINE
  5
1ACA3
  8
0
 66
     1
 10
0.0
 20
0.0
 30
0.0
  0
VERTEX
  5
27117
  8
0
 10
558.57433659099866
 20
195.7436887314197
 30
0.0
  0
VERTEX
  5
27118
  8
0
 10
558.69208582080125
 20
196.0091163862653
 30
0.0
  0
VERTEX
  5
27119
  8
0
 10
558.93262509797967
 20
196.53313436018561
 30
0.0
  0
VERTEX
  5
2711A
  8
0
 10
559.17978734399037
 20
197.04782333522689
 30
0.0
  0
VERTEX
  5
2711B
  8
0
 10
559.30581452760953
 20
197.30159080808599
 30
0.0
  0
VERTEX
  5
2711C
  8
0
 10
559.43345199146995
 20
197.5529322427364
 30
0.0
  0
VERTEX
  5
2711D
  8
0
 10
559.69349530114232
 20
198.04821468727911
 30
0.0
  0
VERTEX
  5
2711E
  8
0
 10
559.95979042217709
 20
198.53342906683429
 30
0.0
  0
VERTEX
  5
2711F
  8
0
 10
560.23220745406968
 20
199.00833869064991
 30
0.0
  0
VERTEX
  5
27120
  8
0
 10
560.51061351000772
 20
199.4727118947003
 30
0.0
  0
VERTEX
  5
27121
  8
0
 10
560.79487278169302
 20
199.92632215469251
 30
0.0
  0
VERTEX
  5
27122
  8
0
 10
560.93915415077879
 20
200.14902182446889
 30
0.0
  0
VERTEX
  5
27123
  8
0
 10
561.08484660559088
 20
200.368948196573
 30
0.0
  0
VERTEX
  5
27124
  8
0
 10
561.38039353057025
 20
200.80037410445669
 30
0.0
  0
VERTEX
  5
27125
  8
0
 10
561.68136938690543
 20
201.220389425961
 30
0.0
  0
VERTEX
  5
27126
  8
0
 10
561.98762735660171
 20
201.62878927486051
 30
0.0
  0
VERTEX
  5
27127
  8
0
 10
562.29901804501537
 20
202.02537443103211
 30
0.0
  0
VERTEX
  5
27128
  8
0
 10
562.61538955372862
 20
202.4099514376403
 30
0.0
  0
VERTEX
  5
27129
  8
0
 10
562.77539498102669
 20
202.5976780287765
 30
0.0
  0
VERTEX
  5
2712A
  8
0
 10
562.93658755464696
 20
202.78233269550131
 30
0.0
  0
VERTEX
  5
2712B
  8
0
 10
563.26245536528165
 20
203.1423365545979
 30
0.0
  0
VERTEX
  5
2712C
  8
0
 10
563.59283402517985
 20
203.4897874026901
 30
0.0
  0
VERTEX
  5
2712D
  8
0
 10
563.75966464464113
 20
203.65875224088089
 30
0.0
  0
SEQEND
  5
2712E
  8
0
  0
POLYLINE
  5
1ACA5
  8
0
 66
     1
 10
0.0
 20
0.0
 30
0.0
  0
VERTEX
  5
2712F
  8
0
 10
561.18741363335198
 20
195.7436887314197
 30
0.0
  0
VERTEX
  5
27130
  8
0
 10
561.05165618234173
 20
195.497152347194
 30
0.0
  0
VERTEX
  5
27131
  8
0
 10
560.77444223968519
 20
195.02078180563149
 30
0.0
  0
VERTEX
  5
27132
  8
0
 10
560.4933126542237
 20
194.56810037685409
 30
0.0
  0
VERTEX
  5
27133
  8
0
 10
560.35259950565501
 20
194.35115971730599
 30
0.0
  0
VERTEX
  5
27134
  8
0
 10
560.21245798197697
 20
194.1407532106891
 30
0.0
  0
VERTEX
  5
27135
  8
0
 10
559.93578397376416
 20
193.7402953783367
 30
0.0
  0
VERTEX
  5
27136
  8
0
 10
559.66260432645674
 20
193.3623495545225
 30
0.0
  0
VERTEX
  5
27137
  8
0
 10
559.38834017307249
 20
192.9986447265228
 30
0.0
  0
VERTEX
  5
27138
  8
0
 10
559.11639319586845
 20
192.6525466788575
 30
0.0
  0
VERTEX
  5
27139
  8
0
 10
558.85024740891731
 20
192.3274085168737
 30
0.0
  0
VERTEX
  5
2713A
  8
0
 10
558.72038813574
 20
192.17366363339119
 30
0.0
  0
VERTEX
  5
2713B
  8
0
 10
558.59320203451375
 20
192.02628412269181
 30
0.0
  0
VERTEX
  5
2713C
  8
0
 10
558.34836216799306
 20
191.75197332819971
 30
0.0
  0
VERTEX
  5
2713D
  8
0
 10
558.11857400820043
 20
191.50698257232759
 30
0.0
  0
VERTEX
  5
2713E
  8
0
 10
557.90623301780295
 20
191.29335638401921
 30
0.0
  0
VERTEX
  5
2713F
  8
0
 10
557.71352069754596
 20
191.1129516276273
 30
0.0
  0
VERTEX
  5
27140
  8
0
 10
557.54234130978784
 20
190.96734674981369
 30
0.0
  0
VERTEX
  5
27141
  8
0
 10
557.46530110320407
 20
190.90796456456059
 30
0.0
  0
VERTEX
  5
27142
  8
0
 10
557.45303070844477
 20
190.8989485625489
 30
0.0
  0
VERTEX
  5
27143
  8
0
 10
557.42898347583548
 20
190.881675243822
 30
0.0
  0
VERTEX
  5
27144
  8
0
 10
557.4055978887003
 20
190.86541572821261
 30
0.0
  0
VERTEX
  5
27145
  8
0
 10
557.39415447474971
 20
190.85766689665701
 30
0.0
  0
VERTEX
  5
27146
  8
0
 10
557.38287794546397
 20
190.85017236995819
 30
0.0
  0
VERTEX
  5
27147
  8
0
 10
557.36082730630619
 20
190.83594715025259
 30
0.0
  0
VERTEX
  5
27148
  8
0
 10
557.33944928023141
 20
190.82274166152129
 30
0.0
  0
VERTEX
  5
27149
  8
0
 10
557.31874681313047
 20
190.8105570931161
 30
0.0
  0
VERTEX
  5
2714A
  8
0
 10
557.29872247688127
 20
190.79939421848621
 30
0.0
  0
VERTEX
  5
2714B
  8
0
 10
557.27937845952238
 20
190.78925338386941
 30
0.0
  0
VERTEX
  5
2714C
  8
0
 10
557.26996214706503
 20
190.7845662205186
 30
0.0
  0
VERTEX
  5
2714D
  8
0
 10
557.26071655653971
 20
190.7801344985464
 30
0.0
  0
VERTEX
  5
2714E
  8
0
 10
557.24273816330265
 20
190.77203702670931
 30
0.0
  0
VERTEX
  5
2714F
  8
0
 10
557.2254442686808
 20
190.76495998099011
 30
0.0
  0
VERTEX
  5
27150
  8
0
 10
557.2088354498743
 20
190.7589019176894
 30
0.0
  0
VERTEX
  5
27151
  8
0
 10
557.19291186848795
 20
190.75386093375661
 30
0.0
  0
VERTEX
  5
27152
  8
0
 10
557.17767326787362
 20
190.7498346655575
 30
0.0
  0
VERTEX
  5
27153
  8
0
 10
557.17031064042544
 20
190.74820118539259
 30
0.0
  0
VERTEX
  5
27154
  8
0
 10
557.16311897176865
 20
190.74682028947919
 30
0.0
  0
VERTEX
  5
27155
  8
0
 10
557.14924788425071
 20
190.74481452440429
 30
0.0
  0
VERTEX
  5
27156
  8
0
 10
557.1360584910276
 20
190.74381363610379
 30
0.0
  0
VERTEX
  5
27157
  8
0
 10
557.12971884278522
 20
190.7436887314197
 30
0.0
  0
SEQEND
  5
27158
  8
0
  0
POLYLINE
  5
1ACA6
  8
0
 66
     1
 10
0.0
 20
0.0
 30
0.0
  0
VERTEX
  5
27159
  8
0
 10
555.1159090735166
 20
190.7436887314197
 30
0.0
  0
VERTEX
  5
2715A
  8
0
 10
555.1510967264968
 20
190.7480397727081
 30
0.0
  0
VERTEX
  5
2715B
  8
0
 10
555.23731518759428
 20
190.7832030859413
 30
0.0
  0
VERTEX
  5
2715C
  8
0
 10
555.34462796068078
 20
190.85413574496349
 30
0.0
  0
VERTEX
  5
2715D
  8
0
 10
555.40607390734101
 20
190.90306659553241
 30
0.0
  0
VERTEX
  5
2715E
  8
0
 10
555.47259453601134
 20
190.96093646929421
 30
0.0
  0
VERTEX
  5
2715F
  8
0
 10
555.62035553505734
 20
191.10320947355649
 30
0.0
  0
VERTEX
  5
27160
  8
0
 10
555.78663293012175
 20
191.28008931079779
 30
0.0
  0
VERTEX
  5
27161
  8
0
 10
555.96974231185516
 20
191.49025481269291
 30
0.0
  0
VERTEX
  5
27162
  8
0
 10
556.16773079784298
 20
191.7320861582821
 30
0.0
  0
VERTEX
  5
27163
  8
0
 10
556.37844787709571
 20
192.00376599820629
 30
0.0
  0
VERTEX
  5
27164
  8
0
 10
556.48779284570605
 20
192.15009588205291
 30
0.0
  0
VERTEX
  5
27165
  8
0
 10
556.59934376111391
 20
192.30300155498199
 30
0.0
  0
VERTEX
  5
27166
  8
0
 10
556.82763962464333
 20
192.62718260337709
 30
0.0
  0
VERTEX
  5
27167
  8
0
 10
557.06039562995215
 20
192.9734215268299
 30
0.0
  0
VERTEX
  5
27168
  8
0
 10
557.29452827789385
 20
193.3385040392904
 30
0.0
  0
VERTEX
  5
27169
  8
0
 10
557.52695574513166
 20
193.71901910649461
 30
0.0
  0
VERTEX
  5
2716A
  8
0
 10
557.76090044098737
 20
194.12241473253471
 30
0.0
  0
VERTEX
  5
2716B
  8
0
 10
557.87895694439453
 20
194.3347086813896
 30
0.0
  0
VERTEX
  5
2716C
  8
0
 10
557.99716202988373
 20
194.55380866159339
 30
0.0
  0
VERTEX
  5
2716D
  8
0
 10
558.23221000381204
 20
195.01157288388731
 30
0.0
  0
VERTEX
  5
2716E
  8
0
 10
558.46232714491407
 20
195.49390983612739
 30
0.0
  0
VERTEX
  5
2716F
  8
0
 10
558.57433659099866
 20
195.7436887314197
 30
0.0
  0
SEQEND
  5
27170
  8
0
  0
LINE
  5
1ACA7
  8
0
 10
555.00966464464113
 20
190.7436887314197
 30
0.0
 11
557.12971884278522
 21
190.7436887314197
 31
0.0
  0
POLYLINE
  5
1ACA8
  8
0
 66
     1
 10
0.0
 20
0.0
 30
0.0
  0
VERTEX
  5
27171
  8
0
 10
557.12971884278522
 20
190.7436887314197
 30
0.0
  0
VERTEX
  5
27172
  8
0
 10
557.13622952117885
 20
190.74382037508801
 30
0.0
  0
VERTEX
  5
27173
  8
0
 10
557.14978726579193
 20
190.74487516626141
 30
0.0
  0
VERTEX
  5
27174
  8
0
 10
557.16406173690802
 20
190.74698870044401
 30
0.0
  0
VERTEX
  5
27175
  8
0
 10
557.17146821861752
 20
190.74844366187969
 30
0.0
  0
SEQEND
  5
27176
  8
0
  0
POLYLINE
  5
1ACA9
  8
0
 66
     1
 10
0.0
 20
0.0
 30
0.0
  0
VERTEX
  5
27177
  8
0
 10
558.98609894489107
 20
192.49169888661299
 30
0.0
  0
VERTEX
  5
27178
  8
0
 10
559.09136453595602
 20
192.62140029975029
 30
0.0
  0
VERTEX
  5
27179
  8
0
 10
559.30464658300752
 20
192.89062147594811
 30
0.0
  0
VERTEX
  5
2717A
  8
0
 10
559.52022154859958
 20
193.1716461082292
 30
0.0
  0
VERTEX
  5
2717B
  8
0
 10
559.62833946304477
 20
193.31607574981581
 30
0.0
  0
SEQEND
  5
2717C
  8
0
  0
LINE
  5
1ACAA
  8
0
 10
570.00966464464113
 20
205.8485255471833
 30
0.0
 11
571.64114370375455
 21
207.26306973758159
 31
0.0
  0
POLYLINE
  5
1ACAB
  8
0
 66
     1
 10
0.0
 20
0.0
 30
0.0
  0
VERTEX
  5
2717D
  8
0
 10
571.64114370375455
 20
207.26306973758159
 30
0.0
  0
VERTEX
  5
2717E
  8
0
 10
571.77521115479919
 20
207.3840292828327
 30
0.0
  0
VERTEX
  5
2717F
  8
0
 10
572.03668528426022
 20
207.6331112385005
 30
0.0
  0
VERTEX
  5
27180
  8
0
 10
572.28899543808768
 20
207.8914716985027
 30
0.0
  0
VERTEX
  5
27181
  8
0
 10
572.41161072077
 20
208.02402653798339
 30
0.0
  0
VERTEX
  5
27182
  8
0
 10
572.5318125772452
 20
208.158773733564
 30
0.0
  0
VERTEX
  5
27183
  8
0
 10
572.76482004258764
 20
208.43466875365539
 30
0.0
  0
VERTEX
  5
27184
  8
0
 10
572.98771396781888
 20
208.71879696258929
 30
0.0
  0
VERTEX
  5
27185
  8
0
 10
573.20020367576524
 20
209.01078782723019
 30
0.0
  0
VERTEX
  5
27186
  8
0
 10
573.40201205744893
 20
209.31026056071099
 30
0.0
  0
VERTEX
  5
27187
  8
0
 10
573.59287593346755
 20
209.6168246190218
 30
0.0
  0
VERTEX
  5
27188
  8
0
 10
573.68412533200001
 20
209.77264130710321
 30
0.0
  0
VERTEX
  5
27189
  8
0
 10
573.77254639720775
 20
209.9300802103144
 30
0.0
  0
VERTEX
  5
2718A
  8
0
 10
573.94078913944577
 20
210.24961881627769
 30
0.0
  0
VERTEX
  5
2718B
  8
0
 10
574.09738475391146
 20
210.57502372488671
 30
0.0
  0
VERTEX
  5
2718C
  8
0
 10
574.24212902341628
 20
210.90587057383979
 30
0.0
  0
VERTEX
  5
2718D
  8
0
 10
574.37483318617581
 20
211.241727903971
 30
0.0
  0
VERTEX
  5
2718E
  8
0
 10
574.49532418197305
 20
211.5821577219194
 30
0.0
  0
VERTEX
  5
2718F
  8
0
 10
574.55094001030614
 20
211.75394879460961
 30
0.0
  0
VERTEX
  5
27190
  8
0
 10
574.60344487784869
 20
211.926716071318
 30
0.0
  0
VERTEX
  5
27191
  8
0
 10
574.69905427301808
 20
212.274953611759
 30
0.0
  0
VERTEX
  5
27192
  8
0
 10
574.78202768275207
 20
212.62641620478101
 30
0.0
  0
VERTEX
  5
27193
  8
0
 10
574.81874143097934
 20
212.8032138114049
 30
0.0
  0
SEQEND
  5
27194
  8
0
  0
LINE
  5
1ACB2
  8
0
 10
525.50356416455224
 20
286.74368873141981
 30
0.0
 11
539.5157651247298
 21
286.74368873141981
 31
0.0
  0
POLYLINE
  5
1ACB3
  8
0
 66
     1
 10
0.0
 20
0.0
 30
0.0
  0
VERTEX
  5
27195
  8
0
 10
522.33148690992391
 20
288.7645248153276
 30
0.0
  0
VERTEX
  5
27196
  8
0
 10
522.33929941319559
 20
288.74788507340782
 30
0.0
  0
VERTEX
  5
27197
  8
0
 10
522.35518606052835
 20
288.71472983265812
 30
0.0
  0
VERTEX
  5
27198
  8
0
 10
522.37142009747299
 20
288.68174329605432
 30
0.0
  0
VERTEX
  5
27199
  8
0
 10
522.3796668287755
 20
288.66531442995438
 30
0.0
  0
VERTEX
  5
2719A
  8
0
 10
522.38799973277833
 20
288.64892910330491
 30
0.0
  0
VERTEX
  5
2719B
  8
0
 10
522.40492313706034
 20
288.616290875103
 30
0.0
  0
VERTEX
  5
2719C
  8
0
 10
522.42218844300351
 20
288.58383221272561
 30
0.0
  0
VERTEX
  5
2719D
  8
0
 10
522.43979374556761
 20
288.55155669763639
 30
0.0
  0
VERTEX
  5
2719E
  8
0
 10
522.45773710219692
 20
288.51946789109121
 30
0.0
  0
VERTEX
  5
2719F
  8
0
 10
522.47601653303514
 20
288.48756933374352
 30
0.0
  0
VERTEX
  5
271A0
  8
0
 10
522.48528164743186
 20
288.47169249924349
 30
0.0
  0
VERTEX
  5
271A1
  8
0
 10
522.4946300211443
 20
288.45586454525528
 30
0.0
  0
VERTEX
  5
271A2
  8
0
 10
522.51357551272611
 20
288.42435702390958
 30
0.0
  0
VERTEX
  5
271A3
  8
0
 10
522.53285091734995
 20
288.39305024622172
 30
0.0
  0
VERTEX
  5
271A4
  8
0
 10
522.60288186687342
 20
288.28510704868768
 30
0.0
  0
VERTEX
  5
271A5
  8
0
 10
522.66603237945662
 20
288.19468571322523
 30
0.0
  0
VERTEX
  5
271A6
  8
0
 10
522.73200050438572
 20
288.10629899680322
 30
0.0
  0
VERTEX
  5
271A7
  8
0
 10
522.87212483837595
 20
287.93597837856942
 30
0.0
  0
VERTEX
  5
271A8
  8
0
 10
523.02269844435682
 20
287.77482152592711
 30
0.0
  0
VERTEX
  5
271A9
  8
0
 10
523.18312340447085
 20
287.62346838210669
 30
0.0
  0
VERTEX
  5
271AA
  8
0
 10
523.3527626817837
 20
287.48251996046019
 30
0.0
  0
VERTEX
  5
271AB
  8
0
 10
523.53094264991444
 20
287.35253595787248
 30
0.0
  0
VERTEX
  5
271AC
  8
0
 10
523.62301553533848
 20
287.29181867107491
 30
0.0
  0
VERTEX
  5
271AD
  8
0
 10
523.71695576796265
 20
287.23403253224387
 30
0.0
  0
VERTEX
  5
271AE
  8
0
 10
523.91006339010664
 20
287.12748025286152
 30
0.0
  0
VERTEX
  5
271AF
  8
0
 10
524.10949869871615
 20
287.03330223179643
 30
0.0
  0
VERTEX
  5
271B0
  8
0
 10
524.31446974933579
 20
286.95187244376029
 30
0.0
  0
VERTEX
  5
271B1
  8
0
 10
524.52416261544386
 20
286.88351424106901
 30
0.0
  0
VERTEX
  5
271B2
  8
0
 10
524.73774462050073
 20
286.82849906963662
 30
0.0
  0
VERTEX
  5
271B3
  8
0
 10
524.84572952415192
 20
286.8060654847722
 30
0.0
  0
VERTEX
  5
271B4
  8
0
 10
524.9543676444523
 20
286.78704539108088
 30
0.0
  0
VERTEX
  5
271B5
  8
0
 10
525.17317149155951
 20
286.75931781522382
 30
0.0
  0
VERTEX
  5
271B6
  8
0
 10
525.39328730617785
 20
286.74542644644038
 30
0.0
  0
VERTEX
  5
271B7
  8
0
 10
525.50356416455224
 20
286.74368873141981
 30
0.0
  0
SEQEND
  5
271B8
  8
0
  0
LINE
  5
1ACB4
  8
0
 10
520.41352093398484
 20
292.87761612403119
 30
0.0
 11
522.33148690992391
 21
288.7645248153276
 31
0.0
  0
POLYLINE
  5
1ACB5
  8
0
 66
     1
 10
0.0
 20
0.0
 30
0.0
  0
VERTEX
  5
271B9
  8
0
 10
519.05405925342984
 20
293.74368873141981
 30
0.0
  0
VERTEX
  5
271BA
  8
0
 10
519.06733575476096
 20
293.74362997510622
 30
0.0
  0
VERTEX
  5
271BB
  8
0
 10
519.09921260746864
 20
293.74300896893419
 30
0.0
  0
VERTEX
  5
271BC
  8
0
 10
519.13818131750031
 20
293.741328033233
 30
0.0
  0
VERTEX
  5
271BD
  8
0
 10
519.16030659940793
 20
293.73992116706359
 30
0.0
  0
VERTEX
  5
271BE
  8
0
 10
519.18417399125667
 20
293.73803479408429
 30
0.0
  0
VERTEX
  5
271BF
  8
0
 10
519.23705400076767
 20
293.7324845275071
 30
0.0
  0
VERTEX
  5
271C0
  8
0
 10
519.2966171706662
 20
293.72394737665218
 30
0.0
  0
VERTEX
  5
271C1
  8
0
 10
519.36258724790196
 20
293.7116160036739
 30
0.0
  0
VERTEX
  5
271C2
  8
0
 10
519.43462516189891
 20
293.69460898743358
 30
0.0
  0
VERTEX
  5
271C3
  8
0
 10
519.51233921067205
 20
293.6719672339496
 30
0.0
  0
VERTEX
  5
271C4
  8
0
 10
519.55318527795885
 20
293.65821098703782
 30
0.0
  0
VERTEX
  5
271C5
  8
0
 10
519.59527497394686
 20
293.64264746700343
 30
0.0
  0
VERTEX
  5
271C6
  8
0
 10
519.6829108648891
 20
293.60550577154117
 30
0.0
  0
VERTEX
  5
271C7
  8
0
 10
519.77464038625874
 20
293.55927332809551
 30
0.0
  0
VERTEX
  5
271C8
  8
0
 10
519.86980756475202
 20
293.50247969602611
 30
0.0
  0
VERTEX
  5
271C9
  8
0
 10
519.92661761672218
 20
293.46378786782128
 30
0.0
  0
VERTEX
  5
271CA
  8
0
 10
519.94299440223449
 20
293.4519082070201
 30
0.0
  0
VERTEX
  5
271CB
  8
0
 10
519.95942831249135
 20
293.43964310634152
 30
0.0
  0
VERTEX
  5
271CC
  8
0
 10
519.96766537058431
 20
293.43336257861392
 30
0.0
  0
VERTEX
  5
271CD
  8
0
 10
519.97591511209225
 20
293.42698149986251
 30
0.0
  0
VERTEX
  5
271CE
  8
0
 10
519.99245043663063
 20
293.41391178165031
 30
0.0
  0
VERTEX
  5
271CF
  8
0
 10
520.00902976573389
 20
293.40042176917268
 30
0.0
  0
VERTEX
  5
271D0
  8
0
 10
520.02564839083004
 20
293.38649866666128
 30
0.0
  0
VERTEX
  5
271D1
  8
0
 10
520.04230137716013
 20
293.37212902885949
 30
0.0
  0
VERTEX
  5
271D2
  8
0
 10
520.05898351955693
 20
293.35729872569482
 30
0.0
  0
VERTEX
  5
271D3
  8
0
 10
520.06733381133904
 20
293.34970621333099
 30
0.0
  0
VERTEX
  5
271D4
  8
0
 10
520.07568929152364
 20
293.34199290844208
 30
0.0
  0
VERTEX
  5
271D5
  8
0
 10
520.09241278717013
 20
293.32619597803301
 30
0.0
  0
VERTEX
  5
271D6
  8
0
 10
520.10919430568674
 20
293.30984539040492
 30
0.0
  0
VERTEX
  5
271D7
  8
0
 10
520.11766747834599
 20
293.30139263322332
 30
0.0
  0
VERTEX
  5
271D8
  8
0
 10
520.12619480380999
 20
293.29274800601343
 30
0.0
  0
VERTEX
  5
271D9
  8
0
 10
520.14338942006816
 20
293.27488211195117
 30
0.0
  0
VERTEX
  5
271DA
  8
0
 10
520.16073248869316
 20
293.256247050902
 30
0.0
  0
VERTEX
  5
271DB
  8
0
 10
520.16944515335047
 20
293.24664151907109
 30
0.0
  0
VERTEX
  5
271DC
  8
0
 10
520.17817738008011
 20
293.23684452853098
 30
0.0
  0
VERTEX
  5
271DD
  8
0
 10
520.19567669792832
 20
293.21667876755419
 30
0.0
  0
VERTEX
  5
271DE
  8
0
 10
520.21318250677666
 20
293.19575663002252
 30
0.0
  0
VERTEX
  5
271DF
  8
0
 10
520.23064659299291
 20
293.17408769551002
 30
0.0
  0
VERTEX
  5
271E0
  8
0
 10
520.24802076149308
 20
293.15168428056307
 30
0.0
  0
VERTEX
  5
271E1
  8
0
 10
520.26525716946276
 20
293.12856138225561
 30
0.0
  0
VERTEX
  5
271E2
  8
0
 10
520.27380894917064
 20
293.11673551123198
 30
0.0
  0
VERTEX
  5
271E3
  8
0
 10
520.28230869699257
 20
293.10473652590468
 30
0.0
  0
VERTEX
  5
271E4
  8
0
 10
520.29912973202772
 20
293.0802289296916
 30
0.0
  0
VERTEX
  5
271E5
  8
0
 10
520.31567675242945
 20
293.05505873716169
 30
0.0
  0
VERTEX
  5
271E6
  8
0
 10
520.33190448742505
 20
293.02925321505882
 30
0.0
  0
VERTEX
  5
271E7
  8
0
 10
520.34776805224669
 20
293.00284454142462
 30
0.0
  0
VERTEX
  5
271E8
  8
0
 10
520.36322372449945
 20
292.97586930183212
 30
0.0
  0
VERTEX
  5
271E9
  8
0
 10
520.37078538397282
 20
292.96218180525187
 30
0.0
  0
VERTEX
  5
271EA
  8
0
 10
520.37822946689766
 20
292.94836826550909
 30
0.0
  0
VERTEX
  5
271EB
  8
0
 10
520.39274545719979
 20
292.92038604029221
 30
0.0
  0
VERTEX
  5
271EC
  8
0
 10
520.40673461944448
 20
292.89197057921228
 30
0.0
  0
VERTEX
  5
271ED
  8
0
 10
520.41352093398484
 20
292.87761612403119
 30
0.0
  0
SEQEND
  5
271EE
  8
0
  0
POLYLINE
  5
1ACB6
  8
0
 66
     1
 10
0.0
 20
0.0
 30
0.0
  0
VERTEX
  5
271EF
  8
0
 10
539.5157651247298
 20
286.74368873141981
 30
0.0
  0
VERTEX
  5
271F0
  8
0
 10
539.62604198310441
 20
286.74542644644038
 30
0.0
  0
VERTEX
  5
271F1
  8
0
 10
539.84615779772275
 20
286.75931781522382
 30
0.0
  0
VERTEX
  5
271F2
  8
0
 10
540.06496164482985
 20
286.78704539108088
 30
0.0
  0
VERTEX
  5
271F3
  8
0
 10
540.17359976513035
 20
286.8060654847722
 30
0.0
  0
VERTEX
  5
271F4
  8
0
 10
540.28158466878153
 20
286.82849906963662
 30
0.0
  0
VERTEX
  5
271F5
  8
0
 10
540.49516667383841
 20
286.88351424106901
 30
0.0
  0
VERTEX
  5
271F6
  8
0
 10
540.70485953994648
 20
286.95187244376029
 30
0.0
  0
VERTEX
  5
271F7
  8
0
 10
540.909830590566
 20
287.03330223179643
 30
0.0
  0
VERTEX
  5
271F8
  8
0
 10
541.10926589917563
 20
287.12748025286152
 30
0.0
  0
VERTEX
  5
271F9
  8
0
 10
541.30237352131951
 20
287.23403253224387
 30
0.0
  0
VERTEX
  5
271FA
  8
0
 10
541.39631375394379
 20
287.29181867107491
 30
0.0
  0
VERTEX
  5
271FB
  8
0
 10
541.48838663936783
 20
287.35253595787248
 30
0.0
  0
VERTEX
  5
271FC
  8
0
 10
541.66656660749845
 20
287.48251996046019
 30
0.0
  0
VERTEX
  5
271FD
  8
0
 10
541.83620588481131
 20
287.62346838210669
 30
0.0
  0
VERTEX
  5
271FE
  8
0
 10
541.99663084492545
 20
287.77482152592711
 30
0.0
  0
VERTEX
  5
271FF
  8
0
 10
542.14720445090632
 20
287.93597837856942
 30
0.0
  0
VERTEX
  5
27200
  8
0
 10
542.28732878489654
 20
288.10629899680322
 30
0.0
  0
VERTEX
  5
27201
  8
0
 10
542.35329690982564
 20
288.19468571322523
 30
0.0
  0
VERTEX
  5
27202
  8
0
 10
542.41644742240885
 20
288.28510704868768
 30
0.0
  0
VERTEX
  5
27203
  8
0
 10
542.48647837193209
 20
288.39305024622172
 30
0.0
  0
VERTEX
  5
27204
  8
0
 10
542.50575377655605
 20
288.42435702390958
 30
0.0
  0
VERTEX
  5
27205
  8
0
 10
542.52469926813785
 20
288.45586454525528
 30
0.0
  0
VERTEX
  5
27206
  8
0
 10
542.53404764185029
 20
288.47169249924349
 30
0.0
  0
VERTEX
  5
27207
  8
0
 10
542.54331275624713
 20
288.48756933374352
 30
0.0
  0
VERTEX
  5
27208
  8
0
 10
542.56159218708535
 20
288.51946789109121
 30
0.0
  0
VERTEX
  5
27209
  8
0
 10
542.57953554371466
 20
288.55155669763639
 30
0.0
  0
VERTEX
  5
2720A
  8
0
 10
542.59714084627865
 20
288.58383221272561
 30
0.0
  0
VERTEX
  5
2720B
  8
0
 10
542.61440615222193
 20
288.616290875103
 30
0.0
  0
VERTEX
  5
2720C
  8
0
 10
542.63132955650394
 20
288.64892910330491
 30
0.0
  0
VERTEX
  5
2720D
  8
0
 10
542.63966246050666
 20
288.66531442995438
 30
0.0
  0
VERTEX
  5
2720E
  8
0
 10
542.64790919180928
 20
288.68174329605432
 30
0.0
  0
VERTEX
  5
2720F
  8
0
 10
542.66414322875391
 20
288.71472983265812
 30
0.0
  0
VERTEX
  5
27210
  8
0
 10
542.68002987608645
 20
288.74788507340782
 30
0.0
  0
VERTEX
  5
27211
  8
0
 10
542.68784237935824
 20
288.7645248153276
 30
0.0
  0
SEQEND
  5
27212
  8
0
  0
LINE
  5
1ACB7
  8
0
 10
542.68784237935824
 20
288.7645248153276
 30
0.0
 11
544.60580835529743
 21
292.87761612403119
 31
0.0
  0
POLYLINE
  5
1ACB8
  8
0
 66
     1
 10
0.0
 20
0.0
 30
0.0
  0
VERTEX
  5
27213
  8
0
 10
544.60580835529743
 20
292.87761612403119
 30
0.0
  0
VERTEX
  5
27214
  8
0
 10
544.61259466983756
 20
292.89197057921228
 30
0.0
  0
VERTEX
  5
27215
  8
0
 10
544.62658383208225
 20
292.92038604029221
 30
0.0
  0
VERTEX
  5
27216
  8
0
 10
544.64109982238449
 20
292.94836826550909
 30
0.0
  0
VERTEX
  5
27217
  8
0
 10
544.64854390530945
 20
292.96218180525187
 30
0.0
  0
VERTEX
  5
27218
  8
0
 10
544.65610556478248
 20
292.97586930183212
 30
0.0
  0
VERTEX
  5
27219
  8
0
 10
544.67156123703535
 20
293.00284454142462
 30
0.0
  0
VERTEX
  5
2721A
  8
0
 10
544.68742480185711
 20
293.02925321505882
 30
0.0
  0
VERTEX
  5
2721B
  8
0
 10
544.70365253685281
 20
293.05505873716169
 30
0.0
  0
VERTEX
  5
2721C
  8
0
 10
544.72019955725455
 20
293.0802289296916
 30
0.0
  0
VERTEX
  5
2721D
  8
0
 10
544.73702059228947
 20
293.10473652590468
 30
0.0
  0
VERTEX
  5
2721E
  8
0
 10
544.74552034011151
 20
293.11673551123198
 30
0.0
  0
VERTEX
  5
2721F
  8
0
 10
544.75407211981951
 20
293.12856138225561
 30
0.0
  0
VERTEX
  5
27220
  8
0
 10
544.77130852778907
 20
293.15168428056307
 30
0.0
  0
VERTEX
  5
27221
  8
0
 10
544.78868269628936
 20
293.17408769551002
 30
0.0
  0
VERTEX
  5
27222
  8
0
 10
544.80614678250549
 20
293.19575663002252
 30
0.0
  0
VERTEX
  5
27223
  8
0
 10
544.82365259135395
 20
293.21667876755419
 30
0.0
  0
VERTEX
  5
27224
  8
0
 10
544.84115190920215
 20
293.23684452853098
 30
0.0
  0
VERTEX
  5
27225
  8
0
 10
544.84988413593169
 20
293.24664151907109
 30
0.0
  0
VERTEX
  5
27226
  8
0
 10
544.85859680058911
 20
293.256247050902
 30
0.0
  0
VERTEX
  5
27227
  8
0
 10
544.87593986921411
 20
293.27488211195117
 30
0.0
  0
VERTEX
  5
27228
  8
0
 10
544.89313448547216
 20
293.29274800601343
 30
0.0
  0
VERTEX
  5
27229
  8
0
 10
544.90166181093628
 20
293.30139263322332
 30
0.0
  0
VERTEX
  5
2722A
  8
0
 10
544.91013498359553
 20
293.30984539040492
 30
0.0
  0
VERTEX
  5
2722B
  8
0
 10
544.92691650211214
 20
293.32619597803301
 30
0.0
  0
VERTEX
  5
2722C
  8
0
 10
544.9436399977584
 20
293.34199290844208
 30
0.0
  0
VERTEX
  5
2722D
  8
0
 10
544.95199547794311
 20
293.34970621333099
 30
0.0
  0
VERTEX
  5
2722E
  8
0
 10
544.96034576972534
 20
293.35729872569482
 30
0.0
  0
VERTEX
  5
2722F
  8
0
 10
544.97702791212214
 20
293.37212902885949
 30
0.0
  0
VERTEX
  5
27230
  8
0
 10
544.99368089845223
 20
293.38649866666128
 30
0.0
  0
VERTEX
  5
27231
  8
0
 10
545.01029952354827
 20
293.40042176917268
 30
0.0
  0
VERTEX
  5
27232
  8
0
 10
545.02687885265163
 20
293.41391178165031
 30
0.0
  0
VERTEX
  5
27233
  8
0
 10
545.04341417719002
 20
293.42698149986251
 30
0.0
  0
VERTEX
  5
27234
  8
0
 10
545.05166391869795
 20
293.43336257861392
 30
0.0
  0
VERTEX
  5
27235
  8
0
 10
545.05990097679069
 20
293.43964310634152
 30
0.0
  0
VERTEX
  5
27236
  8
0
 10
545.07633488704755
 20
293.4519082070201
 30
0.0
  0
VERTEX
  5
27237
  8
0
 10
545.09271167255986
 20
293.46378786782128
 30
0.0
  0
VERTEX
  5
27238
  8
0
 10
545.14952172453025
 20
293.50247969602611
 30
0.0
  0
VERTEX
  5
27239
  8
0
 10
545.24468890302353
 20
293.55927332809551
 30
0.0
  0
VERTEX
  5
2723A
  8
0
 10
545.33641842439295
 20
293.60550577154117
 30
0.0
  0
VERTEX
  5
2723B
  8
0
 10
545.42405431533518
 20
293.64264746700343
 30
0.0
  0
VERTEX
  5
2723C
  8
0
 10
545.46614401132342
 20
293.65821098703782
 30
0.0
  0
VERTEX
  5
2723D
  8
0
 10
545.50699007861022
 20
293.6719672339496
 30
0.0
  0
VERTEX
  5
2723E
  8
0
 10
545.58470412738325
 20
293.69460898743358
 30
0.0
  0
VERTEX
  5
2723F
  8
0
 10
545.65674204138031
 20
293.7116160036739
 30
0.0
  0
VERTEX
  5
27240
  8
0
 10
545.72271211861607
 20
293.72394737665218
 30
0.0
  0
VERTEX
  5
27241
  8
0
 10
545.7822752885146
 20
293.7324845275071
 30
0.0
  0
VERTEX
  5
27242
  8
0
 10
545.83515529802537
 20
293.73803479408429
 30
0.0
  0
VERTEX
  5
27243
  8
0
 10
545.85902268987434
 20
293.73992116706359
 30
0.0
  0
VERTEX
  5
27244
  8
0
 10
545.88114797178196
 20
293.741328033233
 30
0.0
  0
VERTEX
  5
27245
  8
0
 10
545.92011668181362
 20
293.74300896893419
 30
0.0
  0
VERTEX
  5
27246
  8
0
 10
545.95199353452119
 20
293.74362997510622
 30
0.0
  0
VERTEX
  5
27247
  8
0
 10
545.96527003585243
 20
293.74368873141981
 30
0.0
  0
SEQEND
  5
27248
  8
0
  0
LINE
  5
1ACB9
  8
0
 10
490.00966464464108
 20
295.74368873141981
 30
0.0
 11
575.00966464464113
 21
295.74368873141981
 31
0.0
  0
LINE
  5
1AD49
  8
0
 10
535.50966464464113
 20
264.74368873141981
 30
0.0
 11
529.50966464464113
 21
264.74368873141981
 31
0.0
  0
LINE
  5
1AD4A
  8
0
 10
529.50966464464113
 20
139.7436887314197
 30
0.0
 11
535.50966464464113
 21
139.7436887314197
 31
0.0
  0
ARC
  5
1AD4B
  8
0
 10
535.50966464464113
 20
140.04368873141991
 30
0.0
 40
0.3000000000000185
 50
270.0
 51
0.0
  0
ARC
  5
1AD4C
  8
0
 10
535.50966464464113
 20
264.44368873141963
 30
0.0
 40
0.300000000000014
 50
0.0
 51
90.0
  0
LINE
  5
1AD4D
  8
0
 10
538.20966464464107
 20
264.44368873141963
 30
0.0
 11
535.80966464464097
 21
264.44368873141963
 31
0.0
  0
LINE
  5
1AD4E
  8
0
 10
535.80966464464097
 20
140.04368873141991
 30
0.0
 11
538.20966464464107
 21
140.04368873141991
 31
0.0
  0
ARC
  5
1AD4F
  8
0
 10
538.50966464464113
 20
140.04368873141991
 30
0.0
 40
0.2999999999999998
 50
180.0
 51
270.0
  0
ARC
  5
1AD50
  8
0
 10
538.50966464464113
 20
264.44368873141963
 30
0.0
 40
0.2999999999999971
 50
90.0
 51
180.0
  0
LINE
  5
1AD51
  8
0
 10
541.93818124450252
 20
264.74368873141981
 30
0.0
 11
538.50966464464113
 21
264.74368873141981
 31
0.0
  0
LINE
  5
1AD52
  8
0
 10
538.50966464464113
 20
139.7436887314197
 30
0.0
 11
541.93818124450252
 21
139.7436887314197
 31
0.0
  0
ARC
  5
1AD53
  8
0
 10
541.93818124450252
 20
140.7436887314197
 30
0.0
 40
1.0000000000000211
 50
270.0
 51
341.00000000001182
  0
ARC
  5
1AD54
  8
0
 10
541.93818124450252
 20
263.74368873141981
 30
0.0
 40
1.0000000000000211
 50
18.999999999988241
 51
90.0
  0
LINE
  5
1AD55
  8
0
 10
544.29212520531814
 20
259.9788925617367
 30
0.0
 11
542.88369982010181
 21
264.06925688587671
 31
0.0
  0
LINE
  5
1AD56
  8
0
 10
542.88369982010181
 20
140.41812057696279
 30
0.0
 11
544.29212520531814
 21
144.50848490110269
 31
0.0
  0
ARC
  5
1AD57
  8
0
 10
541.45556947852026
 20
145.48518936447451
 30
0.0
 40
2.999999999999917
 50
341.00000000001182
 51
0.0000008537736463
  0
ARC
  5
1AD58
  8
0
 10
541.45556947852026
 20
259.00218809836502
 30
0.0
 40
2.9999999999999591
 50
0.0
 51
18.999999999988241
  0
ARC
  5
1AD59
  8
0
 10
545.08056947852026
 20
146.79829333577749
 30
0.0
 40
0.625
 50
180.0
 51
0.0
  0
ARC
  5
1AD5A
  8
0
 10
545.08056947852026
 20
257.68908412706151
 30
0.0
 40
0.625
 50
0.0
 51
180.0
  0
ARC
  5
1AD5B
  8
0
 10
546.33056947852026
 20
150.4285569328722
 30
0.0
 40
0.625
 50
180.0
 51
0.0
  0
ARC
  5
1AD5C
  8
0
 10
546.33056947852026
 20
254.05882052996731
 30
0.0
 40
0.625
 50
0.0
 51
180.0
  0
LINE
  5
1AD5D
  8
0
 10
551.09622037143913
 20
240.21836536754651
 30
0.0
 11
546.95556947852037
 21
252.24368873141981
 31
0.0
  0
LINE
  5
1AD5E
  8
0
 10
546.95556947852037
 20
152.2436887314197
 30
0.0
 11
551.09622037143913
 21
164.26901209529251
 31
0.0
  0
ARC
  5
1AD5F
  8
0
 10
548.25966464464091
 20
165.24571655866379
 30
0.0
 40
3.0000000000001941
 50
341.00000000001182
 51
0.0000008537736463
  0
ARC
  5
1AD60
  8
0
 10
548.25966464464091
 20
239.2416609041756
 30
0.0
 40
3.000000000000191
 50
0.0000008537736463
 51
18.999999999988241
  0
ARC
  5
1AD61
  8
0
 10
516.75966464464068
 20
165.24571655866379
 30
0.0
 40
2.9999999999995999
 50
179.99999914622629
 51
198.9999999999882
  0
ARC
  5
1AD62
  8
0
 10
516.75966464464068
 20
239.2416609041756
 30
0.0
 40
2.999999999999599
 50
161.0000000000118
 51
179.99999914622629
  0
LINE
  5
1AD63
  8
0
 10
518.06375981076189
 20
252.24368873141981
 30
0.0
 11
513.92310891784314
 21
240.21836536754651
 31
0.0
  0
LINE
  5
1AD64
  8
0
 10
513.92310891784314
 20
164.26901209529251
 30
0.0
 11
518.06375981076189
 21
152.2436887314197
 31
0.0
  0
ARC
  5
1AD65
  8
0
 10
518.68875981076189
 20
150.4285569328722
 30
0.0
 40
0.625
 50
180.0
 51
0.0
  0
ARC
  5
1AD66
  8
0
 10
518.68875981076189
 20
254.05882052996731
 30
0.0
 40
0.625
 50
0.0
 51
180.0
  0
ARC
  5
1AD67
  8
0
 10
519.93875981076189
 20
146.79829333577749
 30
0.0
 40
0.625
 50
180.0
 51
0.0
  0
ARC
  5
1AD68
  8
0
 10
519.93875981076189
 20
257.68908412706151
 30
0.0
 40
0.625
 50
0.0
 51
180.0
  0
ARC
  5
1AD69
  8
0
 10
523.56375981076189
 20
145.48518936447451
 30
0.0
 40
2.9999999999999338
 50
180.0
 51
198.9999999999882
  0
ARC
  5
1AD6A
  8
0
 10
523.56375981076189
 20
259.00218809836502
 30
0.0
 40
2.9999999999999369
 50
161.0000000000118
 51
180.0
  0
LINE
  5
1AD6B
  8
0
 10
522.13562946918034
 20
264.06925688587671
 30
0.0
 11
520.7272040839639
 21
259.9788925617367
 31
0.0
  0
LINE
  5
1AD6C
  8
0
 10
520.7272040839639
 20
144.50848490110269
 30
0.0
 11
522.13562946918034
 21
140.41812057696279
 31
0.0
  0
ARC
  5
1AD6D
  8
0
 10
523.08114804477975
 20
140.7436887314197
 30
0.0
 40
1.0000000000000211
 50
198.9999999999882
 51
270.0
  0
ARC
  5
1AD6E
  8
0
 10
523.08114804477975
 20
263.74368873141981
 30
0.0
 40
1.0000000000000211
 50
90.0
 51
161.0000000000118
  0
LINE
  5
1AD6F
  8
0
 10
526.50966464464113
 20
264.74368873141981
 30
0.0
 11
523.08114804477975
 21
264.74368873141981
 31
0.0
  0
LINE
  5
1AD70
  8
0
 10
523.08114804477975
 20
139.7436887314197
 30
0.0
 11
526.50966464464113
 21
139.7436887314197
 31
0.0
  0
ARC
  5
1AD71
  8
0
 10
526.50966464464113
 20
140.04368873141991
 30
0.0
 40
0.3000000000000185
 50
270.0
 51
0.0
  0
ARC
  5
1AD72
  8
0
 10
526.50966464464113
 20
264.44368873141963
 30
0.0
 40
0.300000000000014
 50
0.0
 51
90.0
  0
LINE
  5
1AD73
  8
0
 10
529.20966464464107
 20
264.44368873141963
 30
0.0
 11
526.80966464464097
 21
264.44368873141963
 31
0.0
  0
LINE
  5
1AD74
  8
0
 10
526.80966464464097
 20
140.04368873141991
 30
0.0
 11
529.20966464464107
 21
140.04368873141991
 31
0.0
  0
ARC
  5
1AD75
  8
0
 10
529.50966464464113
 20
140.04368873141991
 30
0.0
 40
0.3000000000000003
 50
180.0
 51
270.0
  0
ARC
  5
1AD76
  8
0
 10
529.50966464464113
 20
264.44368873141963
 30
0.0
 40
0.3000000000000043
 50
90.0
 51
180.0
  0
LINE
  5
1AD78
  8
0
 10
535.80966464464097
 20
140.04368873141991
 30
0.0
 11
535.80966464464097
 21
264.44368873141963
 31
0.0
  0
LINE
  5
1AD79
  8
0
 10
538.20966464464107
 20
140.04368873141991
 30
0.0
 11
538.20966464464107
 21
264.44368873141963
 31
0.0
  0
LINE
  5
1AD7E
  8
0
 10
544.45556947852026
 20
145.48518936447451
 30
0.0
 11
544.45556947852026
 21
259.00218809836502
 31
0.0
  0
LINE
  5
1AD7F
  8
0
 10
545.70556947852037
 20
146.79829333577749
 30
0.0
 11
545.70556947852037
 21
257.68908412706151
 31
0.0
  0
LINE
  5
1AD80
  8
0
 10
546.95556947852037
 20
150.4285569328722
 30
0.0
 11
546.95556947852037
 21
254.05882052996731
 31
0.0
  0
LINE
  5
1AD82
  8
0
 10
551.25966464464113
 20
165.24571655866379
 30
0.0
 11
551.25966464464113
 21
239.2416609041756
 31
0.0
  0
LINE
  5
1AD84
  8
0
 10
518.06375981076189
 20
150.4285569328722
 30
0.0
 11
518.06375981076189
 21
254.05882052996731
 31
0.0
  0
LINE
  5
1AD85
  8
0
 10
519.31375981076178
 20
146.79829333577749
 30
0.0
 11
519.31375981076178
 21
257.68908412706151
 31
0.0
  0
LINE
  5
1AD86
  8
0
 10
520.56375981076178
 20
145.48518936447451
 30
0.0
 11
520.56375981076178
 21
259.00218809836502
 31
0.0
  0
LINE
  5
1AD8B
  8
0
 10
526.80966464464097
 20
140.04368873141991
 30
0.0
 11
526.80966464464097
 21
264.44368873141963
 31
0.0
  0
LINE
  5
1AD8D
  8
0
 10
529.20966464464107
 20
140.04368873141991
 30
0.0
 11
529.20966464464107
 21
264.44368873141963
 31
0.0
  0
LINE
  5
1AD8E
  8
0
 10
513.75966464464113
 20
165.24571655866379
 30
0.0
 11
513.75966464464113
 21
239.2416609041756
 31
0.0
  0
LINE
  5
1AD94
  8
0
 10
312.64398265071441
 20
198.630438296741
 30
0.0
 11
318.90231598404768
 21
195.01718786206311
 31
0.0
  0
LINE
  5
1AD95
  8
0
 10
318.90231598404768
 20
195.01718786206311
 30
0.0
 11
325.160649317381
 21
198.630438296741
 31
0.0
  0
LINE
  5
1AD96
  8
0
 10
325.160649317381
 20
198.630438296741
 30
0.0
 11
325.160649317381
 21
205.8569391660985
 31
0.0
  0
LINE
  5
1AD97
  8
0
 10
318.90231598404768
 20
209.47018960077639
 30
0.0
 11
312.64398265071441
 21
205.8569391660985
 31
0.0
  0
LINE
  5
1AD98
  8
0
 10
325.160649317381
 20
205.8569391660985
 30
0.0
 11
318.90231598404768
 21
209.47018960077639
 31
0.0
  0
LINE
  5
1AD99
  8
0
 10
312.64398265071441
 20
205.8569391660985
 30
0.0
 11
312.64398265071441
 21
198.630438296741
 31
0.0
  0
CIRCLE
  5
1AD9B
  8
0
 10
318.90231598404768
 20
202.24368873141981
 30
0.0
 40
6.2583333333333391
  0
LINE
  5
1ADCF
  8
0
 10
368.90231598404768
 20
295.74368873141981
 30
0.0
 11
368.90231598404768
 21
293.74368873141981
 31
0.0
  0
LINE
  5
1ADD0
  8
0
 10
364.2132051165031
 20
295.74368873141981
 30
0.0
 11
364.2132051165031
 21
293.52782015665798
 31
0.0
  0
LINE
  5
1ADD2
  8
0
 10
341.6578694835128
 20
295.74368873141981
 30
0.0
 11
341.6578694835128
 21
205.8485255471833
 31
0.0
  0
LINE
  5
1ADD3
  8
0
 10
338.62678057026727
 20
295.74368873141981
 30
0.0
 11
338.62678057026727
 21
200.65875224088089
 31
0.0
  0
LINE
  5
1ADD6
  8
0
 10
299.17785139782808
 20
295.74368873141981
 30
0.0
 11
299.17785139782808
 21
200.65875224088089
 31
0.0
  0
LINE
  5
1ADD7
  8
0
 10
296.1467624845825
 20
295.74368873141981
 30
0.0
 11
296.1467624845825
 21
205.8485255471833
 31
0.0
  0
LINE
  5
1ADD9
  8
0
 10
273.5914268515923
 20
295.74368873141981
 30
0.0
 11
273.5914268515923
 21
293.52782015665798
 31
0.0
  0
LINE
  5
1ADDA
  8
0
 10
268.90231598404768
 20
295.74368873141981
 30
0.0
 11
268.90231598404768
 21
293.74368873141981
 31
0.0
  0
LINE
  5
1ADDB
  8
0
 10
268.90231598404768
 20
293.74368873141981
 30
0.0
 11
273.5914268515923
 21
293.74368873141981
 31
0.0
  0
LINE
  5
1ADDC
  8
0
 10
364.2132051165031
 20
293.74368873141981
 30
0.0
 11
368.90231598404768
 21
293.74368873141981
 31
0.0
  0
LINE
  5
1ADDD
  8
0
 10
353.98180790835892
 20
276.45694165897572
 30
0.0
 11
363.38496571485808
 21
292.7436887314197
 31
0.0
  0
ARC
  5
1ADDE
  8
0
 10
371.30231598404742
 20
266.45694165897572
 30
0.0
 40
19.999999999999719
 50
149.9999999999998
 51
180.0
  0
LINE
  5
1ADDF
  8
0
 10
351.30231598404771
 20
219.87428162327069
 30
0.0
 11
351.30231598404771
 21
266.45694165897572
 31
0.0
  0
POLYLINE
  5
1ADE0
  8
0
 66
     1
 10
0.0
 20
0.0
 30
0.0
  0
VERTEX
  5
27249
  8
0
 10
348.37338379591313
 20
212.8032138114049
 30
0.0
  0
VERTEX
  5
2724A
  8
0
 10
348.4369709957889
 20
212.86737803727561
 30
0.0
  0
VERTEX
  5
2724B
  8
0
 10
348.56299733768219
 20
212.99805400334839
 30
0.0
  0
VERTEX
  5
2724C
  8
0
 10
348.68738148651698
 20
213.1318186071139
 30
0.0
  0
VERTEX
  5
2724D
  8
0
 10
348.74891647408799
 20
213.19984223544731
 30
0.0
  0
VERTEX
  5
2724E
  8
0
 10
348.80999174237741
 20
213.2686170308325
 30
0.0
  0
VERTEX
  5
2724F
  8
0
 10
348.93069937461138
 20
213.40838904400701
 30
0.0
  0
VERTEX
  5
27250
  8
0
 10
349.04937924615649
 20
213.5510695587509
 30
0.0
  0
VERTEX
  5
27251
  8
0
 10
349.16591034932662
 20
213.6965892014714
 30
0.0
  0
VERTEX
  5
27252
  8
0
 10
349.2801762582373
 20
213.84487489909679
 30
0.0
  0
VERTEX
  5
27253
  8
0
 10
349.39206550300531
 20
213.9958504787792
 30
0.0
  0
VERTEX
  5
27254
  8
0
 10
349.44708547262621
 20
214.072322473301
 30
0.0
  0
VERTEX
  5
27255
  8
0
 10
349.50147187061981
 20
214.1494372806101
 30
0.0
  0
VERTEX
  5
27256
  8
0
 10
349.6082948105709
 20
214.30555504232331
 30
0.0
  0
VERTEX
  5
27257
  8
0
 10
349.71243997518673
 20
214.46412317331121
 30
0.0
  0
VERTEX
  5
27258
  8
0
 10
349.81381504853022
 20
214.62505466348739
 30
0.0
  0
VERTEX
  5
27259
  8
0
 10
349.91233125982569
 20
214.78825793566651
 30
0.0
  0
VERTEX
  5
2725A
  8
0
 10
350.00790418397793
 20
214.95363795671261
 30
0.0
  0
VERTEX
  5
2725B
  8
0
 10
350.05456179060701
 20
215.03711371822919
 30
0.0
  0
VERTEX
  5
2725C
  8
0
 10
350.10045402923322
 20
215.12109669757501
 30
0.0
  0
VERTEX
  5
2725D
  8
0
 10
350.18990587634488
 20
215.29053360376381
 30
0.0
  0
VERTEX
  5
2725E
  8
0
 10
350.27618987265163
 20
215.46184607910249
 30
0.0
  0
VERTEX
  5
2725F
  8
0
 10
350.31812352135722
 20
215.54817315835771
 30
0.0
  0
SEQEND
  5
27260
  8
0
  0
ARC
  5
1ADE1
  8
0
 10
341.3023159840476
 20
219.87428162327069
 30
0.0
 40
10.00000000000013
 50
334.36663451367372
 51
0.0
  0
LINE
  5
1ADE2
  8
0
 10
342.83323972208962
 20
207.26306973758159
 30
0.0
 11
348.37338379591313
 21
212.8032138114049
 31
0.0
  0
POLYLINE
  5
1ADE3
  8
0
 66
     1
 10
0.0
 20
0.0
 30
0.0
  0
VERTEX
  5
27261
  8
0
 10
341.24405349611072
 20
205.19200192571591
 30
0.0
  0
VERTEX
  5
27262
  8
0
 10
341.30946424909001
 20
205.30362289255299
 30
0.0
  0
VERTEX
  5
27263
  8
0
 10
341.4445903307373
 20
205.52427956679821
 30
0.0
  0
VERTEX
  5
27264
  8
0
 10
341.5853800598818
 20
205.7413663651005
 30
0.0
  0
VERTEX
  5
27265
  8
0
 10
341.6578694835128
 20
205.8485255471833
 30
0.0
  0
SEQEND
  5
27266
  8
0
  0
POLYLINE
  5
1ADE4
  8
0
 66
     1
 10
0.0
 20
0.0
 30
0.0
  0
VERTEX
  5
27267
  8
0
 10
341.6578694835128
 20
205.8485255471833
 30
0.0
  0
VERTEX
  5
27268
  8
0
 10
341.82628257005888
 20
206.0865343654159
 30
0.0
  0
VERTEX
  5
27269
  8
0
 10
342.19630437832592
 20
206.5627701174499
 30
0.0
  0
VERTEX
  5
2726A
  8
0
 10
342.6101866822043
 20
207.0327475722124
 30
0.0
  0
VERTEX
  5
2726B
  8
0
 10
342.83323972208962
 20
207.26306973758159
 30
0.0
  0
SEQEND
  5
2726C
  8
0
  0
LINE
  5
1ADE5
  8
0
 10
335.78906732999582
 20
195.7436887314197
 30
0.0
 11
341.24405349611072
 21
205.19200192571591
 31
0.0
  0
POLYLINE
  5
1ADE6
  8
0
 66
     1
 10
0.0
 20
0.0
 30
0.0
  0
VERTEX
  5
2726D
  8
0
 10
327.12881329215139
 20
190.7436887314197
 30
0.0
  0
VERTEX
  5
2726E
  8
0
 10
327.17879406925903
 20
190.74381363610379
 30
0.0
  0
VERTEX
  5
2726F
  8
0
 10
327.27886192519509
 20
190.74481452440429
 30
0.0
  0
VERTEX
  5
27270
  8
0
 10
327.37905588351271
 20
190.74682028947919
 30
0.0
  0
VERTEX
  5
27271
  8
0
 10
327.42919424563109
 20
190.74820118539259
 30
0.0
  0
VERTEX
  5
27272
  8
0
 10
327.47935702730211
 20
190.7498346655575
 30
0.0
  0
VERTEX
  5
27273
  8
0
 10
327.57974629497841
 20
190.75386093375661
 30
0.0
  0
VERTEX
  5
27274
  8
0
 10
327.6802045183789
 20
190.7589019176894
 30
0.0
  0
VERTEX
  5
27275
  8
0
 10
327.78071246023683
 20
190.76495998099011
 30
0.0
  0
VERTEX
  5
27276
  8
0
 10
327.88125085098858
 20
190.77203702670931
 30
0.0
  0
VERTEX
  5
27277
  8
0
 10
327.98180042487542
 20
190.7801344985464
 30
0.0
  0
VERTEX
  5
27278
  8
0
 10
328.0320733947018
 20
190.7845662205186
 30
0.0
  0
VERTEX
  5
27279
  8
0
 10
328.08234195529872
 20
190.78925338386941
 30
0.0
  0
VERTEX
  5
2727A
  8
0
 10
328.18285628939623
 20
190.79939421848621
 30
0.0
  0
VERTEX
  5
2727B
  8
0
 10
328.28332438180257
 20
190.8105570931161
 30
0.0
  0
VERTEX
  5
2727C
  8
0
 10
328.38372732756369
 20
190.82274166152129
 30
0.0
  0
VERTEX
  5
2727D
  8
0
 10
328.48404639417288
 20
190.83594715025259
 30
0.0
  0
VERTEX
  5
2727E
  8
0
 10
328.58426305270291
 20
190.85017236995819
 30
0.0
  0
VERTEX
  5
2727F
  8
0
 10
328.63432725176608
 20
190.85766689665701
 30
0.0
  0
VERTEX
  5
27280
  8
0
 10
328.68435900800512
 20
190.86541572821261
 30
0.0
  0
VERTEX
  5
27281
  8
0
 10
328.78431622795142
 20
190.881675243822
 30
0.0
  0
VERTEX
  5
27282
  8
0
 10
328.88411697169653
 20
190.8989485625489
 30
0.0
  0
VERTEX
  5
27283
  8
0
 10
328.93395320735618
 20
190.90796456456059
 30
0.0
  0
VERTEX
  5
27284
  8
0
 10
329.2319389324033
 20
190.96734674981369
 30
0.0
  0
VERTEX
  5
27285
  8
0
 10
329.82119195007448
 20
191.1129516276273
 30
0.0
  0
VERTEX
  5
27286
  8
0
 10
330.39855617557168
 20
191.29335638401921
 30
0.0
  0
VERTEX
  5
27287
  8
0
 10
330.96068741985789
 20
191.50698257232759
 30
0.0
  0
VERTEX
  5
27288
  8
0
 10
331.50477651268909
 20
191.75197332819971
 30
0.0
  0
VERTEX
  5
27289
  8
0
 10
332.02849255591212
 20
192.02628412269181
 30
0.0
  0
VERTEX
  5
2728A
  8
0
 10
332.28193562906182
 20
192.17366363339119
 30
0.0
  0
VERTEX
  5
2728B
  8
0
 10
332.52938986787399
 20
192.3274085168737
 30
0.0
  0
VERTEX
  5
2728C
  8
0
 10
333.00532758935668
 20
192.6525466788575
 30
0.0
  0
VERTEX
  5
2728D
  8
0
 10
333.45449850106058
 20
192.9986447265228
 30
0.0
  0
VERTEX
  5
2728E
  8
0
 10
333.8753555143274
 20
193.3623495545225
 30
0.0
  0
VERTEX
  5
2728F
  8
0
 10
334.26691398785442
 20
193.7402953783367
 30
0.0
  0
VERTEX
  5
27290
  8
0
 10
334.6388893576169
 20
194.1407532106891
 30
0.0
  0
VERTEX
  5
27291
  8
0
 10
334.818779014033
 20
194.35115971730599
 30
0.0
  0
VERTEX
  5
27292
  8
0
 10
334.99406017161772
 20
194.56810037685409
 30
0.0
  0
VERTEX
  5
27293
  8
0
 10
335.3293215885177
 20
195.02078180563149
 30
0.0
  0
VERTEX
  5
27294
  8
0
 10
335.64197110632369
 20
195.497152347194
 30
0.0
  0
VERTEX
  5
27295
  8
0
 10
335.78906732999582
 20
195.7436887314197
 30
0.0
  0
SEQEND
  5
27296
  8
0
  0
LINE
  5
1ADE7
  8
0
 10
310.67581867594402
 20
190.7436887314197
 30
0.0
 11
327.12881329215139
 21
190.7436887314197
 31
0.0
  0
POLYLINE
  5
1ADE8
  8
0
 66
     1
 10
0.0
 20
0.0
 30
0.0
  0
VERTEX
  5
27297
  8
0
 10
302.01556463809959
 20
195.7436887314197
 30
0.0
  0
VERTEX
  5
27298
  8
0
 10
302.16282119297807
 20
195.49689219877109
 30
0.0
  0
VERTEX
  5
27299
  8
0
 10
302.4756438329224
 20
195.0203040209644
 30
0.0
  0
VERTEX
  5
2729A
  8
0
 10
302.81077156695062
 20
194.56784595708399
 30
0.0
  0
VERTEX
  5
2729B
  8
0
 10
302.98582251379031
 20
194.35119633595599
 30
0.0
  0
VERTEX
  5
2729C
  8
0
 10
303.16534466073261
 20
194.14120586004219
 30
0.0
  0
VERTEX
  5
2729D
  8
0
 10
303.53608699292488
 20
193.74195812431299
 30
0.0
  0
VERTEX
  5
2729E
  8
0
 10
303.92905607368652
 20
193.36255098790201
 30
0.0
  0
VERTEX
  5
2729F
  8
0
 10
304.35121051654272
 20
192.99776518222089
 30
0.0
  0
VERTEX
  5
272A0
  8
0
 10
304.80129849019198
 20
192.65109875124699
 30
0.0
  0
VERTEX
  5
272A1
  8
0
 10
305.27779774518291
 20
192.32576915286199
 30
0.0
  0
VERTEX
  5
272A2
  8
0
 10
305.52540832061311
 20
192.1720335136861
 30
0.0
  0
VERTEX
  5
272A3
  8
0
 10
305.7789290297232
 20
192.0247167855573
 30
0.0
  0
VERTEX
  5
272A4
  8
0
 10
306.30258450632903
 20
191.75064570373931
 30
0.0
  0
VERTEX
  5
272A5
  8
0
 10
306.84638425653759
 20
191.50597082993221
 30
0.0
  0
VERTEX
  5
272A6
  8
0
 10
307.40809118747649
 20
191.2926593133557
 30
0.0
  0
VERTEX
  5
272A7
  8
0
 10
307.98491355601323
 20
191.1125398053814
 30
0.0
  0
VERTEX
  5
272A8
  8
0
 10
308.57358877221941
 20
190.96715409833581
 30
0.0
  0
VERTEX
  5
272A9
  8
0
 10
308.87130253472333
 20
190.90785010443551
 30
0.0
  0
VERTEX
  5
272AA
  8
0
 10
308.92109579711672
 20
190.89884502425409
 30
0.0
  0
VERTEX
  5
272AB
  8
0
 10
309.02081306302978
 20
190.88159177279979
 30
0.0
  0
VERTEX
  5
272AC
  8
0
 10
309.12069044727889
 20
190.8653499949514
 30
0.0
  0
VERTEX
  5
272AD
  8
0
 10
309.17068378653943
 20
190.8576091765762
 30
0.0
  0
VERTEX
  5
272AE
  8
0
 10
309.22071064307772
 20
190.8501221039246
 30
0.0
  0
VERTEX
  5
272AF
  8
0
 10
309.32085606672109
 20
190.8359101545839
 30
0.0
  0
VERTEX
  5
272B0
  8
0
 10
309.42110888474451
 20
190.82271582853031
 30
0.0
  0
VERTEX
  5
272B1
  8
0
 10
309.52145104204311
 20
190.8105404205466
 30
0.0
  0
VERTEX
  5
272B2
  8
0
 10
309.6218642909235
 20
190.799384826455
 30
0.0
  0
VERTEX
  5
272B3
  8
0
 10
309.72233022106712
 20
190.7892495324281
 30
0.0
  0
VERTEX
  5
272B4
  8
0
 10
309.77257715149301
 20
190.78456453556279
 30
0.0
  0
VERTEX
  5
272B5
  8
0
 10
309.82283029037359
 20
190.7801346058036
 30
0.0
  0
VERTEX
  5
272B6
  8
0
 10
309.92334585665913
 20
190.77203968744331
 30
0.0
  0
VERTEX
  5
272B7
  8
0
 10
310.02385821017617
 20
190.7649639856881
 30
0.0
  0
VERTEX
  5
272B8
  8
0
 10
310.12434860692173
 20
190.75890627194801
 30
0.0
  0
VERTEX
  5
272B9
  8
0
 10
310.22479830269958
 20
190.75386487797181
 30
0.0
  0
VERTEX
  5
272BA
  8
0
 10
310.32518858789842
 20
190.74983769483919
 30
0.0
  0
VERTEX
  5
272BB
  8
0
 10
310.37535562294528
 20
190.74820365295631
 30
0.0
  0
VERTEX
  5
272BC
  8
0
 10
310.42550082294417
 20
190.74682217371949
 30
0.0
  0
VERTEX
  5
272BD
  8
0
 10
310.52571647438731
 20
190.74481532842631
 30
0.0
  0
VERTEX
  5
272BE
  8
0
 10
310.62581715157722
 20
190.743813739823
 30
0.0
  0
VERTEX
  5
272BF
  8
0
 10
310.67581867594402
 20
190.7436887314197
 30
0.0
  0
SEQEND
  5
272C0
  8
0
  0
LINE
  5
1ADE9
  8
0
 10
296.56057847198468
 20
205.19200192571591
 30
0.0
 11
302.01556463809959
 21
195.7436887314197
 31
0.0
  0
POLYLINE
  5
1ADEA
  8
0
 66
     1
 10
0.0
 20
0.0
 30
0.0
  0
VERTEX
  5
272C1
  8
0
 10
294.97139224600568
 20
207.26306973758159
 30
0.0
  0
VERTEX
  5
272C2
  8
0
 10
295.19444528589082
 20
207.0327475722124
 30
0.0
  0
VERTEX
  5
272C3
  8
0
 10
295.60832758977108
 20
206.562770117448
 30
0.0
  0
VERTEX
  5
272C4
  8
0
 10
295.97834939803749
 20
206.08653436541411
 30
0.0
  0
VERTEX
  5
272C5
  8
0
 10
296.1467624845825
 20
205.8485255471833
 30
0.0
  0
SEQEND
  5
272C6
  8
0
  0
POLYLINE
  5
1ADEB
  8
0
 66
     1
 10
0.0
 20
0.0
 30
0.0
  0
VERTEX
  5
272C7
  8
0
 10
296.1467624845825
 20
205.8485255471833
 30
0.0
  0
VERTEX
  5
272C8
  8
0
 10
296.21925190821349
 20
205.7413663651005
 30
0.0
  0
VERTEX
  5
272C9
  8
0
 10
296.36004163735811
 20
205.52427956679821
 30
0.0
  0
VERTEX
  5
272CA
  8
0
 10
296.49516771900539
 20
205.30362289255299
 30
0.0
  0
VERTEX
  5
272CB
  8
0
 10
296.56057847198468
 20
205.19200192571591
 30
0.0
  0
SEQEND
  5
272CC
  8
0
  0
LINE
  5
1ADEC
  8
0
 10
289.43124817218222
 20
212.8032138114049
 30
0.0
 11
294.97139224600568
 21
207.26306973758159
 31
0.0
  0
ARC
  5
1ADED
  8
0
 10
296.5023159840477
 20
219.87428162327069
 30
0.0
 40
9.9999999999999964
 50
180.0
 51
205.63336548632631
  0
POLYLINE
  5
1ADEE
  8
0
 66
     1
 10
0.0
 20
0.0
 30
0.0
  0
VERTEX
  5
272CD
  8
0
 10
287.48650844673818
 20
215.54817315835771
 30
0.0
  0
VERTEX
  5
272CE
  8
0
 10
287.52844209544389
 20
215.46184607910249
 30
0.0
  0
VERTEX
  5
272CF
  8
0
 10
287.61472609175041
 20
215.29053360376381
 30
0.0
  0
VERTEX
  5
272D0
  8
0
 10
287.70417793886207
 20
215.12109669757501
 30
0.0
  0
VERTEX
  5
272D1
  8
0
 10
287.75007017748828
 20
215.03711371822919
 30
0.0
  0
VERTEX
  5
272D2
  8
0
 10
287.79672778411748
 20
214.95363795671261
 30
0.0
  0
VERTEX
  5
272D3
  8
0
 10
287.89230070826972
 20
214.78825793566651
 30
0.0
  0
VERTEX
  5
272D4
  8
0
 10
287.99081691956519
 20
214.62505466348739
 30
0.0
  0
VERTEX
  5
272D5
  8
0
 10
288.09219199290862
 20
214.46412317331121
 30
0.0
  0
VERTEX
  5
272D6
  8
0
 10
288.1963371575244
 20
214.30555504232331
 30
0.0
  0
VERTEX
  5
272D7
  8
0
 10
288.3031600974756
 20
214.1494372806101
 30
0.0
  0
VERTEX
  5
272D8
  8
0
 10
288.35754649546919
 20
214.072322473301
 30
0.0
  0
VERTEX
  5
272D9
  8
0
 10
288.41256646509009
 20
213.9958504787792
 30
0.0
  0
VERTEX
  5
272DA
  8
0
 10
288.52445570985799
 20
213.8448748990977
 30
0.0
  0
VERTEX
  5
272DB
  8
0
 10
288.63872161876873
 20
213.6965892014714
 30
0.0
  0
VERTEX
  5
272DC
  8
0
 10
288.75525272193892
 20
213.5510695587509
 30
0.0
  0
VERTEX
  5
272DD
  8
0
 10
288.87393259348391
 20
213.40838904400701
 30
0.0
  0
VERTEX
  5
272DE
  8
0
 10
288.994640225718
 20
213.2686170308325
 30
0.0
  0
VERTEX
  5
272DF
  8
0
 10
289.05571549400742
 20
213.19984223544731
 30
0.0
  0
VERTEX
  5
272E0
  8
0
 10
289.11725048157842
 20
213.1318186071139
 30
0.0
  0
VERTEX
  5
272E1
  8
0
 10
289.2416346304131
 20
212.99805400334839
 30
0.0
  0
VERTEX
  5
272E2
  8
0
 10
289.36766097230651
 20
212.86737803727561
 30
0.0
  0
VERTEX
  5
272E3
  8
0
 10
289.43124817218222
 20
212.8032138114049
 30
0.0
  0
SEQEND
  5
272E4
  8
0
  0
LINE
  5
1ADEF
  8
0
 10
286.50231598404758
 20
266.45694165897572
 30
0.0
 11
286.50231598404758
 21
219.87428162327069
 31
0.0
  0
ARC
  5
1ADF0
  8
0
 10
266.50231598404758
 20
266.45694165897572
 30
0.0
 40
20.000000000000028
 50
0.0
 51
30.000000000000131
  0
LINE
  5
1ADF1
  8
0
 10
274.41966625323732
 20
292.7436887314197
 30
0.0
 11
283.82282405973649
 21
276.45694165897572
 31
0.0
  0
ARC
  5
1ADF2
  8
0
 10
272.6876154456682
 20
291.7436887314197
 30
0.0
 40
2.0000000000002811
 50
30.000000000000131
 51
63.133982235384103
  0
ARC
  5
1ADF3
  8
0
 10
365.11701652242698
 20
291.7436887314197
 30
0.0
 40
1.9999999999999969
 50
116.8660177646159
 51
149.9999999999998
  0
LINE
  5
1ADF4
  8
0
 10
268.90231598404768
 20
295.74368873141981
 30
0.0
 11
368.90231598404768
 21
295.74368873141981
 31
0.0
  0
ARC
  5
1AE49
  8
0
 10
318.90231598404768
 20
202.24368873141981
 30
0.0
 40
52.44013179854737
 50
128.15911132210559
 51
51.840888677894419
  0
ARC
  5
1AE4A
  8
0
 10
318.90231598404768
 20
202.24368873141981
 30
0.0
 40
56.070395395642208
 50
125.2991166985575
 51
54.700883301442467
  0
ARC
  5
1AE4B
  8
0
 10
318.90231598404739
 20
202.5608121312562
 30
0.0
 40
37.810238368129291
 50
148.97147248232781
 51
31.028527517671989
  0
ARC
  5
1AE4C
  8
0
 10
318.90231598404768
 20
202.24368873141981
 30
0.0
 40
49.999999999999957
 50
130.39097962027029
 51
49.609020379729706
  0
ARC
  5
1AE52
  8
0
 10
318.90231598404768
 20
202.24368873141981
 30
0.0
 40
62.5
 50
121.2249877309914
 51
58.77501226900857
  0
LINE
  5
21C75
  8
3
 10
567.50966464464113
 20
199.01068873141961
 30
0.0
 11
565.00966464464113
 21
199.01068873141961
 31
0.0
  0
LINE
  5
21C76
  8
3
 10
322.13531598404762
 20
469.77251748445991
 30
0.0
 11
322.13531598404762
 21
467.27251748445991
 31
0.0
  0
LINE
  5
21C77
  8
3
 10
315.66931598404761
 20
469.77251748445991
 30
0.0
 11
315.66931598404761
 21
467.27251748445991
 31
0.0
  0
ARC
  5
21C7E
  8
0
 10
318.90231598404768
 20
202.24368873141981
 30
0.0
 40
31.210913055372199
 50
160.36956743067549
 51
19.63043256932465
  0
LINE
  5
222DB
  8
1
 10
318.90231598404762
 20
390.90689540802492
 30
0.0
 11
318.90231598404762
 21
478.63813956089501
 31
0.0
  0
LINE
  5
222DC
  8
1
 10
244.24565921511109
 20
434.77251748445991
 30
0.0
 11
393.55897275298412
 21
434.77251748445991
 31
0.0
  0
LINE
  5
222DF
  8
1
 10
240.44286060987511
 20
202.24368873141981
 30
0.0
 11
397.36177135822129
 21
202.24368873141981
 31
0.0
  0
LINE
  5
222E0
  8
1
 10
318.90231598404819
 20
123.78423335724619
 30
0.0
 11
318.90231598404819
 21
311.7031441055924
 31
0.0
  0
LINE
  5
22320
  8
1
 10
489.22526661583322
 20
202.24368873141981
 30
0.0
 11
575.79406267344984
 21
202.24368873141981
 31
0.0
  0
LINE
  5
22321
  8
1
 10
532.50966464464148
 20
123.78423335724619
 30
0.0
 11
532.50966464464148
 21
311.7031441055924
 31
0.0
  0
LINE
  5
22323
  8
0
 10
72.794967323455239
 20
198.2436887314197
 30
0.0
 11
71.061967323455292
 21
198.2436887314197
 31
0.0
  0
LINE
  5
22324
  8
0
 10
71.061967323455292
 20
198.2436887314197
 30
0.0
 11
70.294967323455239
 21
199.01068873141961
 31
0.0
  0
LINE
  5
22325
  8
0
 10
135.59496732345519
 20
195.98535539808651
 30
0.0
 11
135.3355476140396
 21
195.01718786206311
 31
0.0
  0
LINE
  5
22326
  8
0
 10
75.294967323455239
 20
196.42868873141919
 30
0.0
 11
72.794967323455239
 21
196.42868873141919
 31
0.0
  0
LINE
  5
22327
  8
0
 10
75.55438703287075
 20
195.01718786206311
 30
0.0
 11
75.294967323455239
 21
195.98535539808651
 31
0.0
  0
LINE
  5
22328
  8
0
 10
82.794967323455239
 20
209.74368873141981
 30
0.0
 11
86.544967323455239
 21
209.74368873141981
 31
0.0
  0
LINE
  5
22329
  8
0
 10
124.0449673234552
 20
209.74368873141981
 30
0.0
 11
127.7949673234552
 21
209.74368873141981
 31
0.0
  0
LINE
  5
2232A
  8
0
 10
127.7949673234552
 20
194.7436887314197
 30
0.0
 11
124.0449673234552
 21
194.7436887314197
 31
0.0
  0
LINE
  5
2232B
  8
0
 10
86.544967323455239
 20
194.7436887314197
 30
0.0
 11
82.794967323455239
 21
194.7436887314197
 31
0.0
  0
LINE
  5
2232C
  8
0
 10
71.061967323455292
 20
198.2436887314197
 30
0.0
 11
71.061967323455292
 21
202.6417906240967
 31
0.0
  0
LINE
  5
2232D
  8
0
 10
70.294967323455239
 20
199.01068873141961
 30
0.0
 11
70.294967323455239
 21
203.40973628428219
 31
0.0
  0
LINE
  5
2232E
  8
0
 10
135.59496732345519
 20
195.98535539808651
 30
0.0
 11
135.59496732345519
 21
198.3598123369311
 31
0.0
  0
LINE
  5
2232F
  8
0
 10
135.3355476140396
 20
195.01718786206311
 30
0.0
 11
133.55757414474061
 21
195.01718786206311
 31
0.0
  0
POLYLINE
  5
22330
  8
0
 66
     1
 10
0.0
 20
0.0
 30
0.0
  0
VERTEX
  5
272E5
  8
0
 10
135.3355476140396
 20
195.01718786206311
 30
0.0
  0
VERTEX
  5
272E6
  8
0
 10
135.41639226729779
 20
195.34176175773521
 30
0.0
  0
VERTEX
  5
272E7
  8
0
 10
135.53100260605089
 20
195.95132233650651
 30
0.0
  0
VERTEX
  5
272E8
  8
0
 10
135.58777718983529
 20
196.5337305080829
 30
0.0
  0
VERTEX
  5
272E9
  8
0
 10
135.59496732345519
 20
196.82381307940159
 30
0.0
  0
SEQEND
  5
272EA
  8
0
  0
POLYLINE
  5
22331
  8
0
 66
     1
 10
0.0
 20
0.0
 30
0.0
  0
VERTEX
  5
272EB
  8
0
 10
135.59496732345519
 20
196.82381307940159
 30
0.0
  0
VERTEX
  5
272EC
  8
0
 10
135.59092690907261
 20
197.0411645179702
 30
0.0
  0
VERTEX
  5
272ED
  8
0
 10
135.55903190560261
 20
197.47508712371109
 30
0.0
  0
VERTEX
  5
272EE
  8
0
 10
135.4953937824298
 20
197.918054722043
 30
0.0
  0
VERTEX
  5
272EF
  8
0
 10
135.45125947230881
 20
198.1467497541698
 30
0.0
  0
SEQEND
  5
272F0
  8
0
  0
LINE
  5
22332
  8
0
 10
72.794967323455239
 20
196.42868873141919
 30
0.0
 11
72.794967323455239
 21
200.90720795705599
 31
0.0
  0
LINE
  5
22333
  8
0
 10
75.294967323455239
 20
195.98535539808651
 30
0.0
 11
75.294967323455239
 21
197.9212206778102
 31
0.0
  0
LINE
  5
22334
  8
0
 10
77.032360433999202
 20
195.01718786206311
 30
0.0
 11
75.55438703287075
 21
195.01718786206311
 31
0.0
  0
POLYLINE
  5
22335
  8
0
 66
     1
 10
0.0
 20
0.0
 30
0.0
  0
VERTEX
  5
272F1
  8
0
 10
75.37481522801852
 20
197.80089085808959
 30
0.0
  0
VERTEX
  5
272F2
  8
0
 10
75.35045843336195
 20
197.63545273436279
 30
0.0
  0
VERTEX
  5
272F3
  8
0
 10
75.315051806135884
 20
197.3095654836188
 30
0.0
  0
VERTEX
  5
272F4
  8
0
 10
75.29722281086606
 20
196.98616383337961
 30
0.0
  0
VERTEX
  5
272F5
  8
0
 10
75.294967323455239
 20
196.82381307940159
 30
0.0
  0
SEQEND
  5
272F6
  8
0
  0
POLYLINE
  5
22336
  8
0
 66
     1
 10
0.0
 20
0.0
 30
0.0
  0
VERTEX
  5
272F7
  8
0
 10
75.294967323455239
 20
196.82381307940159
 30
0.0
  0
VERTEX
  5
272F8
  8
0
 10
75.302157457075168
 20
196.5337305080829
 30
0.0
  0
VERTEX
  5
272F9
  8
0
 10
75.3589320408596
 20
195.95132233650651
 30
0.0
  0
VERTEX
  5
272FA
  8
0
 10
75.473542379612581
 20
195.34176175773521
 30
0.0
  0
VERTEX
  5
272FB
  8
0
 10
75.55438703287075
 20
195.01718786206311
 30
0.0
  0
SEQEND
  5
272FC
  8
0
  0
LINE
  5
22337
  8
0
 10
145.79496732345521
 20
293.74368873141981
 30
0.0
 11
64.794967323455225
 21
293.74368873141981
 31
0.0
  0
LINE
  5
22338
  8
0
 10
64.794967323455225
 20
293.74368873141981
 30
0.0
 11
64.794967323455225
 21
215.54817315835771
 31
0.0
  0
LINE
  5
22339
  8
0
 10
82.794967323455239
 20
293.74368873141981
 30
0.0
 11
82.794967323455239
 21
190.7436887314197
 31
0.0
  0
LINE
  5
2233A
  8
0
 10
127.7949673234552
 20
293.74368873141981
 30
0.0
 11
127.7949673234552
 21
190.7436887314197
 31
0.0
  0
LINE
  5
2233B
  8
0
 10
145.79496732345521
 20
293.74368873141981
 30
0.0
 11
145.79496732345521
 21
215.54817315835771
 31
0.0
  0
POLYLINE
  5
2233C
  8
0
 66
     1
 10
0.0
 20
0.0
 30
0.0
  0
VERTEX
  5
272FD
  8
0
 10
145.79496732345521
 20
215.54817315835771
 30
0.0
  0
VERTEX
  5
272FE
  8
0
 10
145.79485606969499
 20
215.46132351251799
 30
0.0
  0
VERTEX
  5
272FF
  8
0
 10
145.79392769631511
 20
215.2890774404741
 30
0.0
  0
VERTEX
  5
27300
  8
0
 10
145.79197259946719
 20
215.1188645024003
 30
0.0
  0
VERTEX
  5
27301
  8
0
 10
145.7905778526372
 20
215.0345557103519
 30
0.0
  0
VERTEX
  5
27302
  8
0
 10
145.78888781108211
 20
214.95079715113931
 30
0.0
  0
VERTEX
  5
27303
  8
0
 10
145.78457050882929
 20
214.78498484175091
 30
0.0
  0
VERTEX
  5
27304
  8
0
 10
145.7789185324504
 20
214.62153344949459
 30
0.0
  0
VERTEX
  5
27305
  8
0
 10
145.77183081121331
 20
214.4605432135622
 30
0.0
  0
VERTEX
  5
27306
  8
0
 10
145.76320777642189
 20
214.302108470918
 30
0.0
  0
VERTEX
  5
27307
  8
0
 10
145.75295212800981
 20
214.14632282291859
 30
0.0
  0
VERTEX
  5
27308
  8
0
 10
145.74718243090251
 20
214.06945207686479
 30
0.0
  0
VERTEX
  5
27309
  8
0
 10
145.74096941766061
 20
213.9932776610967
 30
0.0
  0
VERTEX
  5
2730A
  8
0
 10
145.7271686407303
 20
213.84306139832461
 30
0.0
  0
VERTEX
  5
2730B
  8
0
 10
145.71146280718139
 20
213.6957587243642
 30
0.0
  0
VERTEX
  5
2730C
  8
0
 10
145.6937694789161
 20
213.55144986686079
 30
0.0
  0
VERTEX
  5
2730D
  8
0
 10
145.67401125985509
 20
213.41020985698739
 30
0.0
  0
VERTEX
  5
2730E
  8
0
 10
145.65211622324051
 20
213.2721078000514
 30
0.0
  0
VERTEX
  5
2730F
  8
0
 10
145.64034650411389
 20
213.2042533009317
 30
0.0
  0
VERTEX
  5
27310
  8
0
 10
145.62800448658109
 20
213.13713337221819
 30
0.0
  0
VERTEX
  5
27311
  8
0
 10
145.60115408866429
 20
213.0031843877841
 30
0.0
  0
VERTEX
  5
27312
  8
0
 10
145.5711929393274
 20
212.8696588227476
 30
0.0
  0
VERTEX
  5
27313
  8
0
 10
145.55499228477331
 20
212.8032138114049
 30
0.0
  0
SEQEND
  5
27314
  8
0
  0
POLYLINE
  5
2233D
  8
0
 66
     1
 10
0.0
 20
0.0
 30
0.0
  0
VERTEX
  5
27315
  8
0
 10
147.60404410979339
 20
212.8032138114049
 30
0.0
  0
VERTEX
  5
27316
  8
0
 10
147.61643692711169
 20
212.86737803727561
 30
0.0
  0
VERTEX
  5
27317
  8
0
 10
147.6397391379453
 20
212.99805400334839
 30
0.0
  0
VERTEX
  5
27318
  8
0
 10
147.66110539342989
 20
213.1318186071139
 30
0.0
  0
VERTEX
  5
27319
  8
0
 10
147.6710793743992
 20
213.19984223544731
 30
0.0
  0
VERTEX
  5
2731A
  8
0
 10
147.6805901433504
 20
213.2686170308325
 30
0.0
  0
VERTEX
  5
2731B
  8
0
 10
147.698252345963
 20
213.40838904400701
 30
0.0
  0
VERTEX
  5
2731C
  8
0
 10
147.71415519163
 20
213.5510695587509
 30
0.0
  0
VERTEX
  5
2731D
  8
0
 10
147.72836577545539
 20
213.6965892014714
 30
0.0
  0
VERTEX
  5
2731E
  8
0
 10
147.74095472938851
 20
213.84487489909679
 30
0.0
  0
VERTEX
  5
2731F
  8
0
 10
147.75199582329631
 20
213.9958504787792
 30
0.0
  0
VERTEX
  5
27320
  8
0
 10
147.75695973048221
 20
214.072322473301
 30
0.0
  0
VERTEX
  5
27321
  8
0
 10
147.76156554357769
 20
214.1494372806101
 30
0.0
  0
VERTEX
  5
27322
  8
0
 10
147.76974266936369
 20
214.30555504232331
 30
0.0
  0
VERTEX
  5
27323
  8
0
 10
147.7766078420222
 20
214.46412317331121
 30
0.0
  0
VERTEX
  5
27324
  8
0
 10
147.7822428760889
 20
214.62505466348739
 30
0.0
  0
VERTEX
  5
27325
  8
0
 10
147.78673056326841
 20
214.78825793566651
 30
0.0
  0
VERTEX
  5
27326
  8
0
 10
147.79015436336181
 20
214.95363795671261
 30
0.0
  0
VERTEX
  5
27327
  8
0
 10
147.7914934807803
 20
215.03711371822919
 30
0.0
  0
VERTEX
  5
27328
  8
0
 10
147.79259804239049
 20
215.12109669757501
 30
0.0
  0
VERTEX
  5
27329
  8
0
 10
147.79414530144459
 20
215.29053360376381
 30
0.0
  0
VERTEX
  5
2732A
  8
0
 10
147.79487940152401
 20
215.46184607910249
 30
0.0
  0
VERTEX
  5
2732B
  8
0
 10
147.79496732345521
 20
215.54817315835771
 30
0.0
  0
SEQEND
  5
2732C
  8
0
  0
LINE
  5
2233E
  8
0
 10
147.79496732345521
 20
215.54817315835771
 30
0.0
 11
147.79496732345521
 21
295.74368873141981
 31
0.0
  0
POLYLINE
  5
2233F
  8
0
 66
     1
 10
0.0
 20
0.0
 30
0.0
  0
VERTEX
  5
2732D
  8
0
 10
145.55499228477331
 20
212.8032138114049
 30
0.0
  0
VERTEX
  5
2732E
  8
0
 10
145.50976670523289
 20
212.6309106702729
 30
0.0
  0
VERTEX
  5
2732F
  8
0
 10
145.4078639616186
 20
212.28953844239459
 30
0.0
  0
VERTEX
  5
27330
  8
0
 10
145.2908639914308
 20
211.9530415269582
 30
0.0
  0
VERTEX
  5
27331
  8
0
 10
145.2267738965536
 20
211.7868302601091
 30
0.0
  0
VERTEX
  5
27332
  8
0
 10
145.1589988187128
 20
211.6220872350286
 30
0.0
  0
VERTEX
  5
27333
  8
0
 10
145.01252994686911
 20
211.29733188603041
 30
0.0
  0
VERTEX
  5
27334
  8
0
 10
144.85174784007509
 20
210.9794195061877
 30
0.0
  0
VERTEX
  5
27335
  8
0
 10
144.6769713472541
 20
210.66898055135249
 30
0.0
  0
VERTEX
  5
27336
  8
0
 10
144.4885470697638
 20
210.36663065673559
 30
0.0
  0
VERTEX
  5
27337
  8
0
 10
144.28684867404749
 20
210.07296941603821
 30
0.0
  0
VERTEX
  5
27338
  8
0
 10
144.18114567194371
 20
209.92957973427841
 30
0.0
  0
VERTEX
  5
27339
  8
0
 10
144.0722761506112
 20
209.7885791923872
 30
0.0
  0
VERTEX
  5
2733A
  8
0
 10
143.84525502079819
 20
209.5140239634429
 30
0.0
  0
VERTEX
  5
2733B
  8
0
 10
143.60623549293209
 20
209.2498482029705
 30
0.0
  0
VERTEX
  5
2733C
  8
0
 10
143.35569156950359
 20
208.9965758010876
 30
0.0
  0
VERTEX
  5
2733D
  8
0
 10
143.09412010717031
 20
208.7547090253311
 30
0.0
  0
VERTEX
  5
2733E
  8
0
 10
142.82203983143449
 20
208.5247275246011
 30
0.0
  0
VERTEX
  5
2733F
  8
0
 10
142.6822267177246
 20
208.41433722283639
 30
0.0
  0
VERTEX
  5
27340
  8
0
 10
142.53999030795211
 20
208.30708737796979
 30
0.0
  0
VERTEX
  5
27341
  8
0
 10
142.24853087251401
 20
208.10222019022061
 30
0.0
  0
VERTEX
  5
27342
  8
0
 10
141.94823952182011
 20
207.91053223592829
 30
0.0
  0
VERTEX
  5
27343
  8
0
 10
141.79496732345521
 20
207.81975030657401
 30
0.0
  0
SEQEND
  5
27344
  8
0
  0
LINE
  5
22340
  8
0
 10
141.79496732345521
 20
207.81975030657401
 30
0.0
 11
140.83076829437459
 21
207.26306973758159
 31
0.0
  0
POLYLINE
  5
22341
  8
0
 66
     1
 10
0.0
 20
0.0
 30
0.0
  0
VERTEX
  5
27345
  8
0
 10
144.4264463825688
 20
207.26306973758159
 30
0.0
  0
VERTEX
  5
27346
  8
0
 10
144.5605138336133
 20
207.3840292828327
 30
0.0
  0
VERTEX
  5
27347
  8
0
 10
144.82198796307429
 20
207.6331112385005
 30
0.0
  0
VERTEX
  5
27348
  8
0
 10
145.0742981169019
 20
207.8914716985027
 30
0.0
  0
VERTEX
  5
27349
  8
0
 10
145.1969133995841
 20
208.02402653798339
 30
0.0
  0
VERTEX
  5
2734A
  8
0
 10
145.31711525605931
 20
208.158773733564
 30
0.0
  0
VERTEX
  5
2734B
  8
0
 10
145.55012272140169
 20
208.43466875365539
 30
0.0
  0
VERTEX
  5
2734C
  8
0
 10
145.77301664663301
 20
208.71879696258929
 30
0.0
  0
VERTEX
  5
2734D
  8
0
 10
145.98550635457929
 20
209.01078782723019
 30
0.0
  0
VERTEX
  5
2734E
  8
0
 10
146.187314736263
 20
209.31026056071099
 30
0.0
  0
VERTEX
  5
2734F
  8
0
 10
146.3781786122816
 20
209.6168246190218
 30
0.0
  0
VERTEX
  5
27350
  8
0
 10
146.46942801081411
 20
209.7726413071023
 30
0.0
  0
VERTEX
  5
27351
  8
0
 10
146.55784907602191
 20
209.9300802103144
 30
0.0
  0
VERTEX
  5
27352
  8
0
 10
146.72609181825999
 20
210.24961881627769
 30
0.0
  0
VERTEX
  5
27353
  8
0
 10
146.8826874327255
 20
210.57502372488671
 30
0.0
  0
VERTEX
  5
27354
  8
0
 10
147.0274317022305
 20
210.90587057383979
 30
0.0
  0
VERTEX
  5
27355
  8
0
 10
147.16013586498991
 20
211.241727903971
 30
0.0
  0
VERTEX
  5
27356
  8
0
 10
147.28062686078709
 20
211.5821577219194
 30
0.0
  0
VERTEX
  5
27357
  8
0
 10
147.33624268912021
 20
211.75394879460961
 30
0.0
  0
VERTEX
  5
27358
  8
0
 10
147.38874755666279
 20
211.926716071318
 30
0.0
  0
VERTEX
  5
27359
  8
0
 10
147.4843569518323
 20
212.274953611759
 30
0.0
  0
VERTEX
  5
2735A
  8
0
 10
147.56733036156629
 20
212.62641620478101
 30
0.0
  0
VERTEX
  5
2735B
  8
0
 10
147.60404410979339
 20
212.8032138114049
 30
0.0
  0
SEQEND
  5
2735C
  8
0
  0
POLYLINE
  5
22342
  8
0
 66
     1
 10
0.0
 20
0.0
 30
0.0
  0
VERTEX
  5
2735D
  8
0
 10
140.83076829437459
 20
207.26306973758159
 30
0.0
  0
VERTEX
  5
2735E
  8
0
 10
140.74202697053019
 20
207.2114609588198
 30
0.0
  0
VERTEX
  5
2735F
  8
0
 10
140.566506169848
 20
207.10713248353841
 30
0.0
  0
VERTEX
  5
27360
  8
0
 10
140.39363204825369
 20
207.0013412081916
 30
0.0
  0
VERTEX
  5
27361
  8
0
 10
140.30819894204839
 20
206.9479040018723
 30
0.0
  0
VERTEX
  5
27362
  8
0
 10
140.22344117487279
 20
206.8941095114578
 30
0.0
  0
VERTEX
  5
27363
  8
0
 10
140.0559695512265
 20
206.78546007671679
 30
0.0
  0
VERTEX
  5
27364
  8
0
 10
139.89125260361689
 20
206.67541588725089
 30
0.0
  0
VERTEX
  5
27365
  8
0
 10
139.72932517563191
 20
206.56400022138399
 30
0.0
  0
VERTEX
  5
27366
  8
0
 10
139.57022152077579
 20
206.4512366475565
 30
0.0
  0
VERTEX
  5
27367
  8
0
 10
139.41397529522251
 20
206.33714901934039
 30
0.0
  0
VERTEX
  5
27368
  8
0
 10
139.33693407090149
 20
206.27961621580289
 30
0.0
  0
VERTEX
  5
27369
  8
0
 10
139.26061955069611
 20
206.2217614703932
 30
0.0
  0
VERTEX
  5
2736A
  8
0
 10
139.11018672747991
 20
206.1050984093518
 30
0.0
  0
VERTEX
  5
2736B
  8
0
 10
138.96270864755351
 20
205.98718451467079
 30
0.0
  0
VERTEX
  5
2736C
  8
0
 10
138.81821650786159
 20
205.8680447294
 30
0.0
  0
VERTEX
  5
2736D
  8
0
 10
138.67674087371441
 20
205.7477042559122
 30
0.0
  0
VERTEX
  5
2736E
  8
0
 10
138.53831167232241
 20
205.6261885505655
 30
0.0
  0
VERTEX
  5
2736F
  8
0
 10
138.47024866012151
 20
205.56499800918391
 30
0.0
  0
VERTEX
  5
27370
  8
0
 10
138.40295818646521
 20
205.50352331832531
 30
0.0
  0
VERTEX
  5
27371
  8
0
 10
138.2707090482975
 20
205.3797345073217
 30
0.0
  0
VERTEX
  5
27372
  8
0
 10
138.14159223329241
 20
205.2548483033616
 30
0.0
  0
VERTEX
  5
27373
  8
0
 10
138.07821700829049
 20
205.19200192571591
 30
0.0
  0
SEQEND
  5
27374
  8
0
  0
POLYLINE
  5
22343
  8
0
 66
     1
 10
0.0
 20
0.0
 30
0.0
  0
VERTEX
  5
27375
  8
0
 10
142.07821700829049
 20
205.19200192571591
 30
0.0
  0
VERTEX
  5
27376
  8
0
 10
142.19151175581189
 20
205.30362289255299
 30
0.0
  0
VERTEX
  5
27377
  8
0
 10
142.42555699465271
 20
205.52427956679821
 30
0.0
  0
VERTEX
  5
27378
  8
0
 10
142.6694119587149
 20
205.7413663651005
 30
0.0
  0
VERTEX
  5
27379
  8
0
 10
142.79496732345521
 20
205.8485255471833
 30
0.0
  0
SEQEND
  5
2737A
  8
0
  0
LINE
  5
22344
  8
0
 10
142.79496732345521
 20
205.8485255471833
 30
0.0
 11
144.4264463825688
 21
207.26306973758159
 31
0.0
  0
LINE
  5
22345
  8
0
 10
138.07821700829049
 20
205.19200192571591
 30
0.0
 11
136.54496732345521
 21
203.65875224088089
 31
0.0
  0
POLYLINE
  5
22346
  8
0
 66
     1
 10
0.0
 20
0.0
 30
0.0
  0
VERTEX
  5
2737B
  8
0
 10
136.54496732345521
 20
203.65875224088089
 30
0.0
  0
VERTEX
  5
2737C
  8
0
 10
136.3781367039941
 20
203.4897874026901
 30
0.0
  0
VERTEX
  5
2737D
  8
0
 10
136.0477580440959
 20
203.1423365545979
 30
0.0
  0
VERTEX
  5
2737E
  8
0
 10
135.7218902334611
 20
202.78233269550131
 30
0.0
  0
VERTEX
  5
2737F
  8
0
 10
135.56069765984091
 20
202.5976780287765
 30
0.0
  0
VERTEX
  5
27380
  8
0
 10
135.4006922325427
 20
202.4099514376403
 30
0.0
  0
VERTEX
  5
27381
  8
0
 10
135.08432072382939
 20
202.02537443103211
 30
0.0
  0
VERTEX
  5
27382
  8
0
 10
134.77293003541581
 20
201.62878927486051
 30
0.0
  0
VERTEX
  5
27383
  8
0
 10
134.46667206571959
 20
201.220389425961
 30
0.0
  0
VERTEX
  5
27384
  8
0
 10
134.16569620938441
 20
200.80037410445669
 30
0.0
  0
VERTEX
  5
27385
  8
0
 10
133.87014928440499
 20
200.368948196573
 30
0.0
  0
VERTEX
  5
27386
  8
0
 10
133.7244568295929
 20
200.14902182446889
 30
0.0
  0
VERTEX
  5
27387
  8
0
 10
133.58017546050709
 20
199.92632215469251
 30
0.0
  0
VERTEX
  5
27388
  8
0
 10
133.29591618882171
 20
199.4727118947003
 30
0.0
  0
VERTEX
  5
27389
  8
0
 10
133.01751013288381
 20
199.00833869064991
 30
0.0
  0
VERTEX
  5
2738A
  8
0
 10
132.74509310099111
 20
198.53342906683429
 30
0.0
  0
VERTEX
  5
2738B
  8
0
 10
132.4787979799564
 20
198.04821468727911
 30
0.0
  0
VERTEX
  5
2738C
  8
0
 10
132.2187546702842
 20
197.5529322427364
 30
0.0
  0
VERTEX
  5
2738D
  8
0
 10
132.0911172064236
 20
197.30159080808599
 30
0.0
  0
VERTEX
  5
2738E
  8
0
 10
131.96509002280439
 20
197.04782333522689
 30
0.0
  0
VERTEX
  5
2738F
  8
0
 10
131.71792777679391
 20
196.53313436018561
 30
0.0
  0
VERTEX
  5
27390
  8
0
 10
131.4773884996153
 20
196.0091163862653
 30
0.0
  0
VERTEX
  5
27391
  8
0
 10
131.3596392698127
 20
195.7436887314197
 30
0.0
  0
SEQEND
  5
27392
  8
0
  0
POLYLINE
  5
22347
  8
0
 66
     1
 10
0.0
 20
0.0
 30
0.0
  0
VERTEX
  5
27393
  8
0
 10
133.9727163121662
 20
195.7436887314197
 30
0.0
  0
VERTEX
  5
27394
  8
0
 10
134.0599602403764
 20
195.90399075054839
 30
0.0
  0
VERTEX
  5
27395
  8
0
 10
134.23671167767699
 20
196.2208479831915
 30
0.0
  0
VERTEX
  5
27396
  8
0
 10
134.4164414674994
 20
196.53263849874929
 30
0.0
  0
VERTEX
  5
27397
  8
0
 10
134.50740814835061
 20
196.6866074413656
 30
0.0
  0
VERTEX
  5
27398
  8
0
 10
134.5991012026906
 20
196.83927832176769
 30
0.0
  0
VERTEX
  5
27399
  8
0
 10
134.78464168696669
 20
197.14068486404079
 30
0.0
  0
VERTEX
  5
2739A
  8
0
 10
134.9730129481635
 20
197.43677694685721
 30
0.0
  0
VERTEX
  5
2739B
  8
0
 10
135.16416425169501
 20
197.72747482286559
 30
0.0
  0
VERTEX
  5
2739C
  8
0
 10
135.35804411421839
 20
198.01270019755151
 30
0.0
  0
VERTEX
  5
2739D
  8
0
 10
135.5546003174999
 20
198.29237625032599
 30
0.0
  0
VERTEX
  5
2739E
  8
0
 10
135.6538655312373
 20
198.43010968268931
 30
0.0
  0
VERTEX
  5
2739F
  8
0
 10
135.7537799224792
 20
198.5664276552161
 30
0.0
  0
VERTEX
  5
273A0
  8
0
 10
135.95552928352731
 20
198.8347806011497
 30
0.0
  0
VERTEX
  5
273A1
  8
0
 10
136.15979406289529
 20
199.09736281183811
 30
0.0
  0
VERTEX
  5
273A2
  8
0
 10
136.36651924534951
 20
199.35410356524329
 30
0.0
  0
VERTEX
  5
273A3
  8
0
 10
136.57564915298821
 20
199.6049337126224
 30
0.0
  0
VERTEX
  5
273A4
  8
0
 10
136.78712746023839
 20
199.8497856971544
 30
0.0
  0
VERTEX
  5
273A5
  8
0
 10
136.8937294886081
 20
199.96994920662291
 30
0.0
  0
VERTEX
  5
273A6
  8
0
 10
137.00089720902531
 20
200.08859357213259
 30
0.0
  0
VERTEX
  5
273A7
  8
0
 10
137.21690082411379
 20
200.32129301873101
 30
0.0
  0
VERTEX
  5
273A8
  8
0
 10
137.4350801286148
 20
200.54782136332321
 30
0.0
  0
VERTEX
  5
273A9
  8
0
 10
137.54496732345521
 20
200.65875224088089
 30
0.0
  0
SEQEND
  5
273AA
  8
0
  0
LINE
  5
22348
  8
0
 10
137.54496732345521
 20
200.65875224088089
 30
0.0
 11
142.07821700829049
 21
205.19200192571591
 31
0.0
  0
POLYLINE
  5
22349
  8
0
 66
     1
 10
0.0
 20
0.0
 30
0.0
  0
VERTEX
  5
273AB
  8
0
 10
131.3596392698127
 20
195.7436887314197
 30
0.0
  0
VERTEX
  5
273AC
  8
0
 10
131.24762982372829
 20
195.49390983612739
 30
0.0
  0
VERTEX
  5
273AD
  8
0
 10
131.0175126826262
 20
195.01157288388731
 30
0.0
  0
VERTEX
  5
273AE
  8
0
 10
130.7824647086978
 20
194.55380866159339
 30
0.0
  0
VERTEX
  5
273AF
  8
0
 10
130.66425962320861
 20
194.3347086813896
 30
0.0
  0
VERTEX
  5
273B0
  8
0
 10
130.5462031198015
 20
194.12241473253471
 30
0.0
  0
VERTEX
  5
273B1
  8
0
 10
130.31225842394591
 20
193.71901910649461
 30
0.0
  0
VERTEX
  5
273B2
  8
0
 10
130.07983095670801
 20
193.3385040392904
 30
0.0
  0
VERTEX
  5
273B3
  8
0
 10
129.84569830876629
 20
192.9734215268299
 30
0.0
  0
VERTEX
  5
273B4
  8
0
 10
129.6129423034574
 20
192.62718260337709
 30
0.0
  0
VERTEX
  5
273B5
  8
0
 10
129.38464643992799
 20
192.30300155498199
 30
0.0
  0
VERTEX
  5
273B6
  8
0
 10
129.2730955245201
 20
192.15009588205291
 30
0.0
  0
VERTEX
  5
273B7
  8
0
 10
129.16375055590979
 20
192.00376599820629
 30
0.0
  0
VERTEX
  5
273B8
  8
0
 10
128.9530334766572
 20
191.7320861582821
 30
0.0
  0
VERTEX
  5
273B9
  8
0
 10
128.75504499066929
 20
191.49025481269291
 30
0.0
  0
VERTEX
  5
273BA
  8
0
 10
128.5719356089358
 20
191.28008931079779
 30
0.0
  0
VERTEX
  5
273BB
  8
0
 10
128.40565821387139
 20
191.10320947355649
 30
0.0
  0
VERTEX
  5
273BC
  8
0
 10
128.25789721482539
 20
190.96093646929421
 30
0.0
  0
VERTEX
  5
273BD
  8
0
 10
128.1913765861552
 20
190.90306659553241
 30
0.0
  0
VERTEX
  5
273BE
  8
0
 10
128.129930639495
 20
190.85413574496349
 30
0.0
  0
VERTEX
  5
273BF
  8
0
 10
128.0226178664083
 20
190.7832030859413
 30
0.0
  0
VERTEX
  5
273C0
  8
0
 10
127.93639940531099
 20
190.7480397727081
 30
0.0
  0
VERTEX
  5
273C1
  8
0
 10
127.90121175233079
 20
190.7436887314197
 30
0.0
  0
SEQEND
  5
273C2
  8
0
  0
POLYLINE
  5
2234A
  8
0
 66
     1
 10
0.0
 20
0.0
 30
0.0
  0
VERTEX
  5
273C3
  8
0
 10
129.91502152159941
 20
190.7436887314197
 30
0.0
  0
VERTEX
  5
273C4
  8
0
 10
129.9213611698417
 20
190.74381363610379
 30
0.0
  0
VERTEX
  5
273C5
  8
0
 10
129.93455056306479
 20
190.74481452440429
 30
0.0
  0
VERTEX
  5
273C6
  8
0
 10
129.94842165058279
 20
190.74682028947919
 30
0.0
  0
VERTEX
  5
273C7
  8
0
 10
129.95561331923949
 20
190.74820118539259
 30
0.0
  0
VERTEX
  5
273C8
  8
0
 10
129.96297594668761
 20
190.7498346655575
 30
0.0
  0
VERTEX
  5
273C9
  8
0
 10
129.978214547302
 20
190.75386093375661
 30
0.0
  0
VERTEX
  5
273CA
  8
0
 10
129.99413812868841
 20
190.7589019176894
 30
0.0
  0
VERTEX
  5
273CB
  8
0
 10
130.01074694749479
 20
190.76495998099011
 30
0.0
  0
VERTEX
  5
273CC
  8
0
 10
130.0280408421167
 20
190.77203702670931
 30
0.0
  0
VERTEX
  5
273CD
  8
0
 10
130.04601923535381
 20
190.7801344985464
 30
0.0
  0
VERTEX
  5
273CE
  8
0
 10
130.05526482587911
 20
190.7845662205186
 30
0.0
  0
VERTEX
  5
273CF
  8
0
 10
130.06468113833651
 20
190.78925338386941
 30
0.0
  0
VERTEX
  5
273D0
  8
0
 10
130.08402515569551
 20
190.79939421848621
 30
0.0
  0
VERTEX
  5
273D1
  8
0
 10
130.10404949194461
 20
190.8105570931161
 30
0.0
  0
VERTEX
  5
273D2
  8
0
 10
130.12475195904551
 20
190.82274166152129
 30
0.0
  0
VERTEX
  5
273D3
  8
0
 10
130.14612998512041
 20
190.83594715025259
 30
0.0
  0
VERTEX
  5
273D4
  8
0
 10
130.16818062427811
 20
190.85017236995819
 30
0.0
  0
VERTEX
  5
273D5
  8
0
 10
130.17945715356379
 20
190.85766689665701
 30
0.0
  0
VERTEX
  5
273D6
  8
0
 10
130.19090056751449
 20
190.86541572821261
 30
0.0
  0
VERTEX
  5
273D7
  8
0
 10
130.21428615464961
 20
190.881675243822
 30
0.0
  0
VERTEX
  5
273D8
  8
0
 10
130.23833338725879
 20
190.8989485625489
 30
0.0
  0
VERTEX
  5
273D9
  8
0
 10
130.25060378201829
 20
190.90796456456059
 30
0.0
  0
VERTEX
  5
273DA
  8
0
 10
130.32764398860201
 20
190.96734674981369
 30
0.0
  0
VERTEX
  5
273DB
  8
0
 10
130.49882337636021
 20
191.1129516276273
 30
0.0
  0
VERTEX
  5
273DC
  8
0
 10
130.691535696617
 20
191.29335638401921
 30
0.0
  0
VERTEX
  5
273DD
  8
0
 10
130.9038766870145
 20
191.50698257232759
 30
0.0
  0
VERTEX
  5
273DE
  8
0
 10
131.13366484680731
 20
191.75197332819971
 30
0.0
  0
VERTEX
  5
273DF
  8
0
 10
131.3785047133278
 20
192.02628412269181
 30
0.0
  0
VERTEX
  5
273E0
  8
0
 10
131.50569081455421
 20
192.17366363339119
 30
0.0
  0
VERTEX
  5
273E1
  8
0
 10
131.63555008773139
 20
192.3274085168737
 30
0.0
  0
VERTEX
  5
273E2
  8
0
 10
131.9016958746825
 20
192.6525466788575
 30
0.0
  0
VERTEX
  5
273E3
  8
0
 10
132.17364285188651
 20
192.9986447265228
 30
0.0
  0
VERTEX
  5
273E4
  8
0
 10
132.44790700527099
 20
193.3623495545225
 30
0.0
  0
VERTEX
  5
273E5
  8
0
 10
132.72108665257829
 20
193.7402953783367
 30
0.0
  0
VERTEX
  5
273E6
  8
0
 10
132.99776066079119
 20
194.1407532106891
 30
0.0
  0
VERTEX
  5
273E7
  8
0
 10
133.137902184469
 20
194.35115971730599
 30
0.0
  0
VERTEX
  5
273E8
  8
0
 10
133.27861533303789
 20
194.56810037685409
 30
0.0
  0
VERTEX
  5
273E9
  8
0
 10
133.55974491849921
 20
195.02078180563149
 30
0.0
  0
VERTEX
  5
273EA
  8
0
 10
133.83695886115581
 20
195.497152347194
 30
0.0
  0
VERTEX
  5
273EB
  8
0
 10
133.9727163121662
 20
195.7436887314197
 30
0.0
  0
SEQEND
  5
273EC
  8
0
  0
LINE
  5
2234B
  8
0
 10
127.7949673234552
 20
190.7436887314197
 30
0.0
 11
129.91502152159941
 21
190.7436887314197
 31
0.0
  0
POLYLINE
  5
2234C
  8
0
 66
     1
 10
0.0
 20
0.0
 30
0.0
  0
VERTEX
  5
273ED
  8
0
 10
133.55615175755989
 20
195.01481727593821
 30
0.0
  0
VERTEX
  5
273EE
  8
0
 10
133.3636283598243
 20
194.7021414041856
 30
0.0
  0
VERTEX
  5
273EF
  8
0
 10
132.9790165342493
 20
194.1130143345604
 30
0.0
  0
VERTEX
  5
273F0
  8
0
 10
132.60210454468341
 20
193.57366712923701
 30
0.0
  0
VERTEX
  5
273F1
  8
0
 10
132.41365540877271
 20
193.31609361928301
 30
0.0
  0
SEQEND
  5
273F2
  8
0
  0
POLYLINE
  5
2234D
  8
0
 66
     1
 10
0.0
 20
0.0
 30
0.0
  0
VERTEX
  5
273F3
  8
0
 10
132.41364258829381
 20
193.31607635112681
 30
0.0
  0
VERTEX
  5
273F4
  8
0
 10
132.3055245993931
 20
193.1716466010634
 30
0.0
  0
VERTEX
  5
273F5
  8
0
 10
132.08994948373109
 20
192.89062176057271
 30
0.0
  0
VERTEX
  5
273F6
  8
0
 10
131.87666728802441
 20
192.62140039073711
 30
0.0
  0
VERTEX
  5
273F7
  8
0
 10
131.77140162424161
 20
192.49169888726831
 30
0.0
  0
SEQEND
  5
273F8
  8
0
  0
POLYLINE
  5
2234E
  8
0
 66
     1
 10
0.0
 20
0.0
 30
0.0
  0
VERTEX
  5
273F9
  8
0
 10
131.2447408219607
 20
191.87483089179429
 30
0.0
  0
VERTEX
  5
273FA
  8
0
 10
131.2151743997261
 20
191.84186403032891
 30
0.0
  0
VERTEX
  5
273FB
  8
0
 10
131.1566765430249
 20
191.77720114741891
 30
0.0
  0
VERTEX
  5
273FC
  8
0
 10
131.09905757850831
 20
191.71426053735101
 30
0.0
  0
VERTEX
  5
273FD
  8
0
 10
131.0705895014637
 20
191.683446240298
 30
0.0
  0
VERTEX
  5
273FE
  8
0
 10
131.04235518265151
 20
191.65307454666211
 30
0.0
  0
VERTEX
  5
273FF
  8
0
 10
130.9866058167969
 20
191.5936742962335
 30
0.0
  0
VERTEX
  5
27400
  8
0
 10
130.93184271118881
 20
191.53608759751609
 30
0.0
  0
VERTEX
  5
27401
  8
0
 10
130.8780903024828
 20
191.48033338843689
 30
0.0
  0
VERTEX
  5
27402
  8
0
 10
130.82538126200279
 20
191.4264396085614
 30
0.0
  0
VERTEX
  5
27403
  8
0
 10
130.77374875363429
 20
191.37443479155081
 30
0.0
  0
VERTEX
  5
27404
  8
0
 10
130.74834628367461
 20
191.34914938379461
 30
0.0
  0
VERTEX
  5
27405
  8
0
 10
130.7232249121657
 20
191.32434644806241
 30
0.0
  0
VERTEX
  5
27406
  8
0
 10
130.67384075759651
 20
191.27620097069479
 30
0.0
  0
VERTEX
  5
27407
  8
0
 10
130.62562611240631
 20
191.23002354411301
 30
0.0
  0
VERTEX
  5
27408
  8
0
 10
130.57860952223831
 20
191.1858380609228
 30
0.0
  0
VERTEX
  5
27409
  8
0
 10
130.53281818050141
 20
191.14366704395661
 30
0.0
  0
VERTEX
  5
2740A
  8
0
 10
130.48827785743089
 20
191.10353157569031
 30
0.0
  0
VERTEX
  5
2740B
  8
0
 10
130.46648447561651
 20
191.0842333511564
 30
0.0
  0
VERTEX
  5
2740C
  8
0
 10
130.44501283419839
 20
191.0654512356127
 30
0.0
  0
VERTEX
  5
2740D
  8
0
 10
130.40304584269501
 20
191.02944404641579
 30
0.0
  0
VERTEX
  5
2740E
  8
0
 10
130.3623980116559
 20
190.9955264299619
 30
0.0
  0
VERTEX
  5
2740F
  8
0
 10
130.34257493399491
 20
190.97935589719921
 30
0.0
  0
SEQEND
  5
27410
  8
0
  0
POLYLINE
  5
2234F
  8
0
 66
     1
 10
0.0
 20
0.0
 30
0.0
  0
VERTEX
  5
27411
  8
0
 10
130.2148456865342
 20
190.88207095753751
 30
0.0
  0
VERTEX
  5
27412
  8
0
 10
130.15203795849641
 20
190.83970059466989
 30
0.0
  0
VERTEX
  5
27413
  8
0
 10
130.04172179851841
 20
190.77813472595739
 30
0.0
  0
VERTEX
  5
27414
  8
0
 10
129.95207600524839
 20
190.74749454191581
 30
0.0
  0
VERTEX
  5
27415
  8
0
 10
129.9150215215993
 20
190.7436887314197
 30
0.0
  0
SEQEND
  5
27416
  8
0
  0
POLYLINE
  5
22350
  8
0
 66
     1
 10
0.0
 20
0.0
 30
0.0
  0
VERTEX
  5
27417
  8
0
 10
147.79496732345521
 20
215.54817315835771
 30
0.0
  0
VERTEX
  5
27418
  8
0
 10
147.79487940152401
 20
215.46184607910249
 30
0.0
  0
VERTEX
  5
27419
  8
0
 10
147.79414530144459
 20
215.29053360376381
 30
0.0
  0
VERTEX
  5
2741A
  8
0
 10
147.79259804239049
 20
215.12109669757501
 30
0.0
  0
VERTEX
  5
2741B
  8
0
 10
147.79149348078019
 20
215.03711371822919
 30
0.0
  0
VERTEX
  5
2741C
  8
0
 10
147.79015436336181
 20
214.95363795671261
 30
0.0
  0
VERTEX
  5
2741D
  8
0
 10
147.78673056326841
 20
214.78825793566651
 30
0.0
  0
VERTEX
  5
2741E
  8
0
 10
147.7822428760889
 20
214.62505466348739
 30
0.0
  0
VERTEX
  5
2741F
  8
0
 10
147.7766078420222
 20
214.46412317331121
 30
0.0
  0
VERTEX
  5
27420
  8
0
 10
147.76974266936369
 20
214.30555504232331
 30
0.0
  0
VERTEX
  5
27421
  8
0
 10
147.76156554357769
 20
214.1494372806101
 30
0.0
  0
VERTEX
  5
27422
  8
0
 10
147.75695973048221
 20
214.072322473301
 30
0.0
  0
VERTEX
  5
27423
  8
0
 10
147.75199582329631
 20
213.9958504787792
 30
0.0
  0
VERTEX
  5
27424
  8
0
 10
147.74095472938851
 20
213.8448748990977
 30
0.0
  0
VERTEX
  5
27425
  8
0
 10
147.72836577545539
 20
213.6965892014714
 30
0.0
  0
VERTEX
  5
27426
  8
0
 10
147.71415519162991
 20
213.5510695587509
 30
0.0
  0
VERTEX
  5
27427
  8
0
 10
147.698252345963
 20
213.40838904400701
 30
0.0
  0
VERTEX
  5
27428
  8
0
 10
147.68059014335029
 20
213.2686170308325
 30
0.0
  0
VERTEX
  5
27429
  8
0
 10
147.6710793743992
 20
213.19984223544731
 30
0.0
  0
VERTEX
  5
2742A
  8
0
 10
147.66110539342989
 20
213.1318186071139
 30
0.0
  0
VERTEX
  5
2742B
  8
0
 10
147.6397391379453
 20
212.99805400334839
 30
0.0
  0
VERTEX
  5
2742C
  8
0
 10
147.61643692711169
 20
212.86737803727561
 30
0.0
  0
VERTEX
  5
2742D
  8
0
 10
147.60404410979339
 20
212.8032138114049
 30
0.0
  0
SEQEND
  5
2742E
  8
0
  0
POLYLINE
  5
22351
  8
0
 66
     1
 10
0.0
 20
0.0
 30
0.0
  0
VERTEX
  5
2742F
  8
0
 10
62.794967323455239
 20
215.54817315835771
 30
0.0
  0
VERTEX
  5
27430
  8
0
 10
62.795055245386493
 20
215.46184607910249
 30
0.0
  0
VERTEX
  5
27431
  8
0
 10
62.795789345465892
 20
215.29053360376381
 30
0.0
  0
VERTEX
  5
27432
  8
0
 10
62.797336604519948
 20
215.12109669757501
 30
0.0
  0
VERTEX
  5
27433
  8
0
 10
62.79844116613026
 20
215.03711371822919
 30
0.0
  0
VERTEX
  5
27434
  8
0
 10
62.799780283548671
 20
214.95363795671261
 30
0.0
  0
VERTEX
  5
27435
  8
0
 10
62.803204083642072
 20
214.78825793566651
 30
0.0
  0
VERTEX
  5
27436
  8
0
 10
62.807691770821521
 20
214.62505466348739
 30
0.0
  0
VERTEX
  5
27437
  8
0
 10
62.81332680488822
 20
214.46412317331121
 30
0.0
  0
VERTEX
  5
27438
  8
0
 10
62.820191977546749
 20
214.30555504232331
 30
0.0
  0
VERTEX
  5
27439
  8
0
 10
62.828369103332761
 20
214.1494372806101
 30
0.0
  0
VERTEX
  5
2743A
  8
0
 10
62.83297491642827
 20
214.072322473301
 30
0.0
  0
VERTEX
  5
2743B
  8
0
 10
62.837938823614188
 20
213.9958504787792
 30
0.0
  0
VERTEX
  5
2743C
  8
0
 10
62.848979917522001
 20
213.84487489909679
 30
0.0
  0
VERTEX
  5
2743D
  8
0
 10
62.86156887145512
 20
213.6965892014714
 30
0.0
  0
VERTEX
  5
2743E
  8
0
 10
62.875779455280508
 20
213.5510695587509
 30
0.0
  0
VERTEX
  5
2743F
  8
0
 10
62.891682300947423
 20
213.40838904400701
 30
0.0
  0
VERTEX
  5
27440
  8
0
 10
62.909344503560078
 20
213.2686170308325
 30
0.0
  0
VERTEX
  5
27441
  8
0
 10
62.918855272511337
 20
213.19984223544731
 30
0.0
  0
VERTEX
  5
27442
  8
0
 10
62.928829253480437
 20
213.1318186071139
 30
0.0
  0
VERTEX
  5
27443
  8
0
 10
62.95019550896518
 20
212.99805400334839
 30
0.0
  0
VERTEX
  5
27444
  8
0
 10
62.973497719798843
 20
212.86737803727561
 30
0.0
  0
VERTEX
  5
27445
  8
0
 10
62.985890537117029
 20
212.8032138114049
 30
0.0
  0
SEQEND
  5
27446
  8
0
  0
POLYLINE
  5
22352
  8
0
 66
     1
 10
0.0
 20
0.0
 30
0.0
  0
VERTEX
  5
27447
  8
0
 10
65.034942362137144
 20
212.8032138114049
 30
0.0
  0
VERTEX
  5
27448
  8
0
 10
65.018741707583104
 20
212.8696588227476
 30
0.0
  0
VERTEX
  5
27449
  8
0
 10
64.988780558246162
 20
213.0031843877841
 30
0.0
  0
VERTEX
  5
2744A
  8
0
 10
64.961930160329302
 20
213.13713337221819
 30
0.0
  0
VERTEX
  5
2744B
  8
0
 10
64.949588142796529
 20
213.2042533009317
 30
0.0
  0
VERTEX
  5
2744C
  8
0
 10
64.93781842366991
 20
213.2721078000514
 30
0.0
  0
VERTEX
  5
2744D
  8
0
 10
64.915923387055386
 20
213.41020985698739
 30
0.0
  0
VERTEX
  5
2744E
  8
0
 10
64.896165167994354
 20
213.55144986686079
 30
0.0
  0
VERTEX
  5
2744F
  8
0
 10
64.878471839729059
 20
213.6957587243642
 30
0.0
  0
VERTEX
  5
27450
  8
0
 10
64.862766006180209
 20
213.84306139832461
 30
0.0
  0
VERTEX
  5
27451
  8
0
 10
64.84896522924987
 20
213.9932776610967
 30
0.0
  0
VERTEX
  5
27452
  8
0
 10
64.842752216007966
 20
214.06945207686479
 30
0.0
  0
VERTEX
  5
27453
  8
0
 10
64.836982518900641
 20
214.14632282291859
 30
0.0
  0
VERTEX
  5
27454
  8
0
 10
64.826726870488528
 20
214.302108470918
 30
0.0
  0
VERTEX
  5
27455
  8
0
 10
64.818103835697215
 20
214.4605432135622
 30
0.0
  0
VERTEX
  5
27456
  8
0
 10
64.811016114460017
 20
214.62153344949459
 30
0.0
  0
VERTEX
  5
27457
  8
0
 10
64.805364138081131
 20
214.78498484175091
 30
0.0
  0
VERTEX
  5
27458
  8
0
 10
64.801046835828402
 20
214.95079715113931
 30
0.0
  0
VERTEX
  5
27459
  8
0
 10
64.799356794273308
 20
215.0345557103519
 30
0.0
  0
VERTEX
  5
2745A
  8
0
 10
64.797962047443207
 20
215.1188645024003
 30
0.0
  0
VERTEX
  5
2745B
  8
0
 10
64.79600695059537
 20
215.2890774404741
 30
0.0
  0
VERTEX
  5
2745C
  8
0
 10
64.795078577215463
 20
215.46132351251799
 30
0.0
  0
VERTEX
  5
2745D
  8
0
 10
64.794967323455225
 20
215.54817315835771
 30
0.0
  0
SEQEND
  5
2745E
  8
0
  0
POLYLINE
  5
22353
  8
0
 66
     1
 10
0.0
 20
0.0
 30
0.0
  0
VERTEX
  5
2745F
  8
0
 10
68.794967323455239
 20
207.81975030657401
 30
0.0
  0
VERTEX
  5
27460
  8
0
 10
68.641695125090337
 20
207.91053223592829
 30
0.0
  0
VERTEX
  5
27461
  8
0
 10
68.34140377439644
 20
208.10222019022061
 30
0.0
  0
VERTEX
  5
27462
  8
0
 10
68.049944338958312
 20
208.30708737796979
 30
0.0
  0
VERTEX
  5
27463
  8
0
 10
67.907707929185776
 20
208.41433722283639
 30
0.0
  0
VERTEX
  5
27464
  8
0
 10
67.767894815475984
 20
208.5247275246011
 30
0.0
  0
VERTEX
  5
27465
  8
0
 10
67.495814539740195
 20
208.7547090253311
 30
0.0
  0
VERTEX
  5
27466
  8
0
 10
67.234243077406845
 20
208.9965758010876
 30
0.0
  0
VERTEX
  5
27467
  8
0
 10
66.983699153978364
 20
209.2498482029705
 30
0.0
  0
VERTEX
  5
27468
  8
0
 10
66.744679626112202
 20
209.5140239634429
 30
0.0
  0
VERTEX
  5
27469
  8
0
 10
66.517658496299191
 20
209.7885791923872
 30
0.0
  0
VERTEX
  5
2746A
  8
0
 10
66.408788974966797
 20
209.92957973427841
 30
0.0
  0
VERTEX
  5
2746B
  8
0
 10
66.303085972862959
 20
210.07296941603821
 30
0.0
  0
VERTEX
  5
2746C
  8
0
 10
66.101387577146625
 20
210.36663065673559
 30
0.0
  0
VERTEX
  5
2746D
  8
0
 10
65.912963299656326
 20
210.66898055135249
 30
0.0
  0
VERTEX
  5
2746E
  8
0
 10
65.738186806835301
 20
210.9794195061877
 30
0.0
  0
VERTEX
  5
2746F
  8
0
 10
65.57740470004137
 20
211.29733188603041
 30
0.0
  0
VERTEX
  5
27470
  8
0
 10
65.430935828197676
 20
211.6220872350286
 30
0.0
  0
VERTEX
  5
27471
  8
0
 10
65.363160750356883
 20
211.7868302601091
 30
0.0
  0
VERTEX
  5
27472
  8
0
 10
65.299070655479682
 20
211.9530415269582
 30
0.0
  0
VERTEX
  5
27473
  8
0
 10
65.182070685291819
 20
212.28953844239459
 30
0.0
  0
VERTEX
  5
27474
  8
0
 10
65.080167941677587
 20
212.6309106702729
 30
0.0
  0
VERTEX
  5
27475
  8
0
 10
65.034942362137144
 20
212.8032138114049
 30
0.0
  0
SEQEND
  5
27476
  8
0
  0
POLYLINE
  5
22354
  8
0
 66
     1
 10
0.0
 20
0.0
 30
0.0
  0
VERTEX
  5
27477
  8
0
 10
62.985890537117029
 20
212.8032138114049
 30
0.0
  0
VERTEX
  5
27478
  8
0
 10
63.022604285344187
 20
212.62641620478101
 30
0.0
  0
VERTEX
  5
27479
  8
0
 10
63.105577695078182
 20
212.274953611759
 30
0.0
  0
VERTEX
  5
2747A
  8
0
 10
63.201187090247679
 20
211.926716071318
 30
0.0
  0
VERTEX
  5
2747B
  8
0
 10
63.253691957790238
 20
211.75394879460961
 30
0.0
  0
VERTEX
  5
2747C
  8
0
 10
63.309307786123327
 20
211.5821577219194
 30
0.0
  0
VERTEX
  5
2747D
  8
0
 10
63.429798781920567
 20
211.241727903971
 30
0.0
  0
VERTEX
  5
2747E
  8
0
 10
63.56250294467997
 20
210.90587057383979
 30
0.0
  0
VERTEX
  5
2747F
  8
0
 10
63.707247214184918
 20
210.57502372488671
 30
0.0
  0
VERTEX
  5
27480
  8
0
 10
63.86384282865049
 20
210.24961881627769
 30
0.0
  0
VERTEX
  5
27481
  8
0
 10
64.032085570888512
 20
209.9300802103144
 30
0.0
  0
VERTEX
  5
27482
  8
0
 10
64.120506636096366
 20
209.7726413071023
 30
0.0
  0
VERTEX
  5
27483
  8
0
 10
64.21175603462882
 20
209.6168246190218
 30
0.0
  0
VERTEX
  5
27484
  8
0
 10
64.402619910647445
 20
209.31026056071099
 30
0.0
  0
VERTEX
  5
27485
  8
0
 10
64.604428292331136
 20
209.01078782723019
 30
0.0
  0
VERTEX
  5
27486
  8
0
 10
64.816918000277497
 20
208.71879696258929
 30
0.0
  0
VERTEX
  5
27487
  8
0
 10
65.039811925508729
 20
208.43466875365539
 30
0.0
  0
VERTEX
  5
27488
  8
0
 10
65.272819390851168
 20
208.158773733564
 30
0.0
  0
VERTEX
  5
27489
  8
0
 10
65.39302124732626
 20
208.02402653798339
 30
0.0
  0
VERTEX
  5
2748A
  8
0
 10
65.515636530008578
 20
207.8914716985027
 30
0.0
  0
VERTEX
  5
2748B
  8
0
 10
65.767946683836044
 20
207.6331112385005
 30
0.0
  0
VERTEX
  5
2748C
  8
0
 10
66.029420813297179
 20
207.3840292828327
 30
0.0
  0
VERTEX
  5
2748D
  8
0
 10
66.163488264341709
 20
207.26306973758159
 30
0.0
  0
SEQEND
  5
2748E
  8
0
  0
LINE
  5
22355
  8
0
 10
69.759166352535885
 20
207.26306973758159
 30
0.0
 11
68.794967323455239
 21
207.81975030657401
 31
0.0
  0
POLYLINE
  5
22356
  8
0
 66
     1
 10
0.0
 20
0.0
 30
0.0
  0
VERTEX
  5
2748F
  8
0
 10
67.794967323455239
 20
205.8485255471833
 30
0.0
  0
VERTEX
  5
27490
  8
0
 10
67.920522688195547
 20
205.7413663651005
 30
0.0
  0
VERTEX
  5
27491
  8
0
 10
68.164377652257826
 20
205.52427956679821
 30
0.0
  0
VERTEX
  5
27492
  8
0
 10
68.398422891098562
 20
205.30362289255299
 30
0.0
  0
VERTEX
  5
27493
  8
0
 10
68.511717638619984
 20
205.19200192571591
 30
0.0
  0
SEQEND
  5
27494
  8
0
  0
POLYLINE
  5
22357
  8
0
 66
     1
 10
0.0
 20
0.0
 30
0.0
  0
VERTEX
  5
27495
  8
0
 10
72.511717638619984
 20
205.19200192571591
 30
0.0
  0
VERTEX
  5
27496
  8
0
 10
72.448342413618093
 20
205.2548483033616
 30
0.0
  0
VERTEX
  5
27497
  8
0
 10
72.319225598613002
 20
205.3797345073217
 30
0.0
  0
VERTEX
  5
27498
  8
0
 10
72.186976460445294
 20
205.50352331832531
 30
0.0
  0
VERTEX
  5
27499
  8
0
 10
72.119685986788909
 20
205.56499800918391
 30
0.0
  0
VERTEX
  5
2749A
  8
0
 10
72.051622974588099
 20
205.6261885505655
 30
0.0
  0
VERTEX
  5
2749B
  8
0
 10
71.913193773196099
 20
205.7477042559122
 30
0.0
  0
VERTEX
  5
2749C
  8
0
 10
71.771718139048858
 20
205.8680447294
 30
0.0
  0
VERTEX
  5
2749D
  8
0
 10
71.627225999356938
 20
205.98718451467079
 30
0.0
  0
VERTEX
  5
2749E
  8
0
 10
71.479747919430565
 20
206.1050984093518
 30
0.0
  0
VERTEX
  5
2749F
  8
0
 10
71.329315096214373
 20
206.2217614703932
 30
0.0
  0
VERTEX
  5
274A0
  8
0
 10
71.253000576009072
 20
206.27961621580289
 30
0.0
  0
VERTEX
  5
274A1
  8
0
 10
71.175959351688107
 20
206.33714901934039
 30
0.0
  0
VERTEX
  5
274A2
  8
0
 10
71.019713126134661
 20
206.4512366475565
 30
0.0
  0
VERTEX
  5
274A3
  8
0
 10
70.860609471278508
 20
206.56400022138399
 30
0.0
  0
VERTEX
  5
274A4
  8
0
 10
70.698682043293616
 20
206.67541588725089
 30
0.0
  0
VERTEX
  5
274A5
  8
0
 10
70.533965095683925
 20
206.78546007671679
 30
0.0
  0
VERTEX
  5
274A6
  8
0
 10
70.366493472037746
 20
206.8941095114578
 30
0.0
  0
VERTEX
  5
274A7
  8
0
 10
70.281735704862058
 20
206.9479040018723
 30
0.0
  0
VERTEX
  5
274A8
  8
0
 10
70.196302598656743
 20
207.0013412081916
 30
0.0
  0
VERTEX
  5
274A9
  8
0
 10
70.023428477062453
 20
207.10713248353841
 30
0.0
  0
VERTEX
  5
274AA
  8
0
 10
69.847907676380373
 20
207.2114609588198
 30
0.0
  0
VERTEX
  5
274AB
  8
0
 10
69.759166352535885
 20
207.26306973758159
 30
0.0
  0
SEQEND
  5
274AC
  8
0
  0
LINE
  5
22358
  8
0
 10
62.794967323455239
 20
295.74368873141981
 30
0.0
 11
62.794967323455239
 21
215.54817315835771
 31
0.0
  0
LINE
  5
22359
  8
0
 10
74.044967323455239
 20
203.65875224088089
 30
0.0
 11
72.511717638619984
 21
205.19200192571591
 31
0.0
  0
LINE
  5
2235A
  8
0
 10
68.511717638619984
 20
205.19200192571591
 30
0.0
 11
73.044967323455239
 21
200.65875224088089
 31
0.0
  0
POLYLINE
  5
2235B
  8
0
 66
     1
 10
0.0
 20
0.0
 30
0.0
  0
VERTEX
  5
274AD
  8
0
 10
73.044967323455239
 20
200.65875224088089
 30
0.0
  0
VERTEX
  5
274AE
  8
0
 10
73.154854518295679
 20
200.54782136332321
 30
0.0
  0
VERTEX
  5
274AF
  8
0
 10
73.373033822796742
 20
200.32129301873101
 30
0.0
  0
VERTEX
  5
274B0
  8
0
 10
73.589037437885153
 20
200.08859357213259
 30
0.0
  0
VERTEX
  5
274B1
  8
0
 10
73.696205158302291
 20
199.96994920662291
 30
0.0
  0
VERTEX
  5
274B2
  8
0
 10
73.802807186672112
 20
199.8497856971544
 30
0.0
  0
VERTEX
  5
274B3
  8
0
 10
74.014285493922216
 20
199.6049337126224
 30
0.0
  0
VERTEX
  5
274B4
  8
0
 10
74.223415401560942
 20
199.35410356524329
 30
0.0
  0
VERTEX
  5
274B5
  8
0
 10
74.430140584015135
 20
199.09736281183811
 30
0.0
  0
VERTEX
  5
274B6
  8
0
 10
74.634405363383166
 20
198.8347806011497
 30
0.0
  0
VERTEX
  5
274B7
  8
0
 10
74.836154724431253
 20
198.5664276552161
 30
0.0
  0
VERTEX
  5
274B8
  8
0
 10
74.936069115673035
 20
198.43010968268931
 30
0.0
  0
VERTEX
  5
274B9
  8
0
 10
75.035334329410489
 20
198.29237625032599
 30
0.0
  0
VERTEX
  5
274BA
  8
0
 10
75.231890532691978
 20
198.01270019755151
 30
0.0
  0
VERTEX
  5
274BB
  8
0
 10
75.425770395215409
 20
197.72747482286559
 30
0.0
  0
VERTEX
  5
274BC
  8
0
 10
75.616921698746864
 20
197.43677694685721
 30
0.0
  0
VERTEX
  5
274BD
  8
0
 10
75.805292959943699
 20
197.14068486404079
 30
0.0
  0
VERTEX
  5
274BE
  8
0
 10
75.990833444219902
 20
196.83927832176769
 30
0.0
  0
VERTEX
  5
274BF
  8
0
 10
76.082526498559901
 20
196.6866074413656
 30
0.0
  0
VERTEX
  5
274C0
  8
0
 10
76.173493179411025
 20
196.53263849874929
 30
0.0
  0
VERTEX
  5
274C1
  8
0
 10
76.353222969233457
 20
196.2208479831915
 30
0.0
  0
VERTEX
  5
274C2
  8
0
 10
76.529974406534052
 20
195.90399075054839
 30
0.0
  0
VERTEX
  5
274C3
  8
0
 10
76.61721833474428
 20
195.7436887314197
 30
0.0
  0
SEQEND
  5
274C4
  8
0
  0
POLYLINE
  5
2235C
  8
0
 66
     1
 10
0.0
 20
0.0
 30
0.0
  0
VERTEX
  5
274C5
  8
0
 10
79.230295377097718
 20
195.7436887314197
 30
0.0
  0
VERTEX
  5
274C6
  8
0
 10
79.11254614729512
 20
196.0091163862653
 30
0.0
  0
VERTEX
  5
274C7
  8
0
 10
78.872006870116593
 20
196.53313436018561
 30
0.0
  0
VERTEX
  5
274C8
  8
0
 10
78.624844624106004
 20
197.04782333522689
 30
0.0
  0
VERTEX
  5
274C9
  8
0
 10
78.498817440486846
 20
197.30159080808599
 30
0.0
  0
VERTEX
  5
274CA
  8
0
 10
78.371179976626294
 20
197.5529322427364
 30
0.0
  0
VERTEX
  5
274CB
  8
0
 10
78.111136666954053
 20
198.04821468727911
 30
0.0
  0
VERTEX
  5
274CC
  8
0
 10
77.84484154591928
 20
198.53342906683429
 30
0.0
  0
VERTEX
  5
274CD
  8
0
 10
77.572424514026693
 20
199.00833869064991
 30
0.0
  0
VERTEX
  5
274CE
  8
0
 10
77.294018458088644
 20
199.4727118947003
 30
0.0
  0
VERTEX
  5
274CF
  8
0
 10
77.009759186403343
 20
199.92632215469251
 30
0.0
  0
VERTEX
  5
274D0
  8
0
 10
76.865477817317583
 20
200.14902182446889
 30
0.0
  0
VERTEX
  5
274D1
  8
0
 10
76.71978536250549
 20
200.368948196573
 30
0.0
  0
VERTEX
  5
274D2
  8
0
 10
76.424238437526014
 20
200.80037410445669
 30
0.0
  0
VERTEX
  5
274D3
  8
0
 10
76.123262581190943
 20
201.220389425961
 30
0.0
  0
VERTEX
  5
274D4
  8
0
 10
75.817004611494653
 20
201.62878927486051
 30
0.0
  0
VERTEX
  5
274D5
  8
0
 10
75.505613923081
 20
202.02537443103211
 30
0.0
  0
VERTEX
  5
274D6
  8
0
 10
75.189242414367754
 20
202.4099514376403
 30
0.0
  0
VERTEX
  5
274D7
  8
0
 10
75.029236987069567
 20
202.5976780287765
 30
0.0
  0
VERTEX
  5
274D8
  8
0
 10
74.868044413449283
 20
202.78233269550131
 30
0.0
  0
VERTEX
  5
274D9
  8
0
 10
74.542176602814607
 20
203.1423365545979
 30
0.0
  0
VERTEX
  5
274DA
  8
0
 10
74.211797942916405
 20
203.4897874026901
 30
0.0
  0
VERTEX
  5
274DB
  8
0
 10
74.044967323455239
 20
203.65875224088089
 30
0.0
  0
SEQEND
  5
274DC
  8
0
  0
POLYLINE
  5
2235D
  8
0
 66
     1
 10
0.0
 20
0.0
 30
0.0
  0
VERTEX
  5
274DD
  8
0
 10
76.61721833474428
 20
195.7436887314197
 30
0.0
  0
VERTEX
  5
274DE
  8
0
 10
76.752975785754643
 20
195.497152347194
 30
0.0
  0
VERTEX
  5
274DF
  8
0
 10
77.030189728411173
 20
195.02078180563149
 30
0.0
  0
VERTEX
  5
274E0
  8
0
 10
77.311319313872559
 20
194.56810037685409
 30
0.0
  0
VERTEX
  5
274E1
  8
0
 10
77.452032462441366
 20
194.35115971730599
 30
0.0
  0
VERTEX
  5
274E2
  8
0
 10
77.592173986119292
 20
194.1407532106891
 30
0.0
  0
VERTEX
  5
274E3
  8
0
 10
77.868847994332086
 20
193.7402953783367
 30
0.0
  0
VERTEX
  5
274E4
  8
0
 10
78.142027641639515
 20
193.3623495545225
 30
0.0
  0
VERTEX
  5
274E5
  8
0
 10
78.416291795023881
 20
192.9986447265228
 30
0.0
  0
VERTEX
  5
274E6
  8
0
 10
78.688238772227919
 20
192.6525466788575
 30
0.0
  0
VERTEX
  5
274E7
  8
0
 10
78.954384559179061
 20
192.3274085168737
 30
0.0
  0
VERTEX
  5
274E8
  8
0
 10
79.084243832356265
 20
192.17366363339119
 30
0.0
  0
VERTEX
  5
274E9
  8
0
 10
79.211429933582622
 20
192.02628412269181
 30
0.0
  0
VERTEX
  5
274EA
  8
0
 10
79.4562698001032
 20
191.75197332819971
 30
0.0
  0
VERTEX
  5
274EB
  8
0
 10
79.686057959895948
 20
191.50698257232759
 30
0.0
  0
VERTEX
  5
274EC
  8
0
 10
79.898398950293426
 20
191.29335638401921
 30
0.0
  0
VERTEX
  5
274ED
  8
0
 10
80.0911112705503
 20
191.1129516276273
 30
0.0
  0
VERTEX
  5
274EE
  8
0
 10
80.262290658308416
 20
190.96734674981369
 30
0.0
  0
VERTEX
  5
274EF
  8
0
 10
80.339330864892176
 20
190.90796456456059
 30
0.0
  0
VERTEX
  5
274F0
  8
0
 10
80.351601259651474
 20
190.8989485625489
 30
0.0
  0
VERTEX
  5
274F1
  8
0
 10
80.375648492260893
 20
190.881675243822
 30
0.0
  0
VERTEX
  5
274F2
  8
0
 10
80.399034079395946
 20
190.86541572821261
 30
0.0
  0
VERTEX
  5
274F3
  8
0
 10
80.410477493346662
 20
190.85766689665701
 30
0.0
  0
VERTEX
  5
274F4
  8
0
 10
80.421754022632385
 20
190.85017236995819
 30
0.0
  0
VERTEX
  5
274F5
  8
0
 10
80.443804661790054
 20
190.83594715025259
 30
0.0
  0
VERTEX
  5
274F6
  8
0
 10
80.465182687864967
 20
190.82274166152129
 30
0.0
  0
VERTEX
  5
274F7
  8
0
 10
80.485885154965885
 20
190.8105570931161
 30
0.0
  0
VERTEX
  5
274F8
  8
0
 10
80.505909491214993
 20
190.79939421848621
 30
0.0
  0
VERTEX
  5
274F9
  8
0
 10
80.525253508573996
 20
190.78925338386941
 30
0.0
  0
VERTEX
  5
274FA
  8
0
 10
80.534669821031343
 20
190.7845662205186
 30
0.0
  0
VERTEX
  5
274FB
  8
0
 10
80.543915411556654
 20
190.7801344985464
 30
0.0
  0
VERTEX
  5
274FC
  8
0
 10
80.561893804793726
 20
190.77203702670931
 30
0.0
  0
VERTEX
  5
274FD
  8
0
 10
80.579187699415556
 20
190.76495998099011
 30
0.0
  0
VERTEX
  5
274FE
  8
0
 10
80.595796518222073
 20
190.7589019176894
 30
0.0
  0
VERTEX
  5
274FF
  8
0
 10
80.611720099608405
 20
190.75386093375661
 30
0.0
  0
VERTEX
  5
27500
  8
0
 10
80.626958700222758
 20
190.7498346655575
 30
0.0
  0
VERTEX
  5
27501
  8
0
 10
80.634321327670932
 20
190.74820118539259
 30
0.0
  0
VERTEX
  5
27502
  8
0
 10
80.64151299632772
 20
190.74682028947919
 30
0.0
  0
VERTEX
  5
27503
  8
0
 10
80.655384083845675
 20
190.74481452440429
 30
0.0
  0
VERTEX
  5
27504
  8
0
 10
80.668573477068776
 20
190.74381363610379
 30
0.0
  0
VERTEX
  5
27505
  8
0
 10
80.674913125311164
 20
190.7436887314197
 30
0.0
  0
SEQEND
  5
27506
  8
0
  0
POLYLINE
  5
2235E
  8
0
 66
     1
 10
0.0
 20
0.0
 30
0.0
  0
VERTEX
  5
27507
  8
0
 10
82.688722894579769
 20
190.7436887314197
 30
0.0
  0
VERTEX
  5
27508
  8
0
 10
82.653535241599457
 20
190.7480397727081
 30
0.0
  0
VERTEX
  5
27509
  8
0
 10
82.567316780502097
 20
190.7832030859413
 30
0.0
  0
VERTEX
  5
2750A
  8
0
 10
82.460004007415591
 20
190.85413574496349
 30
0.0
  0
VERTEX
  5
2750B
  8
0
 10
82.398558060755363
 20
190.90306659553241
 30
0.0
  0
VERTEX
  5
2750C
  8
0
 10
82.332037432085045
 20
190.96093646929421
 30
0.0
  0
VERTEX
  5
2750D
  8
0
 10
82.184276433039017
 20
191.10320947355649
 30
0.0
  0
VERTEX
  5
2750E
  8
0
 10
82.017999037974619
 20
191.28008931079779
 30
0.0
  0
VERTEX
  5
2750F
  8
0
 10
81.834889656241103
 20
191.49025481269291
 30
0.0
  0
VERTEX
  5
27510
  8
0
 10
81.636901170253282
 20
191.7320861582821
 30
0.0
  0
VERTEX
  5
27511
  8
0
 10
81.426184091000664
 20
192.00376599820629
 30
0.0
  0
VERTEX
  5
27512
  8
0
 10
81.316839122390306
 20
192.15009588205291
 30
0.0
  0
VERTEX
  5
27513
  8
0
 10
81.205288206982445
 20
192.30300155498199
 30
0.0
  0
VERTEX
  5
27514
  8
0
 10
80.976992343453034
 20
192.62718260337709
 30
0.0
  0
VERTEX
  5
27515
  8
0
 10
80.744236338144219
 20
192.9734215268299
 30
0.0
  0
VERTEX
  5
27516
  8
0
 10
80.510103690202413
 20
193.3385040392904
 30
0.0
  0
VERTEX
  5
27517
  8
0
 10
80.277676222964601
 20
193.71901910649461
 30
0.0
  0
VERTEX
  5
27518
  8
0
 10
80.043731527109003
 20
194.12241473253471
 30
0.0
  0
VERTEX
  5
27519
  8
0
 10
79.925675023701842
 20
194.3347086813896
 30
0.0
  0
VERTEX
  5
2751A
  8
0
 10
79.807469938212648
 20
194.55380866159339
 30
0.0
  0
VERTEX
  5
2751B
  8
0
 10
79.572421964284331
 20
195.01157288388731
 30
0.0
  0
VERTEX
  5
2751C
  8
0
 10
79.342304823182189
 20
195.49390983612739
 30
0.0
  0
VERTEX
  5
2751D
  8
0
 10
79.230295377097718
 20
195.7436887314197
 30
0.0
  0
SEQEND
  5
2751E
  8
0
  0
LINE
  5
2235F
  8
0
 10
82.794967323455239
 20
190.7436887314197
 30
0.0
 11
80.674913125311164
 21
190.7436887314197
 31
0.0
  0
POLYLINE
  5
22360
  8
0
 66
     1
 10
0.0
 20
0.0
 30
0.0
  0
VERTEX
  5
2751F
  8
0
 10
80.674913125311164
 20
190.7436887314197
 30
0.0
  0
VERTEX
  5
27520
  8
0
 10
80.668402446917526
 20
190.74382037508801
 30
0.0
  0
VERTEX
  5
27521
  8
0
 10
80.654844702304445
 20
190.74487516626141
 30
0.0
  0
VERTEX
  5
27522
  8
0
 10
80.640570231188335
 20
190.74698870044401
 30
0.0
  0
VERTEX
  5
27523
  8
0
 10
80.633163749478854
 20
190.74844366187969
 30
0.0
  0
SEQEND
  5
27524
  8
0
  0
POLYLINE
  5
22361
  8
0
 66
     1
 10
0.0
 20
0.0
 30
0.0
  0
VERTEX
  5
27525
  8
0
 10
78.818533023205191
 20
192.49169888661299
 30
0.0
  0
VERTEX
  5
27526
  8
0
 10
78.713267432140356
 20
192.62140029975029
 30
0.0
  0
VERTEX
  5
27527
  8
0
 10
78.499985385088834
 20
192.89062147594811
 30
0.0
  0
VERTEX
  5
27528
  8
0
 10
78.28441041949668
 20
193.1716461082292
 30
0.0
  0
VERTEX
  5
27529
  8
0
 10
78.176292505051492
 20
193.31607574981581
 30
0.0
  0
SEQEND
  5
2752A
  8
0
  0
LINE
  5
22362
  8
0
 10
67.794967323455239
 20
205.8485255471833
 30
0.0
 11
66.163488264341709
 21
207.26306973758159
 31
0.0
  0
POLYLINE
  5
22363
  8
0
 66
     1
 10
0.0
 20
0.0
 30
0.0
  0
VERTEX
  5
2752B
  8
0
 10
66.163488264341709
 20
207.26306973758159
 30
0.0
  0
VERTEX
  5
2752C
  8
0
 10
66.029420813297179
 20
207.3840292828327
 30
0.0
  0
VERTEX
  5
2752D
  8
0
 10
65.767946683836158
 20
207.6331112385005
 30
0.0
  0
VERTEX
  5
2752E
  8
0
 10
65.515636530008578
 20
207.8914716985027
 30
0.0
  0
VERTEX
  5
2752F
  8
0
 10
65.393021247326374
 20
208.02402653798339
 30
0.0
  0
VERTEX
  5
27530
  8
0
 10
65.272819390851168
 20
208.158773733564
 30
0.0
  0
VERTEX
  5
27531
  8
0
 10
65.039811925508729
 20
208.43466875365539
 30
0.0
  0
VERTEX
  5
27532
  8
0
 10
64.816918000277497
 20
208.71879696258929
 30
0.0
  0
VERTEX
  5
27533
  8
0
 10
64.604428292331136
 20
209.01078782723019
 30
0.0
  0
VERTEX
  5
27534
  8
0
 10
64.402619910647445
 20
209.31026056071099
 30
0.0
  0
VERTEX
  5
27535
  8
0
 10
64.21175603462882
 20
209.6168246190218
 30
0.0
  0
VERTEX
  5
27536
  8
0
 10
64.120506636096366
 20
209.77264130710321
 30
0.0
  0
VERTEX
  5
27537
  8
0
 10
64.032085570888512
 20
209.9300802103144
 30
0.0
  0
VERTEX
  5
27538
  8
0
 10
63.86384282865049
 20
210.24961881627769
 30
0.0
  0
VERTEX
  5
27539
  8
0
 10
63.707247214184918
 20
210.57502372488671
 30
0.0
  0
VERTEX
  5
2753A
  8
0
 10
63.562502944680091
 20
210.90587057383979
 30
0.0
  0
VERTEX
  5
2753B
  8
0
 10
63.429798781920567
 20
211.241727903971
 30
0.0
  0
VERTEX
  5
2753C
  8
0
 10
63.309307786123327
 20
211.5821577219194
 30
0.0
  0
VERTEX
  5
2753D
  8
0
 10
63.253691957790238
 20
211.75394879460961
 30
0.0
  0
VERTEX
  5
2753E
  8
0
 10
63.201187090247679
 20
211.926716071318
 30
0.0
  0
VERTEX
  5
2753F
  8
0
 10
63.105577695078182
 20
212.274953611759
 30
0.0
  0
VERTEX
  5
27540
  8
0
 10
63.022604285344187
 20
212.62641620478101
 30
0.0
  0
VERTEX
  5
27541
  8
0
 10
62.985890537117029
 20
212.8032138114049
 30
0.0
  0
SEQEND
  5
27542
  8
0
  0
LINE
  5
22364
  8
0
 10
112.301067803544
 20
286.74368873141981
 30
0.0
 11
98.288866843366463
 21
286.74368873141981
 31
0.0
  0
POLYLINE
  5
22365
  8
0
 66
     1
 10
0.0
 20
0.0
 30
0.0
  0
VERTEX
  5
27543
  8
0
 10
115.47314505817231
 20
288.7645248153276
 30
0.0
  0
VERTEX
  5
27544
  8
0
 10
115.4653325549007
 20
288.74788507340782
 30
0.0
  0
VERTEX
  5
27545
  8
0
 10
115.44944590756801
 20
288.71472983265812
 30
0.0
  0
VERTEX
  5
27546
  8
0
 10
115.4332118706234
 20
288.68174329605432
 30
0.0
  0
VERTEX
  5
27547
  8
0
 10
115.4249651393207
 20
288.66531442995438
 30
0.0
  0
VERTEX
  5
27548
  8
0
 10
115.416632235318
 20
288.64892910330491
 30
0.0
  0
VERTEX
  5
27549
  8
0
 10
115.39970883103599
 20
288.616290875103
 30
0.0
  0
VERTEX
  5
2754A
  8
0
 10
115.3824435250927
 20
288.58383221272561
 30
0.0
  0
VERTEX
  5
2754B
  8
0
 10
115.3648382225287
 20
288.55155669763639
 30
0.0
  0
VERTEX
  5
2754C
  8
0
 10
115.3468948658994
 20
288.51946789109121
 30
0.0
  0
VERTEX
  5
2754D
  8
0
 10
115.3286154350612
 20
288.48756933374352
 30
0.0
  0
VERTEX
  5
2754E
  8
0
 10
115.3193503206644
 20
288.47169249924349
 30
0.0
  0
VERTEX
  5
2754F
  8
0
 10
115.310001946952
 20
288.45586454525528
 30
0.0
  0
VERTEX
  5
27550
  8
0
 10
115.2910564553701
 20
288.42435702390958
 30
0.0
  0
VERTEX
  5
27551
  8
0
 10
115.2717810507463
 20
288.39305024622172
 30
0.0
  0
VERTEX
  5
27552
  8
0
 10
115.2017501012229
 20
288.28510704868768
 30
0.0
  0
VERTEX
  5
27553
  8
0
 10
115.13859958863971
 20
288.19468571322523
 30
0.0
  0
VERTEX
  5
27554
  8
0
 10
115.07263146371059
 20
288.10629899680322
 30
0.0
  0
VERTEX
  5
27555
  8
0
 10
114.93250712972041
 20
287.93597837856942
 30
0.0
  0
VERTEX
  5
27556
  8
0
 10
114.7819335237395
 20
287.77482152592711
 30
0.0
  0
VERTEX
  5
27557
  8
0
 10
114.6215085636254
 20
287.62346838210669
 30
0.0
  0
VERTEX
  5
27558
  8
0
 10
114.4518692863127
 20
287.48251996046019
 30
0.0
  0
VERTEX
  5
27559
  8
0
 10
114.27368931818189
 20
287.35253595787248
 30
0.0
  0
VERTEX
  5
2755A
  8
0
 10
114.18161643275791
 20
287.29181867107491
 30
0.0
  0
VERTEX
  5
2755B
  8
0
 10
114.0876762001336
 20
287.23403253224387
 30
0.0
  0
VERTEX
  5
2755C
  8
0
 10
113.8945685779897
 20
287.12748025286152
 30
0.0
  0
VERTEX
  5
2755D
  8
0
 10
113.69513326938019
 20
287.03330223179643
 30
0.0
  0
VERTEX
  5
2755E
  8
0
 10
113.4901622187606
 20
286.95187244376029
 30
0.0
  0
VERTEX
  5
2755F
  8
0
 10
113.2804693526525
 20
286.88351424106901
 30
0.0
  0
VERTEX
  5
27560
  8
0
 10
113.0668873475956
 20
286.82849906963662
 30
0.0
  0
VERTEX
  5
27561
  8
0
 10
112.9589024439444
 20
286.8060654847722
 30
0.0
  0
VERTEX
  5
27562
  8
0
 10
112.850264323644
 20
286.78704539108088
 30
0.0
  0
VERTEX
  5
27563
  8
0
 10
112.6314604765368
 20
286.75931781522382
 30
0.0
  0
VERTEX
  5
27564
  8
0
 10
112.41134466191851
 20
286.74542644644038
 30
0.0
  0
VERTEX
  5
27565
  8
0
 10
112.301067803544
 20
286.74368873141981
 30
0.0
  0
SEQEND
  5
27566
  8
0
  0
LINE
  5
22366
  8
0
 10
117.3911110341115
 20
292.87761612403119
 30
0.0
 11
115.47314505817231
 21
288.7645248153276
 31
0.0
  0
POLYLINE
  5
22367
  8
0
 66
     1
 10
0.0
 20
0.0
 30
0.0
  0
VERTEX
  5
27567
  8
0
 10
118.7505727146665
 20
293.74368873141981
 30
0.0
  0
VERTEX
  5
27568
  8
0
 10
118.7372962133353
 20
293.74362997510622
 30
0.0
  0
VERTEX
  5
27569
  8
0
 10
118.7054193606277
 20
293.74300896893419
 30
0.0
  0
VERTEX
  5
2756A
  8
0
 10
118.666450650596
 20
293.741328033233
 30
0.0
  0
VERTEX
  5
2756B
  8
0
 10
118.6443253686884
 20
293.73992116706359
 30
0.0
  0
VERTEX
  5
2756C
  8
0
 10
118.6204579768396
 20
293.73803479408429
 30
0.0
  0
VERTEX
  5
2756D
  8
0
 10
118.5675779673287
 20
293.7324845275071
 30
0.0
  0
VERTEX
  5
2756E
  8
0
 10
118.50801479743021
 20
293.72394737665218
 30
0.0
  0
VERTEX
  5
2756F
  8
0
 10
118.4420447201944
 20
293.7116160036739
 30
0.0
  0
VERTEX
  5
27570
  8
0
 10
118.3700068061973
 20
293.69460898743358
 30
0.0
  0
VERTEX
  5
27571
  8
0
 10
118.29229275742421
 20
293.6719672339496
 30
0.0
  0
VERTEX
  5
27572
  8
0
 10
118.2514466901374
 20
293.65821098703782
 30
0.0
  0
VERTEX
  5
27573
  8
0
 10
118.2093569941494
 20
293.64264746700343
 30
0.0
  0
VERTEX
  5
27574
  8
0
 10
118.12172110320719
 20
293.60550577154117
 30
0.0
  0
VERTEX
  5
27575
  8
0
 10
118.02999158183761
 20
293.55927332809551
 30
0.0
  0
VERTEX
  5
27576
  8
0
 10
117.93482440334429
 20
293.50247969602611
 30
0.0
  0
VERTEX
  5
27577
  8
0
 10
117.87801435137411
 20
293.46378786782128
 30
0.0
  0
VERTEX
  5
27578
  8
0
 10
117.8616375658617
 20
293.4519082070201
 30
0.0
  0
VERTEX
  5
27579
  8
0
 10
117.84520365560491
 20
293.43964310634152
 30
0.0
  0
VERTEX
  5
2757A
  8
0
 10
117.836966597512
 20
293.43336257861392
 30
0.0
  0
VERTEX
  5
2757B
  8
0
 10
117.82871685600411
 20
293.42698149986251
 30
0.0
  0
VERTEX
  5
2757C
  8
0
 10
117.8121815314657
 20
293.41391178165031
 30
0.0
  0
VERTEX
  5
2757D
  8
0
 10
117.7956022023625
 20
293.40042176917268
 30
0.0
  0
VERTEX
  5
2757E
  8
0
 10
117.7789835772663
 20
293.38649866666128
 30
0.0
  0
VERTEX
  5
2757F
  8
0
 10
117.7623305909362
 20
293.37212902885949
 30
0.0
  0
VERTEX
  5
27580
  8
0
 10
117.7456484485394
 20
293.35729872569482
 30
0.0
  0
VERTEX
  5
27581
  8
0
 10
117.7372981567573
 20
293.34970621333099
 30
0.0
  0
VERTEX
  5
27582
  8
0
 10
117.7289426765726
 20
293.34199290844208
 30
0.0
  0
VERTEX
  5
27583
  8
0
 10
117.7122191809262
 20
293.32619597803301
 30
0.0
  0
VERTEX
  5
27584
  8
0
 10
117.6954376624096
 20
293.30984539040492
 30
0.0
  0
VERTEX
  5
27585
  8
0
 10
117.68696448975039
 20
293.30139263322332
 30
0.0
  0
VERTEX
  5
27586
  8
0
 10
117.67843716428639
 20
293.29274800601343
 30
0.0
  0
VERTEX
  5
27587
  8
0
 10
117.6612425480282
 20
293.27488211195117
 30
0.0
  0
VERTEX
  5
27588
  8
0
 10
117.6438994794031
 20
293.256247050902
 30
0.0
  0
VERTEX
  5
27589
  8
0
 10
117.63518681474579
 20
293.24664151907109
 30
0.0
  0
VERTEX
  5
2758A
  8
0
 10
117.6264545880162
 20
293.23684452853098
 30
0.0
  0
VERTEX
  5
2758B
  8
0
 10
117.608955270168
 20
293.21667876755419
 30
0.0
  0
VERTEX
  5
2758C
  8
0
 10
117.5914494613196
 20
293.19575663002252
 30
0.0
  0
VERTEX
  5
2758D
  8
0
 10
117.5739853751034
 20
293.17408769551002
 30
0.0
  0
VERTEX
  5
2758E
  8
0
 10
117.55661120660331
 20
293.15168428056307
 30
0.0
  0
VERTEX
  5
2758F
  8
0
 10
117.5393747986336
 20
293.12856138225561
 30
0.0
  0
VERTEX
  5
27590
  8
0
 10
117.5308230189256
 20
293.11673551123198
 30
0.0
  0
VERTEX
  5
27591
  8
0
 10
117.5223232711037
 20
293.10473652590468
 30
0.0
  0
VERTEX
  5
27592
  8
0
 10
117.50550223606859
 20
293.0802289296916
 30
0.0
  0
VERTEX
  5
27593
  8
0
 10
117.48895521566691
 20
293.05505873716169
 30
0.0
  0
VERTEX
  5
27594
  8
0
 10
117.4727274806712
 20
293.02925321505882
 30
0.0
  0
VERTEX
  5
27595
  8
0
 10
117.45686391584969
 20
293.00284454142462
 30
0.0
  0
VERTEX
  5
27596
  8
0
 10
117.4414082435968
 20
292.97586930183212
 30
0.0
  0
VERTEX
  5
27597
  8
0
 10
117.4338465841235
 20
292.96218180525187
 30
0.0
  0
VERTEX
  5
27598
  8
0
 10
117.4264025011986
 20
292.94836826550909
 30
0.0
  0
VERTEX
  5
27599
  8
0
 10
117.41188651089639
 20
292.92038604029221
 30
0.0
  0
VERTEX
  5
2759A
  8
0
 10
117.3978973486518
 20
292.89197057921228
 30
0.0
  0
VERTEX
  5
2759B
  8
0
 10
117.3911110341115
 20
292.87761612403119
 30
0.0
  0
SEQEND
  5
2759C
  8
0
  0
POLYLINE
  5
22368
  8
0
 66
     1
 10
0.0
 20
0.0
 30
0.0
  0
VERTEX
  5
2759D
  8
0
 10
98.288866843366463
 20
286.74368873141981
 30
0.0
  0
VERTEX
  5
2759E
  8
0
 10
98.178589984991973
 20
286.74542644644038
 30
0.0
  0
VERTEX
  5
2759F
  8
0
 10
97.958474170373634
 20
286.75931781522382
 30
0.0
  0
VERTEX
  5
275A0
  8
0
 10
97.739670323266409
 20
286.78704539108088
 30
0.0
  0
VERTEX
  5
275A1
  8
0
 10
97.631032202966026
 20
286.8060654847722
 30
0.0
  0
VERTEX
  5
275A2
  8
0
 10
97.52304729931484
 20
286.82849906963662
 30
0.0
  0
VERTEX
  5
275A3
  8
0
 10
97.309465294257961
 20
286.88351424106901
 30
0.0
  0
VERTEX
  5
275A4
  8
0
 10
97.09977242814989
 20
286.95187244376029
 30
0.0
  0
VERTEX
  5
275A5
  8
0
 10
96.894801377530257
 20
287.03330223179643
 30
0.0
  0
VERTEX
  5
275A6
  8
0
 10
96.695366068920748
 20
287.12748025286152
 30
0.0
  0
VERTEX
  5
275A7
  8
0
 10
96.502258446776864
 20
287.23403253224387
 30
0.0
  0
VERTEX
  5
275A8
  8
0
 10
96.408318214152587
 20
287.29181867107491
 30
0.0
  0
VERTEX
  5
275A9
  8
0
 10
96.316245328728556
 20
287.35253595787248
 30
0.0
  0
VERTEX
  5
275AA
  8
0
 10
96.138065360597807
 20
287.48251996046019
 30
0.0
  0
VERTEX
  5
275AB
  8
0
 10
95.968426083285067
 20
287.62346838210669
 30
0.0
  0
VERTEX
  5
275AC
  8
0
 10
95.808001123170925
 20
287.77482152592711
 30
0.0
  0
VERTEX
  5
275AD
  8
0
 10
95.657427517190044
 20
287.93597837856942
 30
0.0
  0
VERTEX
  5
275AE
  8
0
 10
95.517303183199814
 20
288.10629899680322
 30
0.0
  0
VERTEX
  5
275AF
  8
0
 10
95.451335058270715
 20
288.19468571322523
 30
0.0
  0
VERTEX
  5
275B0
  8
0
 10
95.388184545687537
 20
288.28510704868768
 30
0.0
  0
VERTEX
  5
275B1
  8
0
 10
95.318153596164166
 20
288.39305024622172
 30
0.0
  0
VERTEX
  5
275B2
  8
0
 10
95.298878191540325
 20
288.42435702390958
 30
0.0
  0
VERTEX
  5
275B3
  8
0
 10
95.279932699958408
 20
288.45586454525528
 30
0.0
  0
VERTEX
  5
275B4
  8
0
 10
95.27058432624608
 20
288.47169249924349
 30
0.0
  0
VERTEX
  5
275B5
  8
0
 10
95.261319211849255
 20
288.48756933374352
 30
0.0
  0
VERTEX
  5
275B6
  8
0
 10
95.243039781011021
 20
288.51946789109121
 30
0.0
  0
VERTEX
  5
275B7
  8
0
 10
95.225096424381704
 20
288.55155669763639
 30
0.0
  0
VERTEX
  5
275B8
  8
0
 10
95.207491121817725
 20
288.58383221272561
 30
0.0
  0
VERTEX
  5
275B9
  8
0
 10
95.190225815874442
 20
288.616290875103
 30
0.0
  0
VERTEX
  5
275BA
  8
0
 10
95.173302411592431
 20
288.64892910330491
 30
0.0
  0
VERTEX
  5
275BB
  8
0
 10
95.164969507589717
 20
288.66531442995438
 30
0.0
  0
VERTEX
  5
275BC
  8
0
 10
95.156722776287097
 20
288.68174329605432
 30
0.0
  0
VERTEX
  5
275BD
  8
0
 10
95.140488739342459
 20
288.71472983265812
 30
0.0
  0
VERTEX
  5
275BE
  8
0
 10
95.124602092009795
 20
288.74788507340782
 30
0.0
  0
VERTEX
  5
275BF
  8
0
 10
95.116789588738129
 20
288.7645248153276
 30
0.0
  0
SEQEND
  5
275C0
  8
0
  0
LINE
  5
22369
  8
0
 10
95.116789588738129
 20
288.7645248153276
 30
0.0
 11
93.198823612798947
 21
292.87761612403119
 31
0.0
  0
POLYLINE
  5
2236A
  8
0
 66
     1
 10
0.0
 20
0.0
 30
0.0
  0
VERTEX
  5
275C1
  8
0
 10
93.198823612798947
 20
292.87761612403119
 30
0.0
  0
VERTEX
  5
275C2
  8
0
 10
93.192037298258697
 20
292.89197057921228
 30
0.0
  0
VERTEX
  5
275C3
  8
0
 10
93.178048136014013
 20
292.92038604029221
 30
0.0
  0
VERTEX
  5
275C4
  8
0
 10
93.163532145711883
 20
292.94836826550909
 30
0.0
  0
VERTEX
  5
275C5
  8
0
 10
93.156088062786921
 20
292.96218180525187
 30
0.0
  0
VERTEX
  5
275C6
  8
0
 10
93.148526403313795
 20
292.97586930183212
 30
0.0
  0
VERTEX
  5
275C7
  8
0
 10
93.133070731060911
 20
293.00284454142462
 30
0.0
  0
VERTEX
  5
275C8
  8
0
 10
93.117207166239268
 20
293.02925321505882
 30
0.0
  0
VERTEX
  5
275C9
  8
0
 10
93.100979431243559
 20
293.05505873716169
 30
0.0
  0
VERTEX
  5
275CA
  8
0
 10
93.084432410841814
 20
293.0802289296916
 30
0.0
  0
VERTEX
  5
275CB
  8
0
 10
93.067611375806791
 20
293.10473652590468
 30
0.0
  0
VERTEX
  5
275CC
  8
0
 10
93.059111627984848
 20
293.11673551123198
 30
0.0
  0
VERTEX
  5
275CD
  8
0
 10
93.050559848276876
 20
293.12856138225561
 30
0.0
  0
VERTEX
  5
275CE
  8
0
 10
93.033323440307186
 20
293.15168428056307
 30
0.0
  0
VERTEX
  5
275CF
  8
0
 10
93.015949271807017
 20
293.17408769551002
 30
0.0
  0
VERTEX
  5
275D0
  8
0
 10
92.99848518559088
 20
293.19575663002252
 30
0.0
  0
VERTEX
  5
275D1
  8
0
 10
92.980979376742425
 20
293.21667876755419
 30
0.0
  0
VERTEX
  5
275D2
  8
0
 10
92.96348005889422
 20
293.23684452853098
 30
0.0
  0
VERTEX
  5
275D3
  8
0
 10
92.954747832164685
 20
293.24664151907109
 30
0.0
  0
VERTEX
  5
275D4
  8
0
 10
92.946035167507262
 20
293.256247050902
 30
0.0
  0
VERTEX
  5
275D5
  8
0
 10
92.928692098882266
 20
293.27488211195117
 30
0.0
  0
VERTEX
  5
275D6
  8
0
 10
92.911497482624114
 20
293.29274800601343
 30
0.0
  0
VERTEX
  5
275D7
  8
0
 10
92.902970157160098
 20
293.30139263322332
 30
0.0
  0
VERTEX
  5
275D8
  8
0
 10
92.894496984500833
 20
293.30984539040492
 30
0.0
  0
VERTEX
  5
275D9
  8
0
 10
92.877715465984238
 20
293.32619597803301
 30
0.0
  0
VERTEX
  5
275DA
  8
0
 10
92.860991970337864
 20
293.34199290844208
 30
0.0
  0
VERTEX
  5
275DB
  8
0
 10
92.852636490153145
 20
293.34970621333099
 30
0.0
  0
VERTEX
  5
275DC
  8
0
 10
92.844286198371037
 20
293.35729872569482
 30
0.0
  0
VERTEX
  5
275DD
  8
0
 10
92.827604055974234
 20
293.37212902885949
 30
0.0
  0
VERTEX
  5
275DE
  8
0
 10
92.810951069644133
 20
293.38649866666128
 30
0.0
  0
VERTEX
  5
275DF
  8
0
 10
92.794332444547976
 20
293.40042176917268
 30
0.0
  0
VERTEX
  5
275E0
  8
0
 10
92.777753115444725
 20
293.41391178165031
 30
0.0
  0
VERTEX
  5
275E1
  8
0
 10
92.761217790906343
 20
293.42698149986251
 30
0.0
  0
VERTEX
  5
275E2
  8
0
 10
92.752968049398405
 20
293.43336257861392
 30
0.0
  0
VERTEX
  5
275E3
  8
0
 10
92.744730991305573
 20
293.43964310634152
 30
0.0
  0
VERTEX
  5
275E4
  8
0
 10
92.728297081048694
 20
293.4519082070201
 30
0.0
  0
VERTEX
  5
275E5
  8
0
 10
92.711920295536402
 20
293.46378786782128
 30
0.0
  0
VERTEX
  5
275E6
  8
0
 10
92.655110243566114
 20
293.50247969602611
 30
0.0
  0
VERTEX
  5
275E7
  8
0
 10
92.559943065072844
 20
293.55927332809551
 30
0.0
  0
VERTEX
  5
275E8
  8
0
 10
92.468213543703314
 20
293.60550577154117
 30
0.0
  0
VERTEX
  5
275E9
  8
0
 10
92.380577652761076
 20
293.64264746700343
 30
0.0
  0
VERTEX
  5
275EA
  8
0
 10
92.338487956772937
 20
293.65821098703782
 30
0.0
  0
VERTEX
  5
275EB
  8
0
 10
92.297641889486158
 20
293.6719672339496
 30
0.0
  0
VERTEX
  5
275EC
  8
0
 10
92.219927840713126
 20
293.69460898743358
 30
0.0
  0
VERTEX
  5
275ED
  8
0
 10
92.147889926716047
 20
293.7116160036739
 30
0.0
  0
VERTEX
  5
275EE
  8
0
 10
92.0819198494803
 20
293.72394737665218
 30
0.0
  0
VERTEX
  5
275EF
  8
0
 10
92.022356679581776
 20
293.7324845275071
 30
0.0
  0
VERTEX
  5
275F0
  8
0
 10
91.96947667007089
 20
293.73803479408429
 30
0.0
  0
VERTEX
  5
275F1
  8
0
 10
91.945609278222037
 20
293.73992116706359
 30
0.0
  0
VERTEX
  5
275F2
  8
0
 10
91.923483996314417
 20
293.741328033233
 30
0.0
  0
VERTEX
  5
275F3
  8
0
 10
91.884515286282749
 20
293.74300896893419
 30
0.0
  0
VERTEX
  5
275F4
  8
0
 10
91.852638433575166
 20
293.74362997510622
 30
0.0
  0
VERTEX
  5
275F5
  8
0
 10
91.839361932243946
 20
293.74368873141981
 30
0.0
  0
SEQEND
  5
275F6
  8
0
  0
LINE
  5
2236B
  8
0
 10
147.79496732345521
 20
295.74368873141981
 30
0.0
 11
62.794967323455239
 21
295.74368873141981
 31
0.0
  0
LINE
  5
2236C
  8
0
 10
102.2949673234552
 20
264.74368873141981
 30
0.0
 11
108.2949673234552
 21
264.74368873141981
 31
0.0
  0
LINE
  5
2236D
  8
0
 10
108.2949673234552
 20
139.7436887314197
 30
0.0
 11
102.2949673234552
 21
139.7436887314197
 31
0.0
  0
ARC
  5
2236E
  8
0
 10
102.2949673234552
 20
140.04368873141991
 30
0.0
 40
0.3000000000000185
 50
180.0
 51
270.0
  0
ARC
  5
2236F
  8
0
 10
102.2949673234552
 20
264.44368873141963
 30
0.0
 40
0.300000000000014
 50
90.0
 51
180.0
  0
LINE
  5
22370
  8
0
 10
99.594967323455194
 20
264.44368873141963
 30
0.0
 11
101.9949673234552
 21
264.44368873141963
 31
0.0
  0
LINE
  5
22371
  8
0
 10
101.9949673234552
 20
140.04368873141991
 30
0.0
 11
99.594967323455194
 21
140.04368873141991
 31
0.0
  0
ARC
  5
22372
  8
0
 10
99.294967323455239
 20
140.04368873141991
 30
0.0
 40
0.2999999999999998
 50
270.0
 51
0.0
  0
ARC
  5
22373
  8
0
 10
99.294967323455239
 20
264.44368873141963
 30
0.0
 40
0.2999999999999971
 50
0.0
 51
90.0
  0
LINE
  5
22374
  8
0
 10
95.866450723593857
 20
264.74368873141981
 30
0.0
 11
99.294967323455239
 21
264.74368873141981
 31
0.0
  0
LINE
  5
22375
  8
0
 10
99.294967323455239
 20
139.7436887314197
 30
0.0
 11
95.866450723593857
 21
139.7436887314197
 31
0.0
  0
ARC
  5
22376
  8
0
 10
95.866450723593857
 20
140.7436887314197
 30
0.0
 40
1.0000000000000211
 50
198.9999999999882
 51
270.0
  0
ARC
  5
22377
  8
0
 10
95.866450723593857
 20
263.74368873141981
 30
0.0
 40
1.0000000000000211
 50
90.0
 51
161.0000000000118
  0
LINE
  5
22378
  8
0
 10
93.512506762778116
 20
259.9788925617367
 30
0.0
 11
94.920932147994563
 21
264.06925688587671
 31
0.0
  0
LINE
  5
22379
  8
0
 10
94.920932147994563
 20
140.41812057696279
 30
0.0
 11
93.512506762778116
 21
144.50848490110269
 31
0.0
  0
ARC
  5
2237A
  8
0
 10
96.349062489575999
 20
145.48518936447451
 30
0.0
 40
2.999999999999917
 50
179.99999914622629
 51
198.9999999999882
  0
ARC
  5
2237B
  8
0
 10
96.349062489575999
 20
259.00218809836502
 30
0.0
 40
2.9999999999999591
 50
161.0000000000118
 51
180.0
  0
ARC
  5
2237C
  8
0
 10
92.724062489575985
 20
146.79829333577749
 30
0.0
 40
0.625
 50
180.0
 51
0.0
  0
ARC
  5
2237D
  8
0
 10
92.724062489575985
 20
257.68908412706151
 30
0.0
 40
0.625
 50
0.0
 51
180.0
  0
ARC
  5
2237E
  8
0
 10
91.474062489575985
 20
150.4285569328722
 30
0.0
 40
0.625
 50
180.0
 51
0.0
  0
ARC
  5
2237F
  8
0
 10
91.474062489575985
 20
254.05882052996731
 30
0.0
 40
0.625
 50
0.0
 51
180.0
  0
LINE
  5
22380
  8
0
 10
86.708411596657257
 20
240.21836536754651
 30
0.0
 11
90.849062489575985
 21
252.24368873141981
 31
0.0
  0
LINE
  5
22381
  8
0
 10
90.849062489575985
 20
152.2436887314197
 30
0.0
 11
86.708411596657257
 21
164.26901209529251
 31
0.0
  0
ARC
  5
22382
  8
0
 10
89.544967323455467
 20
165.24571655866379
 30
0.0
 40
3.0000000000001941
 50
179.99999914622629
 51
198.9999999999882
  0
ARC
  5
22383
  8
0
 10
89.544967323455467
 20
239.2416609041756
 30
0.0
 40
3.000000000000191
 50
161.0000000000118
 51
179.99999914622629
  0
ARC
  5
22384
  8
0
 10
121.04496732345569
 20
165.24571655866379
 30
0.0
 40
2.9999999999995999
 50
341.00000000001182
 51
0.0000008537736463
  0
ARC
  5
22385
  8
0
 10
121.04496732345569
 20
239.2416609041756
 30
0.0
 40
2.999999999999599
 50
0.0000008537736463
 51
18.999999999988169
  0
LINE
  5
22386
  8
0
 10
119.74087215733449
 20
252.24368873141981
 30
0.0
 11
123.88152305025319
 21
240.21836536754651
 31
0.0
  0
LINE
  5
22387
  8
0
 10
123.88152305025319
 20
164.26901209529251
 30
0.0
 11
119.74087215733449
 21
152.2436887314197
 31
0.0
  0
ARC
  5
22388
  8
0
 10
119.11587215733449
 20
150.4285569328722
 30
0.0
 40
0.625
 50
180.0
 51
0.0
  0
ARC
  5
22389
  8
0
 10
119.11587215733449
 20
254.05882052996731
 30
0.0
 40
0.625
 50
0.0
 51
180.0
  0
ARC
  5
2238A
  8
0
 10
117.86587215733449
 20
146.79829333577749
 30
0.0
 40
0.625
 50
180.0
 51
0.0
  0
ARC
  5
2238B
  8
0
 10
117.86587215733449
 20
257.68908412706151
 30
0.0
 40
0.625
 50
0.0
 51
180.0
  0
ARC
  5
2238C
  8
0
 10
114.24087215733439
 20
145.48518936447451
 30
0.0
 40
2.9999999999999338
 50
341.00000000001182
 51
0.0
  0
ARC
  5
2238D
  8
0
 10
114.24087215733439
 20
259.00218809836502
 30
0.0
 40
2.9999999999999369
 50
0.0
 51
18.999999999988169
  0
LINE
  5
2238E
  8
0
 10
115.6690024989159
 20
264.06925688587671
 30
0.0
 11
117.07742788413231
 21
259.9788925617367
 31
0.0
  0
LINE
  5
2238F
  8
0
 10
117.07742788413231
 20
144.50848490110269
 30
0.0
 11
115.6690024989159
 21
140.41812057696279
 31
0.0
  0
ARC
  5
22390
  8
0
 10
114.72348392331661
 20
140.7436887314197
 30
0.0
 40
1.0000000000000211
 50
270.0
 51
341.00000000001182
  0
ARC
  5
22391
  8
0
 10
114.72348392331661
 20
263.74368873141981
 30
0.0
 40
1.0000000000000211
 50
18.999999999988169
 51
90.0
  0
LINE
  5
22392
  8
0
 10
111.2949673234552
 20
264.74368873141981
 30
0.0
 11
114.72348392331661
 21
264.74368873141981
 31
0.0
  0
LINE
  5
22393
  8
0
 10
114.72348392331661
 20
139.7436887314197
 30
0.0
 11
111.2949673234552
 21
139.7436887314197
 31
0.0
  0
ARC
  5
22394
  8
0
 10
111.2949673234552
 20
140.04368873141991
 30
0.0
 40
0.3000000000000185
 50
180.0
 51
270.0
  0
ARC
  5
22395
  8
0
 10
111.2949673234552
 20
264.44368873141963
 30
0.0
 40
0.300000000000014
 50
90.0
 51
180.0
  0
LINE
  5
22396
  8
0
 10
108.59496732345519
 20
264.44368873141963
 30
0.0
 11
110.9949673234553
 21
264.44368873141963
 31
0.0
  0
LINE
  5
22397
  8
0
 10
110.9949673234553
 20
140.04368873141991
 30
0.0
 11
108.59496732345519
 21
140.04368873141991
 31
0.0
  0
ARC
  5
22398
  8
0
 10
108.2949673234552
 20
140.04368873141991
 30
0.0
 40
0.3000000000000003
 50
270.0
 51
0.0
  0
ARC
  5
22399
  8
0
 10
108.2949673234552
 20
264.44368873141963
 30
0.0
 40
0.3000000000000043
 50
0.0
 51
90.0
  0
LINE
  5
2239A
  8
0
 10
101.9949673234552
 20
140.04368873141991
 30
0.0
 11
101.9949673234552
 21
264.44368873141963
 31
0.0
  0
LINE
  5
2239B
  8
0
 10
99.594967323455194
 20
140.04368873141991
 30
0.0
 11
99.594967323455194
 21
264.44368873141963
 31
0.0
  0
LINE
  5
2239C
  8
0
 10
93.349062489575985
 20
145.48518936447451
 30
0.0
 11
93.349062489575985
 21
259.00218809836502
 31
0.0
  0
LINE
  5
2239D
  8
0
 10
92.099062489575985
 20
146.79829333577749
 30
0.0
 11
92.099062489575985
 21
257.68908412706151
 31
0.0
  0
LINE
  5
2239E
  8
0
 10
90.849062489575985
 20
150.4285569328722
 30
0.0
 11
90.849062489575985
 21
254.05882052996731
 31
0.0
  0
LINE
  5
2239F
  8
0
 10
86.544967323455239
 20
165.24571655866379
 30
0.0
 11
86.544967323455239
 21
239.2416609041756
 31
0.0
  0
LINE
  5
223A0
  8
0
 10
119.74087215733449
 20
150.4285569328722
 30
0.0
 11
119.74087215733449
 21
254.05882052996731
 31
0.0
  0
LINE
  5
223A1
  8
0
 10
118.49087215733449
 20
146.79829333577749
 30
0.0
 11
118.49087215733449
 21
257.68908412706151
 31
0.0
  0
LINE
  5
223A2
  8
0
 10
117.24087215733439
 20
145.48518936447451
 30
0.0
 11
117.24087215733439
 21
259.00218809836502
 31
0.0
  0
LINE
  5
223A3
  8
0
 10
110.9949673234553
 20
140.04368873141991
 30
0.0
 11
110.9949673234553
 21
264.44368873141963
 31
0.0
  0
LINE
  5
223A4
  8
0
 10
108.59496732345519
 20
140.04368873141991
 30
0.0
 11
108.59496732345519
 21
264.44368873141963
 31
0.0
  0
LINE
  5
223A5
  8
0
 10
124.0449673234552
 20
165.24571655866379
 30
0.0
 11
124.0449673234552
 21
239.2416609041756
 31
0.0
  0
LINE
  5
223A6
  8
3
 10
70.294967323455239
 20
199.01068873141961
 30
0.0
 11
72.794967323455239
 21
199.01068873141961
 31
0.0
  0
LINE
  5
223A7
  8
1
 10
148.5793653522631
 20
202.24368873141981
 30
0.0
 11
62.010569294646409
 21
202.24368873141981
 31
0.0
  0
LINE
  5
223A8
  8
1
 10
105.2949673234548
 20
123.78423335724619
 30
0.0
 11
105.2949673234548
 21
311.7031441055924
 31
0.0
  0
TEXT
  5
26E76
  8
0
 62
     3
 10
0.0
 20
0.0
 30
0.0
 40
10.0
  1
CAE2-125PBL
  7
STANDARD1
  0
ENDSEC
  0
EOF
