  0
SECTION
  2
HEADER
  9
$ACADVER
  1
AC1009
  9
$INSBASE
 10
0.0
 20
0.0
 30
0.0
  9
$EXTMIN
 10
0.0
 20
-2.960436562073669
 30
0.0
  9
$EXTMAX
 10
611.37739324007748
 20
489.657033335763
 30
0.0
  9
$LIMMIN
 10
0.0
 20
0.0
  9
$LIMMAX
 10
375.0
 20
270.0
  9
$ORTHOMODE
 70
     1
  9
$REGENMODE
 70
     1
  9
$FILLMODE
 70
     1
  9
$QTEXTMODE
 70
     0
  9
$MIRRTEXT
 70
     1
  9
$DRAGMODE
 70
     2
  9
$LTSCALE
 40
10.0
  9
$OSMODE
 70
  3071
  9
$ATTMODE
 70
     1
  9
$TEXTSIZE
 40
5.0
  9
$TRACEWID
 40
0.05
  9
$TEXTSTYLE
  7
STANDARD
  9
$CLAYER
  8
0
  9
$CELTYPE
  6
BYLAYER
  9
$CECOLOR
 62
     6
  9
$DIMSCALE
 40
2.0
  9
$DIMASZ
 40
3.0
  9
$DIMEXO
 40
2.0
  9
$DIMDLI
 40
0.38
  9
$DIMRND
 40
0.0
  9
$DIMDLE
 40
0.0
  9
$DIMEXE
 40
2.0
  9
$DIMTP
 40
0.0
  9
$DIMTM
 40
0.0
  9
$DIMTXT
 40
3.2000000000000002
  9
$DIMCEN
 40
0.0
  9
$DIMTSZ
 40
0.0
  9
$DIMTOL
 70
     0
  9
$DIMLIM
 70
     0
  9
$DIMTIH
 70
     0
  9
$DIMTOH
 70
     0
  9
$DIMSE1
 70
     0
  9
$DIMSE2
 70
     0
  9
$DIMTAD
 70
     1
  9
$DIMZIN
 70
     8
  9
$DIMBLK
  1

  9
$DIMASO
 70
     0
  9
$DIMSHO
 70
     0
  9
$DIMPOST
  1

  9
$DIMAPOST
  1

  9
$DIMALT
 70
     0
  9
$DIMALTD
 70
     2
  9
$DIMALTF
 40
25.399999999999999
  9
$DIMLFAC
 40
1.0
  9
$DIMTOFL
 70
     0
  9
$DIMTVP
 40
1.6000000000000001
  9
$DIMTIX
 70
     1
  9
$DIMSOXD
 70
     0
  9
$DIMSAH
 70
     0
  9
$DIMBLK1
  1

  9
$DIMBLK2
  1

  9
$DIMSTYLE
  2
STANDARD
  9
$DIMCLRD
 70
     0
  9
$DIMCLRE
 70
     0
  9
$DIMCLRT
 70
     0
  9
$DIMTFAC
 40
1.0
  9
$DIMGAP
 40
1.1999999999999991
  9
$LUNITS
 70
     2
  9
$LUPREC
 70
     4
  9
$SKETCHINC
 40
0.1
  9
$FILLETRAD
 40
0.0
  9
$AUNITS
 70
     0
  9
$AUPREC
 70
     4
  9
$MENU
  1
ACAD
  9
$ELEVATION
 40
0.0
  9
$PELEVATION
 40
0.0
  9
$THICKNESS
 40
0.0
  9
$LIMCHECK
 70
     0
  9
$BLIPMODE
 70
     0
  9
$CHAMFERA
 40
0.0
  9
$CHAMFERB
 40
0.0
  9
$SKPOLY
 70
     0
  9
$TDCREATE
 40
2448055.7149187499
  9
$TDUPDATE
 40
2456598.5584977092
  9
$TDINDWG
 40
2.7346104166999998
  9
$TDUSRTIMER
 40
2.7346104166999998
  9
$USRTIMER
 70
     1
  9
$ANGBASE
 50
0.0
  9
$ANGDIR
 70
     0
  9
$PDMODE
 70
     0
  9
$PDSIZE
 40
0.0
  9
$PLINEWID
 40
0.0
  9
$COORDS
 70
     1
  9
$SPLFRAME
 70
     0
  9
$SPLINETYPE
 70
     6
  9
$SPLINESEGS
 70
     8
  9
$ATTDIA
 70
     0
  9
$ATTREQ
 70
     1
  9
$HANDLING
 70
     1
  9
$HANDSEED
  5
27741
  9
$SURFTAB1
 70
     6
  9
$SURFTAB2
 70
     6
  9
$SURFTYPE
 70
     6
  9
$SURFU
 70
     6
  9
$SURFV
 70
     6
  9
$UCSNAME
  2

  9
$UCSORG
 10
0.0
 20
0.0
 30
0.0
  9
$UCSXDIR
 10
1.0
 20
0.0
 30
0.0
  9
$UCSYDIR
 10
0.0
 20
1.0
 30
0.0
  9
$PUCSNAME
  2

  9
$PUCSORG
 10
0.0
 20
0.0
 30
0.0
  9
$PUCSXDIR
 10
1.0
 20
0.0
 30
0.0
  9
$PUCSYDIR
 10
0.0
 20
1.0
 30
0.0
  9
$USERI1
 70
     0
  9
$USERI2
 70
     0
  9
$USERI3
 70
     0
  9
$USERI4
 70
     0
  9
$USERI5
 70
     0
  9
$USERR1
 40
0.0
  9
$USERR2
 40
0.0
  9
$USERR3
 40
0.0
  9
$USERR4
 40
0.0
  9
$USERR5
 40
0.0
  9
$WORLDVIEW
 70
     1
  9
$SHADEDGE
 70
     3
  9
$SHADEDIF
 70
    70
  9
$TILEMODE
 70
     1
  9
$MAXACTVP
 70
    16
  9
$PLIMCHECK
 70
     0
  9
$PEXTMIN
 10
1.0000000000000000E+020
 20
1.0000000000000000E+020
 30
1.0000000000000000E+020
  9
$PEXTMAX
 10
-1.0000000000000000E+020
 20
-1.0000000000000000E+020
 30
-1.0000000000000000E+020
  9
$PLIMMIN
 10
0.0
 20
0.0
  9
$PLIMMAX
 10
12.0
 20
9.0
  9
$UNITMODE
 70
     0
  9
$VISRETAIN
 70
     0
  9
$PLINEGEN
 70
     1
  9
$PSLTSCALE
 70
     0
  0
ENDSEC
  0
SECTION
  2
TABLES
  0
TABLE
  2
VPORT
 70
     1
  0
VPORT
  2
*ACTIVE
 70
     0
 10
0.0
 20
0.0
 11
1.0
 21
1.0
 12
319.33917033655808
 22
243.35288206276891
 13
0.0
 23
0.0
 14
5.0
 24
5.0
 15
10.0
 25
10.0
 16
0.0
 26
0.0
 36
1.0
 17
0.0
 27
0.0
 37
0.0
 40
497.05647086068882
 41
1.831871345029239
 42
50.0
 43
0.0
 44
0.0
 50
0.0
 51
0.0
 71
     0
 72
   500
 73
     1
 74
     1
 75
     0
 76
     0
 77
     0
 78
     2
  0
ENDTAB
  0
TABLE
  2
LTYPE
 70
     3
  0
LTYPE
  2
CONTINUOUS
 70
     0
  3
実線
 72
    65
 73
     0
 40
0.0
  0
LTYPE
  2
CENTER
 70
     0
  3
____ _ ____ _ ____ _ ____ _ ____ _ ____ _ ____
 72
    65
 73
     4
 40
2.0
 49
1.25
 49
-0.25
 49
0.25
 49
-0.25
  0
LTYPE
  2
PHANTOM2
 70
     0
  3
___ _ _ ___ _ _ ___ _ _ ___ _ _
 72
    65
 73
     6
 40
1.25
 49
0.625
 49
-0.125
 49
0.125
 49
-0.125
 49
0.125
 49
-0.125
  0
ENDTAB
  0
TABLE
  2
LAYER
 70
     4
  0
LAYER
  2
0
 70
     0
 62
     7
  6
CONTINUOUS
  0
LAYER
  2
1
 70
     0
 62
     1
  6
CENTER
  0
LAYER
  2
DEFPOINTS
 70
     0
 62
     7
  6
CONTINUOUS
  0
LAYER
  2
3
 70
     0
 62
     3
  6
CONTINUOUS
  0
ENDTAB
  0
TABLE
  2
STYLE
 70
     3
  0
STYLE
  2
STANDARD
 70
     0
 40
0.0
 41
1.0
 50
0.0
 71
     0
 42
5.0
  3
simplex.shx
  4
bigfont.shx
  0
STYLE
  2
07500
 70
     0
 40
0.0
 41
0.75
 50
0.0
 71
     0
 42
0.2
  3
simplex.shx
  4
bigfont.shx
  0
STYLE
  2
STANDARD1
 70
     0
 40
0.0
 41
1.0
 50
0.0
 71
     0
 42
3.0
  3
txt
  4

  0
ENDTAB
  0
TABLE
  2
VIEW
 70
     2
  0
VIEW
  2
ALL
 70
     0
 40
270.0
 10
220.99159663865549
 20
135.0
 41
0.0
 11
0.0
 21
0.0
 31
1.0
 12
0.0
 22
0.0
 32
0.0
 42
0.0
 43
0.0
 44
0.0
 50
0.0
 71
     0
  0
VIEW
  2
OLE1
 70
     0
 40
168.2487151179721
 10
2892.3009567448912
 20
702.51600084347126
 41
162.5749581879237
 11
0.0
 21
0.0
 31
1.0
 12
0.0
 22
0.0
 32
0.0
 42
50.0
 43
0.0
 44
0.0
 50
0.0
 71
     0
  0
ENDTAB
  0
TABLE
  2
UCS
 70
     0
  0
ENDTAB
  0
TABLE
  2
APPID
 70
    48
  0
APPID
  2
ACAD
 70
     0
  0
APPID
  2
DCO15
 70
     0
  0
APPID
  2
GENIUS_GENOREF_13
 70
     0
  0
APPID
  2
GENIUS_GENOENT_13
 70
     0
  0
APPID
  2
GENIUS_GENBH_13
 70
     0
  0
APPID
  2
GENIUS_GENOBJ_13
 70
     0
  0
APPID
  2
GENIUS_GENODEF_13
 70
     0
  0
APPID
  2
GENIUS_GENOLIS_13
 70
     0
  0
APPID
  2
GENIUS_GENOBJ-NBEHI-BHF_13
 70
     0
  0
APPID
  2
GENIUS_GENOBJ-NBEHI-BHB_13
 70
     0
  0
APPID
  2
GENIUS_GENOBJ-F-PART_13
 70
     0
  0
APPID
  2
GENIUS_GEFSTDP_13
 70
     0
  0
APPID
  2
GENIUS_GENOBJ-N-RSSYM_13
 70
     0
  0
APPID
  2
GENIUS_GENSYMENT_13
 70
     0
  0
APPID
  2
GENIUS_GENOBJ-N-TIT_13
 70
     0
  0
APPID
  2
GENIUS_GENTITLE_13
 70
     0
  0
APPID
  2
GENIUS_GENZVEED_13
 70
     0
  0
APPID
  2
GENIUS_GENOBJ-N-LEADER_13
 70
     0
  0
APPID
  2
GENIUS_GENOBJ-N-FIL_13
 70
     0
  0
APPID
  2
GENIUS_GENOBJ-N-SEC_13
 70
     0
  0
APPID
  2
GENIUS_GENOBJ-N-CRS_13
 70
     0
  0
APPID
  2
GENIUS_GENOBJ-N-ZOO_13
 70
     0
  0
APPID
  2
GENIUS_GENZOO_13
 70
     0
  0
APPID
  2
GENIUS_GENOBJ-F-TOL_13
 70
     0
  0
APPID
  2
GENIUS_GENFIL_13
 70
     0
  0
APPID
  2
GENIUS_GENOBJ-N-CHA_13
 70
     0
  0
APPID
  2
_CALL_MAC$
 70
     0
  0
APPID
  2
ASM_BASE
 70
     0
  0
APPID
  2
ASM_EXPLO_VER_2_00
 70
     0
  0
APPID
  2
ASM_CADM_VER_12_00
 70
     0
  0
APPID
  2
ASM_BASEFORO
 70
     0
  0
APPID
  2
ASM_BASETRAVI
 70
     0
  0
APPID
  2
ASM_BASETRAVI1
 70
     0
  0
APPID
  2
ASM_GRUPPI
 70
     0
  0
APPID
  2
ASM_CADM_ALBERO
 70
     0
  0
APPID
  2
ASM_GOLE
 70
     0
  0
APPID
  2
ACAD_MLEADERVER
 70
     0
  0
APPID
  2
ACAD_DSTYLE_DIMJAG
 70
     0
  0
APPID
  2
ACAD_DSTYLE_DIMTALN
 70
     0
  0
APPID
  2
ACAD_EXEMPT_FROM_CAD_STANDARDS
 70
     0
  0
APPID
  2
ACAD_DSTYLE_DIMRADIAL_EXTENSION
 70
     0
  0
APPID
  2
ACAD_PSEXT
 70
     0
  0
APPID
  2
ACAD_DSTYLE_DIMBREAK
 70
     0
  0
APPID
  2
ACAECLAYERSTANDARD
 70
     0
  0
APPID
  2
ACCMTRANSPARENCY
 70
     0
  0
APPID
  2
GRADIENTCOLOR1ACI
 70
     0
  0
APPID
  2
GRADIENTCOLOR2ACI
 70
     0
  0
APPID
  2
ACAD_NAV_VCDISPLAY
 70
     0
  0
ENDTAB
  0
TABLE
  2
DIMSTYLE
 70
     1
  0
DIMSTYLE
  2
STANDARD
 70
     0
  3

  4

  5

  6

  7

 40
1.0
 41
0.18
 42
0.0625
 43
0.38
 44
0.18
 45
0.0
 46
0.0
 47
0.0
 48
0.0
140
0.18
141
0.09
142
0.0
143
25.399999999999999
144
1.0
145
0.0
146
1.0
147
0.09
 71
     0
 72
     0
 73
     1
 74
     1
 75
     0
 76
     0
 77
     0
 78
     0
170
     0
171
     2
172
     0
173
     0
174
     0
175
     0
176
     0
177
     0
178
     0
  0
ENDTAB
  0
ENDSEC
  0
SECTION
  2
BLOCKS
  0
BLOCK
  8
0
  2
$MODEL_SPACE
 70
     0
 10
0.0
 20
0.0
 30
0.0
  3
$MODEL_SPACE
  1

  0
ENDBLK
  5
36
  8
0
  0
BLOCK
 67
     1
  8
0
  2
$PAPER_SPACE
 70
     0
 10
0.0
 20
0.0
 30
0.0
  3
$PAPER_SPACE
  1

  0
ENDBLK
  5
34
 67
     1
  8
0
  0
ENDSEC
  0
SECTION
  2
ENTITIES
  0
LINE
  5
1CD3F
  8
0
 10
313.08731598404762
 20
409.17251748445949
 30
0.0
 11
313.08731598404762
 21
409.77251748445991
 31
0.0
  0
LINE
  5
1CD40
  8
0
 10
314.90231598404762
 20
467.77251748445991
 30
0.0
 11
314.90231598404762
 21
469.00551748446009
 31
0.0
  0
LINE
  5
1CD41
  8
0
 10
314.90231598404762
 20
469.00551748446009
 30
0.0
 11
315.0965969619686
 21
469.19979846238027
 31
0.0
  0
LINE
  5
1CD42
  8
0
 10
313.08731598404762
 20
465.27251748445991
 30
0.0
 11
313.08731598404762
 21
467.77251748445991
 31
0.0
  0
LINE
  5
1CD43
  8
0
 10
314.90231598404762
 20
469.00551748446009
 30
0.0
 11
317.42842753974128
 21
469.00551748446009
 31
0.0
  0
LINE
  5
1CD44
  8
0
 10
312.64398265071418
 20
404.47251748445979
 30
0.0
 11
320.5473533220736
 21
404.47251748445979
 31
0.0
  0
LINE
  5
1CD45
  8
0
 10
312.64398265071418
 20
409.17251748445949
 30
0.0
 11
322.11444017364971
 21
409.17251748445949
 31
0.0
  0
LINE
  5
1CD46
  8
0
 10
312.64398265071418
 20
404.47251748445979
 30
0.0
 11
312.64398265071418
 21
409.17251748445949
 31
0.0
  0
POLYLINE
  5
1CD47
  8
0
 66
     1
 10
0.0
 20
0.0
 30
0.0
  0
VERTEX
  5
27309
  8
0
 10
322.03148265071422
 20
409.17251748445949
 30
0.0
  0
VERTEX
  5
2730A
  8
0
 10
321.5290448987987
 20
409.1653273508399
 30
0.0
  0
VERTEX
  5
2730B
  8
0
 10
320.52028435488643
 20
409.10855276705558
 30
0.0
  0
VERTEX
  5
2730C
  8
0
 10
319.46449446216252
 20
408.99394242830198
 30
0.0
  0
VERTEX
  5
2730D
  8
0
 10
318.90231598404762
 20
408.9130977750446
 30
0.0
  0
SEQEND
  5
2730E
  8
0
  0
POLYLINE
  5
1CD48
  8
0
 66
     1
 10
0.0
 20
0.0
 30
0.0
  0
VERTEX
  5
2730F
  8
0
 10
318.90231598404762
 20
404.73193719387558
 30
0.0
  0
VERTEX
  5
27310
  8
0
 10
319.1954619174644
 20
404.68821803474202
 30
0.0
  0
VERTEX
  5
27311
  8
0
 10
319.7598589543959
 20
404.61385214856449
 30
0.0
  0
VERTEX
  5
27312
  8
0
 10
320.30166470085032
 20
404.55585558094299
 30
0.0
  0
VERTEX
  5
27313
  8
0
 10
320.56639845914771
 20
404.53270453047838
 30
0.0
  0
SEQEND
  5
27314
  8
0
  0
LINE
  5
1CD49
  8
0
 10
322.11270276843362
 20
409.17232920395588
 30
0.0
 11
322.03148265071422
 21
409.17251748445949
 31
0.0
  0
POLYLINE
  5
1CD4A
  8
0
 66
     1
 10
0.0
 20
0.0
 30
0.0
  0
VERTEX
  5
27315
  8
0
 10
315.77314931738101
 20
409.17251748445949
 30
0.0
  0
VERTEX
  5
27316
  8
0
 10
315.27071156546549
 20
409.1653273508399
 30
0.0
  0
VERTEX
  5
27317
  8
0
 10
314.26195102155322
 20
409.10855276705558
 30
0.0
  0
VERTEX
  5
27318
  8
0
 10
313.20616112882908
 20
408.99394242830198
 30
0.0
  0
VERTEX
  5
27319
  8
0
 10
312.64398265071418
 20
408.9130977750446
 30
0.0
  0
SEQEND
  5
2731A
  8
0
  0
POLYLINE
  5
1CD4B
  8
0
 66
     1
 10
0.0
 20
0.0
 30
0.0
  0
VERTEX
  5
2731B
  8
0
 10
312.64398265071418
 20
404.73193719387558
 30
0.0
  0
VERTEX
  5
2731C
  8
0
 10
313.20616112882908
 20
404.6510925406173
 30
0.0
  0
VERTEX
  5
2731D
  8
0
 10
314.26195102155322
 20
404.53648220186369
 30
0.0
  0
VERTEX
  5
2731E
  8
0
 10
315.27071156546549
 20
404.47970761807937
 30
0.0
  0
VERTEX
  5
2731F
  8
0
 10
315.77314931738101
 20
404.47251748445979
 30
0.0
  0
SEQEND
  5
27320
  8
0
  0
POLYLINE
  5
1CD4C
  8
0
 66
     1
 10
0.0
 20
0.0
 30
0.0
  0
VERTEX
  5
27321
  8
0
 10
315.77314931738101
 20
404.47251748445979
 30
0.0
  0
VERTEX
  5
27322
  8
0
 10
316.27558706929648
 20
404.47970761807937
 30
0.0
  0
VERTEX
  5
27323
  8
0
 10
317.28434761320892
 20
404.53648220186369
 30
0.0
  0
VERTEX
  5
27324
  8
0
 10
318.34013750593272
 20
404.6510925406173
 30
0.0
  0
VERTEX
  5
27325
  8
0
 10
318.90231598404762
 20
404.73193719387558
 30
0.0
  0
SEQEND
  5
27326
  8
0
  0
LINE
  5
1CD4D
  8
0
 10
318.90231598404762
 20
404.73193719387558
 30
0.0
 11
318.90231598404762
 21
408.9130977750446
 31
0.0
  0
POLYLINE
  5
1CD4E
  8
0
 66
     1
 10
0.0
 20
0.0
 30
0.0
  0
VERTEX
  5
27327
  8
0
 10
318.90231598404762
 20
408.9130977750446
 30
0.0
  0
VERTEX
  5
27328
  8
0
 10
318.34013750593272
 20
408.99394242830198
 30
0.0
  0
VERTEX
  5
27329
  8
0
 10
317.28434761320892
 20
409.10855276705558
 30
0.0
  0
VERTEX
  5
2732A
  8
0
 10
316.27558706929648
 20
409.1653273508399
 30
0.0
  0
VERTEX
  5
2732B
  8
0
 10
315.77314931738101
 20
409.17251748445949
 30
0.0
  0
SEQEND
  5
2732C
  8
0
  0
LINE
  5
1CD4F
  8
0
 10
313.08731598404762
 20
467.77251748445991
 30
0.0
 11
319.25676755274748
 21
467.77251748445991
 31
0.0
  0
LINE
  5
1CD50
  8
0
 10
312.64398265071418
 20
465.27251748445991
 30
0.0
 11
320.48019006956662
 21
465.27251748445991
 31
0.0
  0
LINE
  5
1CD51
  8
0
 10
312.64398265071418
 20
460.31726801370218
 30
0.0
 11
312.64398265071418
 21
465.27251748445991
 31
0.0
  0
POLYLINE
  5
1CD52
  8
0
 66
     1
 10
0.0
 20
0.0
 30
0.0
  0
VERTEX
  5
2732D
  8
0
 10
320.50136746472299
 20
465.20697166993699
 30
0.0
  0
VERTEX
  5
2732E
  8
0
 10
320.24677211729983
 20
465.18394129165779
 30
0.0
  0
VERTEX
  5
2732F
  8
0
 10
319.72576666665873
 20
465.12707946095537
 30
0.0
  0
VERTEX
  5
27330
  8
0
 10
319.18356150820023
 20
465.05510705057799
 30
0.0
  0
VERTEX
  5
27331
  8
0
 10
318.90231598404762
 20
465.01309777504412
 30
0.0
  0
SEQEND
  5
27332
  8
0
  0
POLYLINE
  5
1CD53
  8
0
 66
     1
 10
0.0
 20
0.0
 30
0.0
  0
VERTEX
  5
27333
  8
0
 10
318.90231598404762
 20
460.0319371938748
 30
0.0
  0
VERTEX
  5
27334
  8
0
 10
319.4644944621582
 20
459.95109254061748
 30
0.0
  0
VERTEX
  5
27335
  8
0
 10
320.52028435487478
 20
459.83648220186473
 30
0.0
  0
VERTEX
  5
27336
  8
0
 10
321.5290448987796
 20
459.77970761808041
 30
0.0
  0
VERTEX
  5
27337
  8
0
 10
322.03148265069132
 20
459.77251748445991
 30
0.0
  0
SEQEND
  5
27338
  8
0
  0
LINE
  5
1CD54
  8
0
 10
322.03148265071422
 20
459.77251748445991
 30
0.0
 11
322.31230805940299
 21
459.77476697467313
 31
0.0
  0
POLYLINE
  5
1CD55
  8
0
 66
     1
 10
0.0
 20
0.0
 30
0.0
  0
VERTEX
  5
27339
  8
0
 10
315.77314931738101
 20
465.27251748445991
 30
0.0
  0
VERTEX
  5
2733A
  8
0
 10
315.27071156546549
 20
465.26532735083941
 30
0.0
  0
VERTEX
  5
2733B
  8
0
 10
314.26195102155322
 20
465.2085527670551
 30
0.0
  0
VERTEX
  5
2733C
  8
0
 10
313.20616112882908
 20
465.09394242830228
 30
0.0
  0
VERTEX
  5
2733D
  8
0
 10
312.64398265071418
 20
465.01309777504412
 30
0.0
  0
SEQEND
  5
2733E
  8
0
  0
POLYLINE
  5
1CD56
  8
0
 66
     1
 10
0.0
 20
0.0
 30
0.0
  0
VERTEX
  5
2733F
  8
0
 10
312.74781927338609
 20
460.01607516605958
 30
0.0
  0
VERTEX
  5
27340
  8
0
 10
313.28849144318912
 20
459.94033262972152
 30
0.0
  0
VERTEX
  5
27341
  8
0
 10
314.30817605442849
 20
459.83269557458152
 30
0.0
  0
VERTEX
  5
27342
  8
0
 10
315.28580704006549
 20
459.779282915816
 30
0.0
  0
VERTEX
  5
27343
  8
0
 10
315.7731493172962
 20
459.77251748445991
 30
0.0
  0
SEQEND
  5
27344
  8
0
  0
POLYLINE
  5
1CD57
  8
0
 66
     1
 10
0.0
 20
0.0
 30
0.0
  0
VERTEX
  5
27345
  8
0
 10
315.77314931738101
 20
459.77251748445991
 30
0.0
  0
VERTEX
  5
27346
  8
0
 10
316.27558706929648
 20
459.7797076180795
 30
0.0
  0
VERTEX
  5
27347
  8
0
 10
317.28434761320892
 20
459.83648220186387
 30
0.0
  0
VERTEX
  5
27348
  8
0
 10
318.34013750593272
 20
459.95109254061748
 30
0.0
  0
VERTEX
  5
27349
  8
0
 10
318.90231598404762
 20
460.0319371938748
 30
0.0
  0
SEQEND
  5
2734A
  8
0
  0
LINE
  5
1CD58
  8
0
 10
318.90231598404762
 20
460.0319371938748
 30
0.0
 11
318.90231598404762
 21
465.01309777504412
 31
0.0
  0
POLYLINE
  5
1CD59
  8
0
 66
     1
 10
0.0
 20
0.0
 30
0.0
  0
VERTEX
  5
2734B
  8
0
 10
318.90231598404762
 20
465.01309777504412
 30
0.0
  0
VERTEX
  5
2734C
  8
0
 10
318.34013750593272
 20
465.09394242830228
 30
0.0
  0
VERTEX
  5
2734D
  8
0
 10
317.28434761320892
 20
465.2085527670551
 30
0.0
  0
VERTEX
  5
2734E
  8
0
 10
316.27558706929648
 20
465.26532735083941
 30
0.0
  0
VERTEX
  5
2734F
  8
0
 10
315.77314931738101
 20
465.27251748445991
 30
0.0
  0
SEQEND
  5
27350
  8
0
  0
LINE
  5
1CD61
  8
1
 10
388.67731598404771
 20
457.27251748445991
 30
0.0
 11
398.12731598404753
 21
457.27251748445991
 31
0.0
  0
LINE
  5
1CD62
  8
1
 10
393.40231598404762
 20
461.99751748445942
 30
0.0
 11
393.40231598404762
 21
452.54751748445949
 31
0.0
  0
LINE
  5
1CD63
  8
1
 10
391.17731598404771
 20
464.77251748445991
 30
0.0
 11
400.62731598404753
 21
464.77251748445991
 31
0.0
  0
LINE
  5
1CD64
  8
1
 10
395.90231598404762
 20
469.49751748445942
 30
0.0
 11
395.90231598404762
 21
460.0475174844596
 31
0.0
  0
LINE
  5
1CD65
  8
1
 10
388.67731598404771
 20
412.27251748446002
 30
0.0
 11
398.12731598404753
 21
412.27251748446002
 31
0.0
  0
LINE
  5
1CD66
  8
1
 10
393.40231598404762
 20
416.99751748445931
 30
0.0
 11
393.40231598404762
 21
407.5475174844596
 31
0.0
  0
LINE
  5
1CD67
  8
1
 10
391.17731598404771
 20
404.77251748445991
 30
0.0
 11
400.62731598404753
 21
404.77251748445991
 31
0.0
  0
LINE
  5
1CD68
  8
1
 10
395.90231598404762
 20
409.49751748445942
 30
0.0
 11
395.90231598404762
 21
400.0475174844596
 31
0.0
  0
LINE
  5
1CD69
  8
1
 10
311.17731598404771
 20
464.77251748445991
 30
0.0
 11
320.62731598404753
 21
464.77251748445991
 31
0.0
  0
LINE
  5
1CD6A
  8
1
 10
315.90231598404762
 20
469.49751748445942
 30
0.0
 11
315.90231598404762
 21
460.0475174844596
 31
0.0
  0
LINE
  5
1CD6B
  8
1
 10
313.67731598404771
 20
457.27251748445991
 30
0.0
 11
323.12731598404753
 21
457.27251748445991
 31
0.0
  0
LINE
  5
1CD6C
  8
1
 10
318.40231598404762
 20
461.99751748445942
 30
0.0
 11
318.40231598404762
 21
452.54751748445949
 31
0.0
  0
LINE
  5
1CD6D
  8
1
 10
311.17731598404771
 20
404.77251748445991
 30
0.0
 11
320.62731598404753
 21
404.77251748445991
 31
0.0
  0
LINE
  5
1CD6E
  8
1
 10
315.90231598404762
 20
409.49751748445942
 30
0.0
 11
315.90231598404762
 21
400.0475174844596
 31
0.0
  0
LINE
  5
1CD6F
  8
1
 10
313.67731598404771
 20
412.27251748446002
 30
0.0
 11
323.12731598404753
 21
412.27251748446002
 31
0.0
  0
LINE
  5
1CD70
  8
1
 10
318.40231598404762
 20
416.99751748445931
 30
0.0
 11
318.40231598404762
 21
407.5475174844596
 31
0.0
  0
LINE
  5
1CD72
  8
0
 10
304.20231598404757
 20
409.77251748445991
 30
0.0
 11
304.20231598404757
 21
409.87251748445931
 31
0.0
  0
LINE
  5
1CD73
  8
0
 10
304.20231598404757
 20
459.67251748445949
 30
0.0
 11
304.20231598404757
 21
459.77251748445991
 31
0.0
  0
LINE
  5
1CD74
  8
0
 10
305.90231598404762
 20
401.27251748445991
 30
0.0
 11
305.90231598404762
 21
468.27251748445991
 31
0.0
  0
ARC
  5
1CD75
  8
0
 10
314.90231598404762
 20
401.27251748445991
 30
0.0
 40
8.9999999999999911
 50
180.0
 51
270.0
  0
LINE
  5
1CD76
  8
0
 10
396.90231598404762
 20
392.27251748446002
 30
0.0
 11
314.90231598404762
 21
392.27251748446002
 31
0.0
  0
ARC
  5
1CD77
  8
0
 10
396.90231598404762
 20
401.27251748445991
 30
0.0
 40
9.0000000000000142
 50
270.0
 51
0.0
  0
LINE
  5
1CD78
  8
0
 10
405.90231598404762
 20
468.27251748445991
 30
0.0
 11
405.90231598404762
 21
401.27251748445991
 31
0.0
  0
ARC
  5
1CD79
  8
0
 10
396.90231598404762
 20
468.27251748445991
 30
0.0
 40
9.0
 50
0.0
 51
90.0
  0
LINE
  5
1CD7A
  8
0
 10
314.90231598404762
 20
477.27251748445991
 30
0.0
 11
396.90231598404762
 21
477.27251748445991
 31
0.0
  0
ARC
  5
1CD7B
  8
0
 10
314.90231598404762
 20
468.27251748445991
 30
0.0
 40
8.9999999999999947
 50
90.0
 51
180.0
  0
LINE
  5
1CD7C
  8
0
 10
400.1713908252749
 20
463.34949253738432
 30
0.0
 11
397.67139082527501
 21
455.84949253738421
 31
0.0
  0
ARC
  5
1CD7D
  8
0
 10
393.40231598404762
 20
457.27251748445991
 30
0.0
 40
4.499999999999968
 50
161.56505117713979
 51
341.56505117713982
  0
LINE
  5
1CD7E
  8
0
 10
389.13324114282022
 20
458.6955424315355
 30
0.0
 11
391.63324114282022
 21
466.19554243153561
 31
0.0
  0
ARC
  5
1CD7F
  8
0
 10
395.90231598404762
 20
464.77251748445991
 30
0.0
 40
4.499999999999968
 50
341.56505117713982
 51
161.56505117713979
  0
LINE
  5
1CD80
  8
0
 10
391.63324114282022
 20
403.34949253738432
 30
0.0
 11
389.13324114282022
 21
410.84949253738432
 31
0.0
  0
ARC
  5
1CD81
  8
0
 10
393.40231598404762
 20
412.27251748446002
 30
0.0
 40
4.4999999999999938
 50
18.434948822860211
 51
198.43494882286021
  0
LINE
  5
1CD82
  8
0
 10
397.67139082527501
 20
413.69554243153561
 30
0.0
 11
400.1713908252749
 21
406.19554243153561
 31
0.0
  0
ARC
  5
1CD83
  8
0
 10
395.90231598404762
 20
404.77251748445991
 30
0.0
 40
4.4999999999999929
 50
198.43494882286021
 51
18.434948822860211
  0
LINE
  5
1CD84
  8
0
 10
314.13324114282022
 20
455.84949253738421
 30
0.0
 11
311.63324114282022
 21
463.34949253738432
 31
0.0
  0
ARC
  5
1CD85
  8
0
 10
315.90231598404762
 20
464.77251748445991
 30
0.0
 40
4.4999999999999956
 50
18.434948822860211
 51
198.43494882286021
  0
LINE
  5
1CD86
  8
0
 10
320.17139082527501
 20
466.19554243153561
 30
0.0
 11
322.67139082527501
 21
458.6955424315355
 31
0.0
  0
ARC
  5
1CD87
  8
0
 10
318.40231598404762
 20
457.27251748445991
 30
0.0
 40
4.4999999999999973
 50
198.43494882286021
 51
18.434948822860211
  0
LINE
  5
1CD88
  8
0
 10
322.67139082527501
 20
410.84949253738432
 30
0.0
 11
320.17139082527501
 21
403.34949253738432
 31
0.0
  0
ARC
  5
1CD89
  8
0
 10
315.90231598404762
 20
404.77251748445991
 30
0.0
 40
4.5
 50
161.56505117713979
 51
341.56505117713982
  0
LINE
  5
1CD8A
  8
0
 10
311.63324114282022
 20
406.19554243153561
 30
0.0
 11
314.13324114282022
 21
413.69554243153561
 31
0.0
  0
ARC
  5
1CD8B
  8
0
 10
318.40231598404762
 20
412.27251748446002
 30
0.0
 40
4.4999999999999956
 50
341.56505117713982
 51
161.56505117713979
  0
LINE
  5
1CD9B
  8
0
 10
322.31239914096682
 20
409.77251748445991
 30
0.0
 11
312.82556616046168
 21
409.77251748445991
 31
0.0
  0
LINE
  5
1CD9C
  8
0
 10
322.31239914096682
 20
459.77251748445991
 30
0.0
 11
312.82556616046168
 21
459.77251748445991
 31
0.0
  0
LINE
  5
1CD9D
  8
0
 10
304.20231598404757
 20
409.77251748445991
 30
0.0
 11
305.90231598404762
 21
409.77251748445991
 31
0.0
  0
LINE
  5
1CD9E
  8
0
 10
305.90231598404762
 20
459.77251748445991
 30
0.0
 11
304.20231598404757
 21
459.77251748445991
 31
0.0
  0
LINE
  5
1CD9F
  8
0
 10
304.24140119739968
 20
459.77251748445991
 30
0.0
 11
304.24140119739968
 21
459.67251748445949
 31
0.0
  0
LINE
  5
1CDA0
  8
0
 10
304.24140119739968
 20
409.87251748445931
 30
0.0
 11
304.24140119739968
 21
409.77251748445991
 31
0.0
  0
LINE
  5
1CDA1
  8
0
 10
305.90231598404762
 20
459.67251748445949
 30
0.0
 11
258.41897648244299
 21
459.67251748445949
 31
0.0
  0
LINE
  5
1CDA2
  8
0
 10
305.90231598404762
 20
409.87251748445931
 30
0.0
 11
258.41897648244299
 21
409.87251748445931
 31
0.0
  0
LINE
  5
1CDA3
  8
0
 10
258.41897648244299
 20
459.67251748445949
 30
0.0
 11
258.41897648244299
 21
409.87251748445931
 31
0.0
  0
LINE
  5
1CDC7
  8
0
 10
543.87739324007737
 20
196.4286887314201
 30
0.0
 11
543.27739324007757
 21
196.4286887314201
 31
0.0
  0
LINE
  5
1CDC8
  8
0
 10
603.11039324007743
 20
198.2436887314197
 30
0.0
 11
601.87739324007737
 21
198.2436887314197
 31
0.0
  0
LINE
  5
1CDC9
  8
0
 10
601.87739324007737
 20
206.24368873141981
 30
0.0
 11
603.11039324007743
 21
206.24368873141981
 31
0.0
  0
LINE
  5
1CDCA
  8
0
 10
603.87739324007748
 20
199.01068873141961
 30
0.0
 11
603.11039324007743
 21
198.2436887314197
 31
0.0
  0
LINE
  5
1CDCB
  8
0
 10
603.11039324007743
 20
206.24368873141981
 30
0.0
 11
603.87739324007748
 21
205.4766887314199
 31
0.0
  0
LINE
  5
1CDCC
  8
0
 10
538.57739324007753
 20
208.50202206475299
 30
0.0
 11
538.83681294949315
 21
209.47018960077639
 31
0.0
  0
LINE
  5
1CDCD
  8
0
 10
538.83681294949315
 20
195.01718786206311
 30
0.0
 11
538.57739324007753
 21
195.98535539808651
 31
0.0
  0
LINE
  5
1CDCE
  8
0
 10
543.27739324007757
 20
195.98535539808651
 30
0.0
 11
543.01797353066195
 21
195.01718786206311
 31
0.0
  0
LINE
  5
1CDCF
  8
0
 10
601.87739324007737
 20
196.4286887314201
 30
0.0
 11
599.37739324007748
 21
196.4286887314201
 31
0.0
  0
LINE
  5
1CDD0
  8
0
 10
599.37739324007748
 20
208.05868873142029
 30
0.0
 11
601.87739324007737
 21
208.05868873142029
 31
0.0
  0
LINE
  5
1CDD1
  8
0
 10
594.13681294949288
 20
195.01718786206311
 30
0.0
 11
593.87739324007737
 21
195.98535539808651
 31
0.0
  0
LINE
  5
1CDD2
  8
0
 10
599.11797353066186
 20
209.47018960077639
 30
0.0
 11
599.37739324007748
 21
208.50202206475299
 31
0.0
  0
LINE
  5
1CDD3
  8
0
 10
599.37739324007748
 20
195.98535539808651
 30
0.0
 11
599.11797353066186
 21
195.01718786206311
 31
0.0
  0
LINE
  5
1CDD4
  8
0
 10
591.37739324007748
 20
194.7436887314197
 30
0.0
 11
587.62739324007737
 21
194.7436887314197
 31
0.0
  0
LINE
  5
1CDD5
  8
0
 10
550.12739324007737
 20
194.7436887314197
 30
0.0
 11
546.37739324007748
 21
194.7436887314197
 31
0.0
  0
LINE
  5
1CDD6
  8
0
 10
546.37739324007748
 20
209.74368873141981
 30
0.0
 11
550.12739324007737
 21
209.74368873141981
 31
0.0
  0
LINE
  5
1CDD7
  8
0
 10
587.62739324007737
 20
209.74368873141981
 30
0.0
 11
591.37739324007748
 21
209.74368873141981
 31
0.0
  0
LINE
  5
1CDD8
  8
0
 10
603.11039324007743
 20
206.24368873141981
 30
0.0
 11
603.11039324007743
 21
198.2436887314197
 31
0.0
  0
LINE
  5
1CDD9
  8
0
 10
603.87739324007748
 20
205.4766887314199
 30
0.0
 11
603.87739324007748
 21
199.01068873141961
 31
0.0
  0
LINE
  5
1CDDA
  8
0
 10
538.57739324007753
 20
208.50202206475299
 30
0.0
 11
538.57739324007753
 21
195.98535539808651
 31
0.0
  0
LINE
  5
1CDDB
  8
0
 10
543.27739324007757
 20
200.8925148924036
 30
0.0
 11
543.27739324007757
 21
195.98535539808651
 31
0.0
  0
POLYLINE
  5
1CDDC
  8
0
 66
     1
 10
0.0
 20
0.0
 30
0.0
  0
VERTEX
  5
27351
  8
0
 10
538.83681294949315
 20
198.63043829674189
 30
0.0
  0
VERTEX
  5
27352
  8
0
 10
538.75596829623476
 20
198.3058644010689
 30
0.0
  0
VERTEX
  5
27353
  8
0
 10
538.64135795748155
 20
197.69630382229749
 30
0.0
  0
VERTEX
  5
27354
  8
0
 10
538.58458337369734
 20
197.11389565072199
 30
0.0
  0
VERTEX
  5
27355
  8
0
 10
538.57739324007753
 20
196.8238130794025
 30
0.0
  0
SEQEND
  5
27356
  8
0
  0
POLYLINE
  5
1CDDD
  8
0
 66
     1
 10
0.0
 20
0.0
 30
0.0
  0
VERTEX
  5
27357
  8
0
 10
538.57739324007753
 20
196.8238130794025
 30
0.0
  0
VERTEX
  5
27358
  8
0
 10
538.58458337369734
 20
196.5337305080829
 30
0.0
  0
VERTEX
  5
27359
  8
0
 10
538.64135795748155
 20
195.95132233650651
 30
0.0
  0
VERTEX
  5
2735A
  8
0
 10
538.75596829623476
 20
195.34176175773521
 30
0.0
  0
VERTEX
  5
2735B
  8
0
 10
538.83681294949315
 20
195.01718786206311
 30
0.0
  0
SEQEND
  5
2735C
  8
0
  0
POLYLINE
  5
1CDDE
  8
0
 66
     1
 10
0.0
 20
0.0
 30
0.0
  0
VERTEX
  5
2735D
  8
0
 10
543.01797353066195
 20
195.01718786206311
 30
0.0
  0
VERTEX
  5
2735E
  8
0
 10
543.09881818391989
 20
195.34176175773521
 30
0.0
  0
VERTEX
  5
2735F
  8
0
 10
543.21342852267321
 20
195.95132233650651
 30
0.0
  0
VERTEX
  5
27360
  8
0
 10
543.27020310645753
 20
196.5337305080829
 30
0.0
  0
VERTEX
  5
27361
  8
0
 10
543.27739324007757
 20
196.8238130794025
 30
0.0
  0
SEQEND
  5
27362
  8
0
  0
POLYLINE
  5
1CDDF
  8
0
 66
     1
 10
0.0
 20
0.0
 30
0.0
  0
VERTEX
  5
27363
  8
0
 10
543.27739324007757
 20
196.8238130794025
 30
0.0
  0
VERTEX
  5
27364
  8
0
 10
543.27020310645753
 20
197.11389565072199
 30
0.0
  0
VERTEX
  5
27365
  8
0
 10
543.21342852267321
 20
197.69630382229749
 30
0.0
  0
VERTEX
  5
27366
  8
0
 10
543.09881818391989
 20
198.3058644010689
 30
0.0
  0
VERTEX
  5
27367
  8
0
 10
543.01797353066195
 20
198.63043829674189
 30
0.0
  0
SEQEND
  5
27368
  8
0
  0
LINE
  5
1CDE0
  8
0
 10
538.83681294949315
 20
195.01718786206311
 30
0.0
 11
543.01797353066195
 21
195.01718786206311
 31
0.0
  0
POLYLINE
  5
1CDE1
  8
0
 66
     1
 10
0.0
 20
0.0
 30
0.0
  0
VERTEX
  5
27369
  8
0
 10
538.83681294949315
 20
209.47018960077639
 30
0.0
  0
VERTEX
  5
2736A
  8
0
 10
538.75596829623476
 20
209.14561570510429
 30
0.0
  0
VERTEX
  5
2736B
  8
0
 10
538.64135795748155
 20
208.53605512633291
 30
0.0
  0
VERTEX
  5
2736C
  8
0
 10
538.58458337369734
 20
207.95364695475749
 30
0.0
  0
VERTEX
  5
2736D
  8
0
 10
538.57739324007753
 20
207.66356438343789
 30
0.0
  0
SEQEND
  5
2736E
  8
0
  0
POLYLINE
  5
1CDE2
  8
0
 66
     1
 10
0.0
 20
0.0
 30
0.0
  0
VERTEX
  5
2736F
  8
0
 10
538.57739324007753
 20
207.66356438343789
 30
0.0
  0
VERTEX
  5
27370
  8
0
 10
538.58458337369734
 20
207.3734818121184
 30
0.0
  0
VERTEX
  5
27371
  8
0
 10
538.64135795748155
 20
206.79107364054201
 30
0.0
  0
VERTEX
  5
27372
  8
0
 10
538.75596829623476
 20
206.1815130617706
 30
0.0
  0
VERTEX
  5
27373
  8
0
 10
538.83681294949315
 20
205.8569391660985
 30
0.0
  0
SEQEND
  5
27374
  8
0
  0
LINE
  5
1CDE3
  8
0
 10
538.83681294949315
 20
209.47018960077639
 30
0.0
 11
539.1909260819217
 21
209.47018960077639
 31
0.0
  0
LINE
  5
1CDE4
  8
0
 10
538.83681294949315
 20
205.8569391660985
 30
0.0
 11
540.66150591193946
 21
205.8569391660985
 31
0.0
  0
POLYLINE
  5
1CDE5
  8
0
 66
     1
 10
0.0
 20
0.0
 30
0.0
  0
VERTEX
  5
27375
  8
0
 10
538.83681294949315
 20
205.8569391660985
 30
0.0
  0
VERTEX
  5
27376
  8
0
 10
538.75596829623476
 20
205.20779137475441
 30
0.0
  0
VERTEX
  5
27377
  8
0
 10
538.64135795748155
 20
203.9886702172098
 30
0.0
  0
VERTEX
  5
27378
  8
0
 10
538.58458337369734
 20
202.8238538740589
 30
0.0
  0
VERTEX
  5
27379
  8
0
 10
538.57739324007753
 20
202.24368873141981
 30
0.0
  0
SEQEND
  5
2737A
  8
0
  0
POLYLINE
  5
1CDE6
  8
0
 66
     1
 10
0.0
 20
0.0
 30
0.0
  0
VERTEX
  5
2737B
  8
0
 10
538.57739324007753
 20
202.24368873141981
 30
0.0
  0
VERTEX
  5
2737C
  8
0
 10
538.58458337369734
 20
201.66352358878069
 30
0.0
  0
VERTEX
  5
2737D
  8
0
 10
538.64135795748155
 20
200.4987072456297
 30
0.0
  0
VERTEX
  5
2737E
  8
0
 10
538.75596829623476
 20
199.27958608808601
 30
0.0
  0
VERTEX
  5
2737F
  8
0
 10
538.83681294949315
 20
198.63043829674189
 30
0.0
  0
SEQEND
  5
27380
  8
0
  0
LINE
  5
1CDE7
  8
0
 10
538.83681294949315
 20
198.63043829674189
 30
0.0
 11
543.01797353066195
 21
198.63043829674189
 31
0.0
  0
POLYLINE
  5
1CDE8
  8
0
 66
     1
 10
0.0
 20
0.0
 30
0.0
  0
VERTEX
  5
27381
  8
0
 10
543.01797353066195
 20
198.63043829674189
 30
0.0
  0
VERTEX
  5
27382
  8
0
 10
543.0705394222216
 20
199.04076890591659
 30
0.0
  0
VERTEX
  5
27383
  8
0
 10
543.15656911453289
 20
199.825555566812
 30
0.0
  0
VERTEX
  5
27384
  8
0
 10
543.21886853194417
 20
200.57588743752419
 30
0.0
  0
VERTEX
  5
27385
  8
0
 10
543.24154714135102
 20
200.94277756100021
 30
0.0
  0
SEQEND
  5
27386
  8
0
  0
LINE
  5
1CDE9
  8
0
 10
601.87739324007737
 20
208.05868873142029
 30
0.0
 11
601.87739324007737
 21
196.4286887314201
 31
0.0
  0
LINE
  5
1CDEA
  8
0
 10
599.37739324007748
 20
208.50202206475299
 30
0.0
 11
599.37739324007748
 21
195.98535539808651
 31
0.0
  0
POLYLINE
  5
1CDEB
  8
0
 66
     1
 10
0.0
 20
0.0
 30
0.0
  0
VERTEX
  5
27387
  8
0
 10
594.13681294949288
 20
198.63043829674189
 30
0.0
  0
VERTEX
  5
27388
  8
0
 10
594.05596829623482
 20
198.3058644010689
 30
0.0
  0
VERTEX
  5
27389
  8
0
 10
593.94135795748184
 20
197.69630382229749
 30
0.0
  0
VERTEX
  5
2738A
  8
0
 10
593.8845833736973
 20
197.11389565072199
 30
0.0
  0
VERTEX
  5
2738B
  8
0
 10
593.87739324007737
 20
196.8238130794025
 30
0.0
  0
SEQEND
  5
2738C
  8
0
  0
POLYLINE
  5
1CDEC
  8
0
 66
     1
 10
0.0
 20
0.0
 30
0.0
  0
VERTEX
  5
2738D
  8
0
 10
593.87739324007737
 20
196.8238130794025
 30
0.0
  0
VERTEX
  5
2738E
  8
0
 10
593.8845833736973
 20
196.5337305080829
 30
0.0
  0
VERTEX
  5
2738F
  8
0
 10
593.94135795748184
 20
195.95132233650651
 30
0.0
  0
VERTEX
  5
27390
  8
0
 10
594.05596829623482
 20
195.34176175773521
 30
0.0
  0
VERTEX
  5
27391
  8
0
 10
594.13681294949288
 20
195.01718786206311
 30
0.0
  0
SEQEND
  5
27392
  8
0
  0
POLYLINE
  5
1CDED
  8
0
 66
     1
 10
0.0
 20
0.0
 30
0.0
  0
VERTEX
  5
27393
  8
0
 10
599.11797353066197
 20
195.01718786206311
 30
0.0
  0
VERTEX
  5
27394
  8
0
 10
599.19881818392014
 20
195.34176175773521
 30
0.0
  0
VERTEX
  5
27395
  8
0
 10
599.31342852267312
 20
195.95132233650651
 30
0.0
  0
VERTEX
  5
27396
  8
0
 10
599.37020310645755
 20
196.5337305080829
 30
0.0
  0
VERTEX
  5
27397
  8
0
 10
599.37739324007748
 20
196.8238130794025
 30
0.0
  0
SEQEND
  5
27398
  8
0
  0
POLYLINE
  5
1CDEE
  8
0
 66
     1
 10
0.0
 20
0.0
 30
0.0
  0
VERTEX
  5
27399
  8
0
 10
599.37739324007748
 20
196.8238130794025
 30
0.0
  0
VERTEX
  5
2739A
  8
0
 10
599.37020310645744
 20
197.11389565072199
 30
0.0
  0
VERTEX
  5
2739B
  8
0
 10
599.31342852267312
 20
197.69630382229749
 30
0.0
  0
VERTEX
  5
2739C
  8
0
 10
599.19881818392014
 20
198.3058644010689
 30
0.0
  0
VERTEX
  5
2739D
  8
0
 10
599.11797353066197
 20
198.63043829674189
 30
0.0
  0
SEQEND
  5
2739E
  8
0
  0
LINE
  5
1CDEF
  8
0
 10
594.13681294949288
 20
195.01718786206311
 30
0.0
 11
599.11797353066197
 21
195.01718786206311
 31
0.0
  0
POLYLINE
  5
1CDF0
  8
0
 66
     1
 10
0.0
 20
0.0
 30
0.0
  0
VERTEX
  5
2739F
  8
0
 10
599.37739324007748
 20
207.66356438343789
 30
0.0
  0
VERTEX
  5
273A0
  8
0
 10
599.37020310645744
 20
207.95364695475749
 30
0.0
  0
VERTEX
  5
273A1
  8
0
 10
599.31342852267312
 20
208.53605512633291
 30
0.0
  0
VERTEX
  5
273A2
  8
0
 10
599.19881818392014
 20
209.14561570510429
 30
0.0
  0
VERTEX
  5
273A3
  8
0
 10
599.11797353066197
 20
209.47018960077639
 30
0.0
  0
SEQEND
  5
273A4
  8
0
  0
POLYLINE
  5
1CDF1
  8
0
 66
     1
 10
0.0
 20
0.0
 30
0.0
  0
VERTEX
  5
273A5
  8
0
 10
599.11797353066197
 20
205.8569391660985
 30
0.0
  0
VERTEX
  5
273A6
  8
0
 10
599.19881818392014
 20
206.1815130617706
 30
0.0
  0
VERTEX
  5
273A7
  8
0
 10
599.31342852267312
 20
206.79107364054201
 30
0.0
  0
VERTEX
  5
273A8
  8
0
 10
599.37020310645744
 20
207.3734818121184
 30
0.0
  0
VERTEX
  5
273A9
  8
0
 10
599.37739324007748
 20
207.66356438343789
 30
0.0
  0
SEQEND
  5
273AA
  8
0
  0
LINE
  5
1CDF2
  8
0
 10
598.56386039823315
 20
209.47018960077639
 30
0.0
 11
599.11797353066197
 21
209.47018960077639
 31
0.0
  0
POLYLINE
  5
1CDF3
  8
0
 66
     1
 10
0.0
 20
0.0
 30
0.0
  0
VERTEX
  5
273AB
  8
0
 10
599.37739324007748
 20
202.24368873141981
 30
0.0
  0
VERTEX
  5
273AC
  8
0
 10
599.37020310645744
 20
202.8238538740589
 30
0.0
  0
VERTEX
  5
273AD
  8
0
 10
599.31342852267312
 20
203.9886702172098
 30
0.0
  0
VERTEX
  5
273AE
  8
0
 10
599.19881818392014
 20
205.20779137475441
 30
0.0
  0
VERTEX
  5
273AF
  8
0
 10
599.11797353066197
 20
205.8569391660985
 30
0.0
  0
SEQEND
  5
273B0
  8
0
  0
LINE
  5
1CDF4
  8
0
 10
597.0932805682155
 20
205.8569391660985
 30
0.0
 11
599.11797353066197
 21
205.8569391660985
 31
0.0
  0
POLYLINE
  5
1CDF5
  8
0
 66
     1
 10
0.0
 20
0.0
 30
0.0
  0
VERTEX
  5
273B1
  8
0
 10
593.97376839867331
 20
200.09163749867821
 30
0.0
  0
VERTEX
  5
273B2
  8
0
 10
593.99513338732731
 20
199.8576754720425
 30
0.0
  0
VERTEX
  5
273B3
  8
0
 10
594.04464715197525
 20
199.3796827418837
 30
0.0
  0
VERTEX
  5
273B4
  8
0
 10
594.1036061117768
 20
198.88514999458309
 30
0.0
  0
VERTEX
  5
273B5
  8
0
 10
594.13681294949288
 20
198.63043829674189
 30
0.0
  0
SEQEND
  5
273B6
  8
0
  0
LINE
  5
1CDF6
  8
0
 10
594.13681294949288
 20
198.63043829674189
 30
0.0
 11
599.11797353066197
 21
198.63043829674189
 31
0.0
  0
POLYLINE
  5
1CDF7
  8
0
 66
     1
 10
0.0
 20
0.0
 30
0.0
  0
VERTEX
  5
273B7
  8
0
 10
599.11797353066197
 20
198.63043829674189
 30
0.0
  0
VERTEX
  5
273B8
  8
0
 10
599.19881818392014
 20
199.27958608808601
 30
0.0
  0
VERTEX
  5
273B9
  8
0
 10
599.31342852267312
 20
200.4987072456297
 30
0.0
  0
VERTEX
  5
273BA
  8
0
 10
599.37020310645744
 20
201.66352358878069
 30
0.0
  0
VERTEX
  5
273BB
  8
0
 10
599.37739324007748
 20
202.24368873141981
 30
0.0
  0
SEQEND
  5
273BC
  8
0
  0
LINE
  5
1CDFE
  8
0
 10
534.07739324007753
 20
292.44368873141963
 30
0.0
 11
534.07739324007753
 21
293.24368873141981
 31
0.0
  0
LINE
  5
1CDFF
  8
0
 10
603.67739324007744
 20
293.24368873141981
 30
0.0
 11
603.67739324007744
 21
292.44368873141963
 31
0.0
  0
LINE
  5
1CE00
  8
0
 10
534.37617257609941
 20
283.94368873141963
 30
0.0
 11
532.87739324007748
 21
292.44368873141963
 31
0.0
  0
LINE
  5
1CE01
  8
0
 10
604.87739324007737
 20
292.44368873141963
 30
0.0
 11
603.37861390405556
 21
283.94368873141963
 31
0.0
  0
LINE
  5
1CE02
  8
0
 10
535.87739324007737
 20
228.7493860438444
 30
0.0
 11
535.87739324007737
 21
283.94368873141963
 31
0.0
  0
LINE
  5
1CE03
  8
0
 10
601.87739324007737
 20
283.94368873141963
 30
0.0
 11
601.87739324007737
 21
228.7493860438444
 31
0.0
  0
LINE
  5
1CE04
  8
0
 10
526.37739324007737
 20
295.74368873141981
 30
0.0
 11
526.37739324007737
 21
293.24368873141981
 31
0.0
  0
LINE
  5
1CE06
  8
0
 10
611.37739324007748
 20
295.74368873141981
 30
0.0
 11
526.37739324007737
 21
295.74368873141981
 31
0.0
  0
LINE
  5
1CE08
  8
0
 10
611.37739324007748
 20
293.24368873141981
 30
0.0
 11
526.37739324007737
 21
293.24368873141981
 31
0.0
  0
LINE
  5
1CE09
  8
0
 10
611.37739324007748
 20
295.74368873141981
 30
0.0
 11
611.37739324007748
 21
293.24368873141981
 31
0.0
  0
LINE
  5
1CE0A
  8
0
 10
604.87739324007737
 20
292.44368873141963
 30
0.0
 11
532.87739324007748
 21
292.44368873141963
 31
0.0
  0
LINE
  5
1CE0B
  8
0
 10
603.37861390405556
 20
283.94368873141963
 30
0.0
 11
534.37617257609941
 21
283.94368873141963
 31
0.0
  0
LINE
  5
1CE0C
  8
0
 10
543.87739324007737
 20
199.9347939371637
 30
0.0
 11
543.87739324007737
 21
192.2436887314197
 31
0.0
  0
LINE
  5
1CE0D
  8
0
 10
546.37739324007748
 20
192.2436887314197
 30
0.0
 11
543.87739324007737
 21
192.2436887314197
 31
0.0
  0
LINE
  5
1CE0E
  8
0
 10
593.87739324007737
 20
192.2436887314197
 30
0.0
 11
593.87739324007737
 21
199.9347939371637
 31
0.0
  0
LINE
  5
1CE0F
  8
0
 10
593.87739324007737
 20
192.2436887314197
 30
0.0
 11
591.37739324007748
 21
192.2436887314197
 31
0.0
  0
POLYLINE
  5
1CE10
  8
0
 66
     1
 10
0.0
 20
0.0
 30
0.0
  0
VERTEX
  5
273BD
  8
0
 10
591.37739324007748
 20
201.2047895812857
 30
0.0
  0
VERTEX
  5
273BE
  8
0
 10
591.79650760956793
 20
201.83020768141799
 30
0.0
  0
VERTEX
  5
273BF
  8
0
 10
592.60542283314805
 20
203.1149997899511
 30
0.0
  0
VERTEX
  5
273C0
  8
0
 10
593.37411767196625
 20
204.44324366822369
 30
0.0
  0
VERTEX
  5
273C1
  8
0
 10
593.74297254080659
 20
205.12295921634089
 30
0.0
  0
VERTEX
  5
273C2
  8
0
 10
594.10128914373865
 20
205.81268786591681
 30
0.0
  0
VERTEX
  5
273C3
  8
0
 10
594.78570465069492
 20
207.2210110957794
 30
0.0
  0
VERTEX
  5
273C4
  8
0
 10
595.42620406890092
 20
208.6658261683524
 30
0.0
  0
VERTEX
  5
273C5
  8
0
 10
596.02170171473779
 20
210.14468403838509
 30
0.0
  0
VERTEX
  5
273C6
  8
0
 10
596.57118818519825
 20
211.65507795611759
 30
0.0
  0
VERTEX
  5
273C7
  8
0
 10
597.07373206888155
 20
213.19444771635881
 30
0.0
  0
VERTEX
  5
273C8
  8
0
 10
597.3071311917364
 20
213.97418492281119
 30
0.0
  0
VERTEX
  5
273C9
  8
0
 10
597.52848152479214
 20
214.76018399818619
 30
0.0
  0
VERTEX
  5
273CA
  8
0
 10
597.93466572625755
 20
216.3496327878984
 30
0.0
  0
VERTEX
  5
273CB
  8
0
 10
598.29159616752565
 20
217.96009987771589
 30
0.0
  0
VERTEX
  5
273CC
  8
0
 10
598.598667830821
 20
219.5888554326248
 30
0.0
  0
VERTEX
  5
273CD
  8
0
 10
598.85536021188523
 20
221.23313861760471
 30
0.0
  0
VERTEX
  5
273CE
  8
0
 10
599.06123820226162
 20
222.89016227739921
 30
0.0
  0
VERTEX
  5
273CF
  8
0
 10
599.14500936445575
 20
223.7225747642533
 30
0.0
  0
VERTEX
  5
273D0
  8
0
 10
599.21595282682983
 20
224.5571176609119
 30
0.0
  0
VERTEX
  5
273D1
  8
0
 10
599.31924183533795
 20
226.2311791821985
 30
0.0
  0
VERTEX
  5
273D2
  8
0
 10
599.37093014693335
 20
227.9095092099997
 30
0.0
  0
VERTEX
  5
273D3
  8
0
 10
599.37739324007748
 20
228.7493860438444
 30
0.0
  0
SEQEND
  5
273D4
  8
0
  0
POLYLINE
  5
1CE11
  8
0
 66
     1
 10
0.0
 20
0.0
 30
0.0
  0
VERTEX
  5
273D5
  8
0
 10
599.37739324007748
 20
228.7493860438444
 30
0.0
  0
VERTEX
  5
273D6
  8
0
 10
599.37416731385429
 20
229.3427677253321
 30
0.0
  0
VERTEX
  5
273D7
  8
0
 10
599.34836399832409
 20
230.52902902816459
 30
0.0
  0
VERTEX
  5
273D8
  8
0
 10
599.29677919944493
 20
231.71378457536051
 30
0.0
  0
VERTEX
  5
273D9
  8
0
 10
599.26133153187561
 20
232.30528436091569
 30
0.0
  0
VERTEX
  5
273DA
  8
0
 10
599.21945656310641
 20
232.89603194544631
 30
0.0
  0
VERTEX
  5
273DB
  8
0
 10
599.11646151197874
 20
234.0747708391163
 30
0.0
  0
VERTEX
  5
273DC
  8
0
 10
598.9878811901574
 20
235.2490039255872
 30
0.0
  0
VERTEX
  5
273DD
  8
0
 10
598.83382438943181
 20
236.41773768643631
 30
0.0
  0
VERTEX
  5
273DE
  8
0
 10
598.65442145723534
 20
237.5799832562216
 30
0.0
  0
VERTEX
  5
273DF
  8
0
 10
598.44982418636005
 20
238.73475725915711
 30
0.0
  0
VERTEX
  5
273E0
  8
0
 10
598.33813094189395
 20
239.3090368240664
 30
0.0
  0
VERTEX
  5
273E1
  8
0
 10
598.2202056865226
 20
239.8810826411482
 30
0.0
  0
VERTEX
  5
273E2
  8
0
 10
597.96576023789839
 20
241.01798949647949
 30
0.0
  0
VERTEX
  5
273E3
  8
0
 10
597.68670312673953
 20
242.14451588844619
 30
0.0
  0
VERTEX
  5
273E4
  8
0
 10
597.38327046322161
 20
243.25970866325321
 30
0.0
  0
VERTEX
  5
273E5
  8
0
 10
597.05571898167182
 20
244.36262425647789
 30
0.0
  0
VERTEX
  5
273E6
  8
0
 10
596.70432582334433
 20
245.452329491417
 30
0.0
  0
VERTEX
  5
273E7
  8
0
 10
596.51978074469525
 20
245.99193964170081
 30
0.0
  0
VERTEX
  5
273E8
  8
0
 10
596.32938830193325
 20
246.52790236865161
 30
0.0
  0
VERTEX
  5
273E9
  8
0
 10
595.93122365201316
 20
247.5884328461471
 30
0.0
  0
VERTEX
  5
273EA
  8
0
 10
595.51016876062954
 20
248.6330236092399
 30
0.0
  0
VERTEX
  5
273EB
  8
0
 10
595.29116805550268
 20
249.149064854264
 30
0.0
  0
VERTEX
  5
273EC
  8
0
 10
595.06657988225618
 20
249.66079082985749
 30
0.0
  0
VERTEX
  5
273ED
  8
0
 10
594.60083233737055
 20
250.67086491432289
 30
0.0
  0
VERTEX
  5
273EE
  8
0
 10
594.1133201948935
 20
251.66239123912061
 30
0.0
  0
VERTEX
  5
273EF
  8
0
 10
593.86153059089179
 20
252.15093619341681
 30
0.0
  0
VERTEX
  5
273F0
  8
0
 10
593.60445593876887
 20
252.63453087398921
 30
0.0
  0
VERTEX
  5
273F1
  8
0
 10
593.07467011896028
 20
253.586461291744
 30
0.0
  0
VERTEX
  5
273F2
  8
0
 10
592.52441098716213
 20
254.517377064215
 30
0.0
  0
VERTEX
  5
273F3
  8
0
 10
591.95414411753598
 20
255.42649054371941
 30
0.0
  0
VERTEX
  5
273F4
  8
0
 10
591.36435201278618
 20
256.31303252949238
 30
0.0
  0
VERTEX
  5
273F5
  8
0
 10
590.75553369591569
 20
257.17625291850618
 30
0.0
  0
VERTEX
  5
273F6
  8
0
 10
590.44415006626707
 20
257.59888848559513
 30
0.0
  0
VERTEX
  5
273F7
  8
0
 10
590.12820428800251
 20
258.01542134012919
 30
0.0
  0
VERTEX
  5
273F8
  8
0
 10
589.48289457235501
 20
258.82982777410052
 30
0.0
  0
VERTEX
  5
273F9
  8
0
 10
588.82015054541807
 20
259.61878315126887
 30
0.0
  0
VERTEX
  5
273FA
  8
0
 10
588.14053295480346
 20
260.3816199366193
 30
0.0
  0
VERTEX
  5
273FB
  8
0
 10
587.44461682484337
 20
261.11769269407341
 30
0.0
  0
VERTEX
  5
273FC
  8
0
 10
586.73299097006065
 20
261.82637863259242
 30
0.0
  0
VERTEX
  5
273FD
  8
0
 10
586.37147454878425
 20
262.17026324463222
 30
0.0
  0
VERTEX
  5
273FE
  8
0
 10
586.00625749697394
 20
262.5070781331205
 30
0.0
  0
VERTEX
  5
273FF
  8
0
 10
585.2650312946555
 20
263.15921525592063
 30
0.0
  0
VERTEX
  5
27400
  8
0
 10
584.50993951447344
 20
263.78223822788192
 30
0.0
  0
VERTEX
  5
27401
  8
0
 10
583.74162103945832
 20
264.37561990937053
 30
0.0
  0
VERTEX
  5
27402
  8
0
 10
582.96072594374596
 20
264.9388582402417
 30
0.0
  0
VERTEX
  5
27403
  8
0
 10
582.16791494254835
 20
265.47147666463661
 30
0.0
  0
VERTEX
  5
27404
  8
0
 10
581.76725022316873
 20
265.72616156170437
 30
0.0
  0
VERTEX
  5
27405
  8
0
 10
581.36385883312323
 20
265.9730245341953
 30
0.0
  0
VERTEX
  5
27406
  8
0
 10
580.54923792721274
 20
266.44307748934631
 30
0.0
  0
VERTEX
  5
27407
  8
0
 10
579.7247414754313
 20
266.88123781836202
 30
0.0
  0
VERTEX
  5
27408
  8
0
 10
578.89106708409099
 20
267.28713479386079
 30
0.0
  0
VERTEX
  5
27409
  8
0
 10
578.0489201249577
 20
267.66042498647772
 30
0.0
  0
VERTEX
  5
2740A
  8
0
 10
577.19901313843502
 20
268.00079255544188
 30
0.0
  0
VERTEX
  5
2740B
  8
0
 10
576.77137411570425
 20
268.15853926581713
 30
0.0
  0
VERTEX
  5
2740C
  8
0
 10
576.34206523068428
 20
268.30794951580992
 30
0.0
  0
VERTEX
  5
2740D
  8
0
 10
575.47880146518969
 20
268.58163598212832
 30
0.0
  0
VERTEX
  5
2740E
  8
0
 10
574.60995224928092
 20
268.82162038832121
 30
0.0
  0
VERTEX
  5
2740F
  8
0
 10
573.73625271613685
 20
269.02769968362372
 30
0.0
  0
VERTEX
  5
27410
  8
0
 10
572.85844210278901
 20
269.1996995043782
 30
0.0
  0
VERTEX
  5
27411
  8
0
 10
571.97726312465295
 20
269.33747432156269
 30
0.0
  0
VERTEX
  5
27412
  8
0
 10
571.53564339388106
 20
269.39348979127323
 30
0.0
  0
VERTEX
  5
27413
  8
0
 10
571.09346134711689
 20
269.4409075639287
 30
0.0
  0
VERTEX
  5
27414
  8
0
 10
570.20778455472021
 20
269.5099117166265
 30
0.0
  0
VERTEX
  5
27415
  8
0
 10
569.32098211845073
 20
269.54442839525291
 30
0.0
  0
VERTEX
  5
27416
  8
0
 10
568.87739324007737
 20
269.54874366468351
 30
0.0
  0
VERTEX
  5
27417
  8
0
 10
568.43380436170423
 20
269.54442839525291
 30
0.0
  0
VERTEX
  5
27418
  8
0
 10
567.54700192543464
 20
269.5099117166265
 30
0.0
  0
VERTEX
  5
27419
  8
0
 10
566.66132513303785
 20
269.4409075639287
 30
0.0
  0
VERTEX
  5
2741A
  8
0
 10
566.21914308627379
 20
269.39348979127323
 30
0.0
  0
VERTEX
  5
2741B
  8
0
 10
565.77752335550178
 20
269.33747432156269
 30
0.0
  0
VERTEX
  5
2741C
  8
0
 10
564.89634437736595
 20
269.1996995043782
 30
0.0
  0
VERTEX
  5
2741D
  8
0
 10
564.018533764018
 20
269.02769968362372
 30
0.0
  0
VERTEX
  5
2741E
  8
0
 10
563.14483423087404
 20
268.82162038832121
 30
0.0
  0
VERTEX
  5
2741F
  8
0
 10
562.27598501496527
 20
268.58163598212832
 30
0.0
  0
VERTEX
  5
27420
  8
0
 10
561.41272124947068
 20
268.30794951580992
 30
0.0
  0
VERTEX
  5
27421
  8
0
 10
560.98341236445071
 20
268.15853926581713
 30
0.0
  0
VERTEX
  5
27422
  8
0
 10
560.55577334171994
 20
268.00079255544188
 30
0.0
  0
VERTEX
  5
27423
  8
0
 10
559.70586635519726
 20
267.66042498647772
 30
0.0
  0
VERTEX
  5
27424
  8
0
 10
558.86371939606374
 20
267.28713479386079
 30
0.0
  0
VERTEX
  5
27425
  8
0
 10
558.03004500472366
 20
266.88123781836202
 30
0.0
  0
VERTEX
  5
27426
  8
0
 10
557.20554855294222
 20
266.44307748934631
 30
0.0
  0
VERTEX
  5
27427
  8
0
 10
556.39092764703139
 20
265.9730245341953
 30
0.0
  0
VERTEX
  5
27428
  8
0
 10
555.98753625698623
 20
265.72616156170437
 30
0.0
  0
VERTEX
  5
27429
  8
0
 10
555.58687153760661
 20
265.47147666463661
 30
0.0
  0
VERTEX
  5
2742A
  8
0
 10
554.79406053640901
 20
264.9388582402417
 30
0.0
  0
VERTEX
  5
2742B
  8
0
 10
554.01316544069664
 20
264.37561990937053
 30
0.0
  0
VERTEX
  5
2742C
  8
0
 10
553.24484696568175
 20
263.78223822788192
 30
0.0
  0
VERTEX
  5
2742D
  8
0
 10
552.48975518549935
 20
263.15921525592063
 30
0.0
  0
VERTEX
  5
2742E
  8
0
 10
551.74852898318079
 20
262.5070781331205
 30
0.0
  0
VERTEX
  5
2742F
  8
0
 10
551.3833119313706
 20
262.17026324463222
 30
0.0
  0
VERTEX
  5
27430
  8
0
 10
551.02179551009431
 20
261.82637863259242
 30
0.0
  0
VERTEX
  5
27431
  8
0
 10
550.31016965531137
 20
261.11769269407341
 30
0.0
  0
VERTEX
  5
27432
  8
0
 10
549.61425352535139
 20
260.3816199366193
 30
0.0
  0
VERTEX
  5
27433
  8
0
 10
548.93463593473689
 20
259.61878315126887
 30
0.0
  0
VERTEX
  5
27434
  8
0
 10
548.27189190779995
 20
258.82982777410052
 30
0.0
  0
VERTEX
  5
27435
  8
0
 10
547.62658219215245
 20
258.01542134012919
 30
0.0
  0
VERTEX
  5
27436
  8
0
 10
547.31063641388766
 20
257.59888848559513
 30
0.0
  0
VERTEX
  5
27437
  8
0
 10
546.99925278423905
 20
257.17625291850618
 30
0.0
  0
VERTEX
  5
27438
  8
0
 10
546.39043446736855
 20
256.31303252949238
 30
0.0
  0
VERTEX
  5
27439
  8
0
 10
545.8006423626191
 20
255.42649054371941
 30
0.0
  0
VERTEX
  5
2743A
  8
0
 10
545.23037549299283
 20
254.517377064215
 30
0.0
  0
VERTEX
  5
2743B
  8
0
 10
544.68011636119456
 20
253.586461291744
 30
0.0
  0
VERTEX
  5
2743C
  8
0
 10
544.15033054138587
 20
252.63453087398921
 30
0.0
  0
VERTEX
  5
2743D
  8
0
 10
543.89325588926317
 20
252.15093619341681
 30
0.0
  0
VERTEX
  5
2743E
  8
0
 10
543.64146628526134
 20
251.66239123912061
 30
0.0
  0
VERTEX
  5
2743F
  8
0
 10
543.15395414278441
 20
250.67086491432289
 30
0.0
  0
VERTEX
  5
27440
  8
0
 10
542.68820659789856
 20
249.66079082985749
 30
0.0
  0
VERTEX
  5
27441
  8
0
 10
542.46361842465205
 20
249.149064854264
 30
0.0
  0
VERTEX
  5
27442
  8
0
 10
542.24461771952531
 20
248.6330236092399
 30
0.0
  0
VERTEX
  5
27443
  8
0
 10
541.82356282814146
 20
247.5884328461471
 30
0.0
  0
VERTEX
  5
27444
  8
0
 10
541.42539817822194
 20
246.52790236865161
 30
0.0
  0
VERTEX
  5
27445
  8
0
 10
541.23500573545971
 20
245.99193964170081
 30
0.0
  0
VERTEX
  5
27446
  8
0
 10
541.05046065681029
 20
245.452329491417
 30
0.0
  0
VERTEX
  5
27447
  8
0
 10
540.69906749848326
 20
244.36262425647789
 30
0.0
  0
VERTEX
  5
27448
  8
0
 10
540.37151601693336
 20
243.25970866325321
 30
0.0
  0
VERTEX
  5
27449
  8
0
 10
540.06808335341543
 20
242.14451588844619
 30
0.0
  0
VERTEX
  5
2744A
  8
0
 10
539.78902624225645
 20
241.01798949647949
 30
0.0
  0
VERTEX
  5
2744B
  8
0
 10
539.53458079363213
 20
239.8810826411482
 30
0.0
  0
VERTEX
  5
2744C
  8
0
 10
539.41665553826101
 20
239.3090368240664
 30
0.0
  0
VERTEX
  5
2744D
  8
0
 10
539.30496229379492
 20
238.73475725915711
 30
0.0
  0
VERTEX
  5
2744E
  8
0
 10
539.1003650229195
 20
237.5799832562216
 30
0.0
  0
VERTEX
  5
2744F
  8
0
 10
538.92096209072338
 20
236.41773768643631
 30
0.0
  0
VERTEX
  5
27450
  8
0
 10
538.76690528999745
 20
235.2490039255872
 30
0.0
  0
VERTEX
  5
27451
  8
0
 10
538.63832496817622
 20
234.0747708391163
 30
0.0
  0
VERTEX
  5
27452
  8
0
 10
538.53532991704844
 20
232.89603194544631
 30
0.0
  0
VERTEX
  5
27453
  8
0
 10
538.49345494827935
 20
232.30528436091569
 30
0.0
  0
VERTEX
  5
27454
  8
0
 10
538.45800728071004
 20
231.71378457536051
 30
0.0
  0
VERTEX
  5
27455
  8
0
 10
538.40642248183065
 20
230.52902902816459
 30
0.0
  0
VERTEX
  5
27456
  8
0
 10
538.38061916630068
 20
229.3427677253321
 30
0.0
  0
VERTEX
  5
27457
  8
0
 10
538.37739324007737
 20
228.7493860438444
 30
0.0
  0
SEQEND
  5
27458
  8
0
  0
POLYLINE
  5
1CE12
  8
0
 66
     1
 10
0.0
 20
0.0
 30
0.0
  0
VERTEX
  5
27459
  8
0
 10
538.37739324007737
 20
228.7493860438444
 30
0.0
  0
VERTEX
  5
2745A
  8
0
 10
538.3838563332215
 20
227.9095092099997
 30
0.0
  0
VERTEX
  5
2745B
  8
0
 10
538.4355446448169
 20
226.2311791821985
 30
0.0
  0
VERTEX
  5
2745C
  8
0
 10
538.53883365332536
 20
224.5571176609119
 30
0.0
  0
VERTEX
  5
2745D
  8
0
 10
538.6097771156991
 20
223.7225747642533
 30
0.0
  0
VERTEX
  5
2745E
  8
0
 10
538.69354827789334
 20
222.89016227739921
 30
0.0
  0
VERTEX
  5
2745F
  8
0
 10
538.89942626826974
 20
221.23313861760471
 30
0.0
  0
VERTEX
  5
27460
  8
0
 10
539.15611864933385
 20
219.5888554326248
 30
0.0
  0
VERTEX
  5
27461
  8
0
 10
539.46319031262919
 20
217.96009987771589
 30
0.0
  0
VERTEX
  5
27462
  8
0
 10
539.82012075389719
 20
216.3496327878984
 30
0.0
  0
VERTEX
  5
27463
  8
0
 10
540.22630495536282
 20
214.76018399818619
 30
0.0
  0
VERTEX
  5
27464
  8
0
 10
540.44765528841845
 20
213.97418492281119
 30
0.0
  0
VERTEX
  5
27465
  8
0
 10
540.68105441127341
 20
213.19444771635881
 30
0.0
  0
VERTEX
  5
27466
  8
0
 10
541.18359829495671
 20
211.65507795611759
 30
0.0
  0
VERTEX
  5
27467
  8
0
 10
541.73308476541695
 20
210.14468403838509
 30
0.0
  0
VERTEX
  5
27468
  8
0
 10
542.32858241125405
 20
208.6658261683524
 30
0.0
  0
VERTEX
  5
27469
  8
0
 10
542.96908182946004
 20
207.2210110957794
 30
0.0
  0
VERTEX
  5
2746A
  8
0
 10
543.65349733641608
 20
205.81268786591681
 30
0.0
  0
VERTEX
  5
2746B
  8
0
 10
544.01181393934814
 20
205.12295921634089
 30
0.0
  0
VERTEX
  5
2746C
  8
0
 10
544.3806688081886
 20
204.44324366822369
 30
0.0
  0
VERTEX
  5
2746D
  8
0
 10
545.14936364700668
 20
203.1149997899511
 30
0.0
  0
VERTEX
  5
2746E
  8
0
 10
545.95827887058715
 20
201.83020768141799
 30
0.0
  0
VERTEX
  5
2746F
  8
0
 10
546.37739324007748
 20
201.2047895812857
 30
0.0
  0
SEQEND
  5
27470
  8
0
  0
POLYLINE
  5
1CE14
  8
0
 66
     1
 10
0.0
 20
0.0
 30
0.0
  0
VERTEX
  5
27471
  8
0
 10
593.87739324007737
 20
199.9347939371637
 30
0.0
  0
VERTEX
  5
27472
  8
0
 10
594.29803790367464
 20
200.6010457618558
 30
0.0
  0
VERTEX
  5
27473
  8
0
 10
595.10940381313037
 20
201.96624187886479
 30
0.0
  0
VERTEX
  5
27474
  8
0
 10
595.87982293147661
 20
203.37324507758061
 30
0.0
  0
VERTEX
  5
27475
  8
0
 10
596.24929908781439
 20
204.0917404580168
 30
0.0
  0
VERTEX
  5
27476
  8
0
 10
596.60809267492266
 20
204.81985909989001
 30
0.0
  0
VERTEX
  5
27477
  8
0
 10
597.29307625263914
 20
206.30382585726329
 30
0.0
  0
VERTEX
  5
27478
  8
0
 10
597.93370444122843
 20
207.82282895551359
 30
0.0
  0
VERTEX
  5
27479
  8
0
 10
598.52897725372645
 20
209.37449731056219
 30
0.0
  0
VERTEX
  5
2747A
  8
0
 10
599.07796550052956
 20
210.95640884958451
 30
0.0
  0
VERTEX
  5
2747B
  8
0
 10
599.57981223981096
 20
212.5660942917302
 30
0.0
  0
VERTEX
  5
2747C
  8
0
 10
599.81280983659349
 20
213.38056861489801
 30
0.0
  0
VERTEX
  5
2747D
  8
0
 10
600.03373411516145
 20
214.201041002545
 30
0.0
  0
VERTEX
  5
2747E
  8
0
 10
600.43902257836839
 20
215.85869691606331
 30
0.0
  0
VERTEX
  5
2747F
  8
0
 10
600.79504499542145
 20
217.53647451844341
 30
0.0
  0
VERTEX
  5
27480
  8
0
 10
601.10124563402189
 20
219.231754886945
 30
0.0
  0
VERTEX
  5
27481
  8
0
 10
601.35714653105094
 20
220.94189177792941
 30
0.0
  0
VERTEX
  5
27482
  8
0
 10
601.56234823864543
 20
222.66421575750519
 30
0.0
  0
VERTEX
  5
27483
  8
0
 10
601.64583369393563
 20
223.52910839113699
 30
0.0
  0
VERTEX
  5
27484
  8
0
 10
601.71653044771381
 20
224.39603836837699
 30
0.0
  0
VERTEX
  5
27485
  8
0
 10
601.81945248792454
 20
226.1346563263842
 30
0.0
  0
VERTEX
  5
27486
  8
0
 10
601.87095370337624
 20
227.87735574018549
 30
0.0
  0
VERTEX
  5
27487
  8
0
 10
601.87739324007737
 20
228.7493860438444
 30
0.0
  0
SEQEND
  5
27488
  8
0
  0
POLYLINE
  5
1CE15
  8
0
 66
     1
 10
0.0
 20
0.0
 30
0.0
  0
VERTEX
  5
27489
  8
0
 10
601.87739324007737
 20
228.7493860438444
 30
0.0
  0
VERTEX
  5
2748A
  8
0
 10
601.87390289367204
 20
229.39140556807709
 30
0.0
  0
VERTEX
  5
2748B
  8
0
 10
601.84598455227876
 20
230.67490140392869
 30
0.0
  0
VERTEX
  5
2748C
  8
0
 10
601.79017149119625
 20
231.95676806155009
 30
0.0
  0
VERTEX
  5
2748D
  8
0
 10
601.75181827710503
 20
232.5967514360855
 30
0.0
  0
VERTEX
  5
2748E
  8
0
 10
601.70651093384663
 20
233.23592095377441
 30
0.0
  0
VERTEX
  5
2748F
  8
0
 10
601.59507366541334
 20
234.5112777895483
 30
0.0
  0
VERTEX
  5
27490
  8
0
 10
601.45595397295074
 20
235.78175948966421
 30
0.0
  0
VERTEX
  5
27491
  8
0
 10
601.28926956560815
 20
237.04629109976301
 30
0.0
  0
VERTEX
  5
27492
  8
0
 10
601.09516147503541
 20
238.3038026998583
 30
0.0
  0
VERTEX
  5
27493
  8
0
 10
600.87379393605534
 20
239.55323030959249
 30
0.0
  0
VERTEX
  5
27494
  8
0
 10
600.75294550761657
 20
240.17458196998629
 30
0.0
  0
VERTEX
  5
27495
  8
0
 10
600.62535424770681
 20
240.79351678846891
 30
0.0
  0
VERTEX
  5
27496
  8
0
 10
600.35005261476886
 20
242.0236127303024
 30
0.0
  0
VERTEX
  5
27497
  8
0
 10
600.04812196990827
 20
243.2424773511184
 30
0.0
  0
VERTEX
  5
27498
  8
0
 10
599.71981777659403
 20
244.4490793697623
 30
0.0
  0
VERTEX
  5
27499
  8
0
 10
599.36541781294989
 20
245.64239788046419
 30
0.0
  0
VERTEX
  5
2749A
  8
0
 10
598.98522193672693
 20
246.82142321662829
 30
0.0
  0
VERTEX
  5
2749B
  8
0
 10
598.78555021228681
 20
247.4052637070981
 30
0.0
  0
VERTEX
  5
2749C
  8
0
 10
598.57955183159345
 20
247.9851578051121
 30
0.0
  0
VERTEX
  5
2749D
  8
0
 10
598.14875073495875
 20
249.1326170102702
 30
0.0
  0
VERTEX
  5
2749E
  8
0
 10
597.69318314755992
 20
250.26282996705871
 30
0.0
  0
VERTEX
  5
2749F
  8
0
 10
597.4562315649639
 20
250.8211696747903
 30
0.0
  0
VERTEX
  5
274A0
  8
0
 10
597.21323452505771
 20
251.37484040248091
 30
0.0
  0
VERTEX
  5
274A1
  8
0
 10
596.70931095190258
 20
252.46770744468989
 30
0.0
  0
VERTEX
  5
274A2
  8
0
 10
596.18183879774733
 20
253.54050641906181
 30
0.0
  0
VERTEX
  5
274A3
  8
0
 10
595.90941070161421
 20
254.06909604174319
 30
0.0
  0
VERTEX
  5
274A4
  8
0
 10
595.6312643566946
 20
254.59232963055911
 30
0.0
  0
VERTEX
  5
274A5
  8
0
 10
595.05805346968816
 20
255.6222871317359
 30
0.0
  0
VERTEX
  5
274A6
  8
0
 10
594.46269113036567
 20
256.62950747572091
 30
0.0
  0
VERTEX
  5
274A7
  8
0
 10
593.84568107470466
 20
257.61313845354562
 30
0.0
  0
VERTEX
  5
274A8
  8
0
 10
593.20754535481149
 20
258.57234781520128
 30
0.0
  0
VERTEX
  5
274A9
  8
0
 10
592.54882389721411
 20
259.50632397380559
 30
0.0
  0
VERTEX
  5
274AA
  8
0
 10
592.21191701923362
 20
259.96360180049209
 30
0.0
  0
VERTEX
  5
274AB
  8
0
 10
591.87007404602889
 20
260.4142766922842
 30
0.0
  0
VERTEX
  5
274AC
  8
0
 10
591.17187009139434
 20
261.29543775198999
 30
0.0
  0
VERTEX
  5
274AD
  8
0
 10
590.45480278356081
 20
262.14906160269669
 30
0.0
  0
VERTEX
  5
274AE
  8
0
 10
589.71947883305984
 20
262.97442599340411
 30
0.0
  0
VERTEX
  5
274AF
  8
0
 10
588.96652039736523
 20
263.77083258343652
 30
0.0
  0
VERTEX
  5
274B0
  8
0
 10
588.19656455448546
 20
264.53760753330971
 30
0.0
  0
VERTEX
  5
274B1
  8
0
 10
587.80541563966187
 20
264.9096794086318
 30
0.0
  0
VERTEX
  5
274B2
  8
0
 10
587.41026276393256
 20
265.27410207486452
 30
0.0
  0
VERTEX
  5
274B3
  8
0
 10
586.60828031552273
 20
265.97969306018967
 30
0.0
  0
VERTEX
  5
274B4
  8
0
 10
585.79129576647301
 20
266.65378348886861
 30
0.0
  0
VERTEX
  5
274B5
  8
0
 10
584.96000036727639
 20
267.29580301310131
 30
0.0
  0
VERTEX
  5
274B6
  8
0
 10
584.11509747683363
 20
267.90520842027399
 30
0.0
  0
VERTEX
  5
274B7
  8
0
 10
583.25730196734105
 20
268.4814840925701
 30
0.0
  0
VERTEX
  5
274B8
  8
0
 10
582.82379587752052
 20
268.75704480087279
 30
0.0
  0
VERTEX
  5
274B9
  8
0
 10
582.38733961943854
 20
269.02414244323973
 30
0.0
  0
VERTEX
  5
274BA
  8
0
 10
581.50594650812536
 20
269.53272432914127
 30
0.0
  0
VERTEX
  5
274BB
  8
0
 10
580.61386837996838
 20
270.00679943922478
 30
0.0
  0
VERTEX
  5
274BC
  8
0
 10
579.71186002212494
 20
270.44596665861633
 30
0.0
  0
VERTEX
  5
274BD
  8
0
 10
578.80068462371855
 20
270.84985440800477
 30
0.0
  0
VERTEX
  5
274BE
  8
0
 10
577.88111313010381
 20
271.21812095803222
 30
0.0
  0
VERTEX
  5
274BF
  8
0
 10
577.41842172846077
 20
271.38879772663398
 30
0.0
  0
VERTEX
  5
274C0
  8
0
 10
576.95392359057018
 20
271.5504547184301
 30
0.0
  0
VERTEX
  5
274C1
  8
0
 10
576.01990050003485
 20
271.84657450165918
 30
0.0
  0
VERTEX
  5
274C2
  8
0
 10
575.07983413528109
 20
272.10622976081959
 30
0.0
  0
VERTEX
  5
274C3
  8
0
 10
574.13451988630572
 20
272.32920080163882
 30
0.0
  0
VERTEX
  5
274C4
  8
0
 10
573.18475758333909
 20
272.51529896835558
 30
0.0
  0
VERTEX
  5
274C5
  8
0
 10
572.2313508201097
 20
272.664366803343
 30
0.0
  0
VERTEX
  5
274C6
  8
0
 10
571.75353275074997
 20
272.7249737049969
 30
0.0
  0
VERTEX
  5
274C7
  8
0
 10
571.2751062739236
 20
272.77627818032943
 30
0.0
  0
VERTEX
  5
274C8
  8
0
 10
570.31683302313354
 20
272.85093841111672
 30
0.0
  0
VERTEX
  5
274C9
  8
0
 10
569.35734186257957
 20
272.88828432569608
 30
0.0
  0
VERTEX
  5
274CA
  8
0
 10
568.87739324007737
 20
272.89295330573623
 30
0.0
  0
VERTEX
  5
274CB
  8
0
 10
568.39744461757516
 20
272.88828432569608
 30
0.0
  0
VERTEX
  5
274CC
  8
0
 10
567.43795345702131
 20
272.85093841111672
 30
0.0
  0
VERTEX
  5
274CD
  8
0
 10
566.47968020623125
 20
272.77627818032943
 30
0.0
  0
VERTEX
  5
274CE
  8
0
 10
566.00125372940488
 20
272.7249737049969
 30
0.0
  0
VERTEX
  5
274CF
  8
0
 10
565.52343566004515
 20
272.664366803343
 30
0.0
  0
VERTEX
  5
274D0
  8
0
 10
564.57002889681576
 20
272.51529896835558
 30
0.0
  0
VERTEX
  5
274D1
  8
0
 10
563.62026659384924
 20
272.32920080163882
 30
0.0
  0
VERTEX
  5
274D2
  8
0
 10
562.67495234487365
 20
272.10622976081959
 30
0.0
  0
VERTEX
  5
274D3
  8
0
 10
561.73488598012023
 20
271.84657450165918
 30
0.0
  0
VERTEX
  5
274D4
  8
0
 10
560.80086288958478
 20
271.5504547184301
 30
0.0
  0
VERTEX
  5
274D5
  8
0
 10
560.33636475169419
 20
271.38879772663398
 30
0.0
  0
VERTEX
  5
274D6
  8
0
 10
559.87367335005115
 20
271.21812095803222
 30
0.0
  0
VERTEX
  5
274D7
  8
0
 10
558.9541018564363
 20
270.84985440800477
 30
0.0
  0
VERTEX
  5
274D8
  8
0
 10
558.04292645803002
 20
270.44596665861633
 30
0.0
  0
VERTEX
  5
274D9
  8
0
 10
557.14091810018647
 20
270.00679943922478
 30
0.0
  0
VERTEX
  5
274DA
  8
0
 10
556.24883997202926
 20
269.53272432914127
 30
0.0
  0
VERTEX
  5
274DB
  8
0
 10
555.36744686071643
 20
269.02414244323973
 30
0.0
  0
VERTEX
  5
274DC
  8
0
 10
554.93099060263444
 20
268.75704480087279
 30
0.0
  0
VERTEX
  5
274DD
  8
0
 10
554.49748451281368
 20
268.4814840925701
 30
0.0
  0
VERTEX
  5
274DE
  8
0
 10
553.63968900332134
 20
267.90520842027399
 30
0.0
  0
VERTEX
  5
274DF
  8
0
 10
552.79478611287846
 20
267.29580301310131
 30
0.0
  0
VERTEX
  5
274E0
  8
0
 10
551.96349071368195
 20
266.65378348886861
 30
0.0
  0
VERTEX
  5
274E1
  8
0
 10
551.14650616463223
 20
265.97969306018967
 30
0.0
  0
VERTEX
  5
274E2
  8
0
 10
550.34452371622228
 20
265.27410207486452
 30
0.0
  0
VERTEX
  5
274E3
  8
0
 10
549.94937084049286
 20
264.9096794086318
 30
0.0
  0
VERTEX
  5
274E4
  8
0
 10
549.55822192566939
 20
264.53760753330971
 30
0.0
  0
VERTEX
  5
274E5
  8
0
 10
548.78826608278973
 20
263.77083258343743
 30
0.0
  0
VERTEX
  5
274E6
  8
0
 10
548.03530764709512
 20
262.97442599340411
 30
0.0
  0
VERTEX
  5
274E7
  8
0
 10
547.29998369659415
 20
262.14906160269669
 30
0.0
  0
VERTEX
  5
274E8
  8
0
 10
546.58291638876051
 20
261.29543775198999
 30
0.0
  0
VERTEX
  5
274E9
  8
0
 10
545.88471243412573
 20
260.4142766922842
 30
0.0
  0
VERTEX
  5
274EA
  8
0
 10
545.54286946092145
 20
259.96360180049209
 30
0.0
  0
VERTEX
  5
274EB
  8
0
 10
545.20596258294086
 20
259.50632397380559
 30
0.0
  0
VERTEX
  5
274EC
  8
0
 10
544.54724112534325
 20
258.57234781520128
 30
0.0
  0
VERTEX
  5
274ED
  8
0
 10
543.90910540545008
 20
257.61313845354562
 30
0.0
  0
VERTEX
  5
274EE
  8
0
 10
543.29209534978907
 20
256.62950747572091
 30
0.0
  0
VERTEX
  5
274EF
  8
0
 10
542.69673301046657
 20
255.6222871317359
 30
0.0
  0
VERTEX
  5
274F0
  8
0
 10
542.12352212346025
 20
254.59232963055911
 30
0.0
  0
VERTEX
  5
274F1
  8
0
 10
541.84537577854076
 20
254.06909604174319
 30
0.0
  0
VERTEX
  5
274F2
  8
0
 10
541.57294768240763
 20
253.54050641906181
 30
0.0
  0
VERTEX
  5
274F3
  8
0
 10
541.04547552825238
 20
252.46770744468989
 30
0.0
  0
VERTEX
  5
274F4
  8
0
 10
540.54155195509725
 20
251.37484040248091
 30
0.0
  0
VERTEX
  5
274F5
  8
0
 10
540.29855491519095
 20
250.8211696747903
 30
0.0
  0
VERTEX
  5
274F6
  8
0
 10
540.06160333259504
 20
250.26282996705871
 30
0.0
  0
VERTEX
  5
274F7
  8
0
 10
539.60603574519632
 20
249.1326170102702
 30
0.0
  0
VERTEX
  5
274F8
  8
0
 10
539.17523464856163
 20
247.9851578051121
 30
0.0
  0
VERTEX
  5
274F9
  8
0
 10
538.96923626786815
 20
247.4052637070981
 30
0.0
  0
VERTEX
  5
274FA
  8
0
 10
538.76956454342803
 20
246.82142321662829
 30
0.0
  0
VERTEX
  5
274FB
  8
0
 10
538.38936866720485
 20
245.64239788046419
 30
0.0
  0
VERTEX
  5
274FC
  8
0
 10
538.03496870356093
 20
244.4490793697623
 30
0.0
  0
VERTEX
  5
274FD
  8
0
 10
537.70666451024647
 20
243.2424773511184
 30
0.0
  0
VERTEX
  5
274FE
  8
0
 10
537.40473386538611
 20
242.0236127303024
 30
0.0
  0
VERTEX
  5
274FF
  8
0
 10
537.12943223244815
 20
240.79351678846891
 30
0.0
  0
VERTEX
  5
27500
  8
0
 10
537.00184097253816
 20
240.17458196998629
 30
0.0
  0
VERTEX
  5
27501
  8
0
 10
536.88099254409963
 20
239.55323030959249
 30
0.0
  0
VERTEX
  5
27502
  8
0
 10
536.65962500511955
 20
238.3038026998583
 30
0.0
  0
VERTEX
  5
27503
  8
0
 10
536.4655169145467
 20
237.04629109976301
 30
0.0
  0
VERTEX
  5
27504
  8
0
 10
536.298832507204
 20
235.78175948966421
 30
0.0
  0
VERTEX
  5
27505
  8
0
 10
536.15971281474151
 20
234.5112777895483
 30
0.0
  0
VERTEX
  5
27506
  8
0
 10
536.04827554630833
 20
233.23592095377441
 30
0.0
  0
VERTEX
  5
27507
  8
0
 10
536.00296820304993
 20
232.5967514360855
 30
0.0
  0
VERTEX
  5
27508
  8
0
 10
535.96461498895849
 20
231.95676806155009
 30
0.0
  0
VERTEX
  5
27509
  8
0
 10
535.90880192787631
 20
230.67490140392869
 30
0.0
  0
VERTEX
  5
2750A
  8
0
 10
535.88088358648292
 20
229.39140556807709
 30
0.0
  0
VERTEX
  5
2750B
  8
0
 10
535.87739324007737
 20
228.7493860438444
 30
0.0
  0
SEQEND
  5
2750C
  8
0
  0
POLYLINE
  5
1CE16
  8
0
 66
     1
 10
0.0
 20
0.0
 30
0.0
  0
VERTEX
  5
2750D
  8
0
 10
535.87739324007737
 20
228.7493860438444
 30
0.0
  0
VERTEX
  5
2750E
  8
0
 10
535.88383277677872
 20
227.87735574018549
 30
0.0
  0
VERTEX
  5
2750F
  8
0
 10
535.93533399223065
 20
226.1346563263842
 30
0.0
  0
VERTEX
  5
27510
  8
0
 10
536.03825603244104
 20
224.39603836837699
 30
0.0
  0
VERTEX
  5
27511
  8
0
 10
536.10895278621933
 20
223.52910839113699
 30
0.0
  0
VERTEX
  5
27512
  8
0
 10
536.19243824150954
 20
222.66421575750519
 30
0.0
  0
VERTEX
  5
27513
  8
0
 10
536.39763994910356
 20
220.94189177792941
 30
0.0
  0
VERTEX
  5
27514
  8
0
 10
536.65354084613296
 20
219.231754886945
 30
0.0
  0
VERTEX
  5
27515
  8
0
 10
536.9597414847334
 20
217.53647451844341
 30
0.0
  0
VERTEX
  5
27516
  8
0
 10
537.31576390178657
 20
215.85869691606331
 30
0.0
  0
VERTEX
  5
27517
  8
0
 10
537.7210523649934
 20
214.201041002545
 30
0.0
  0
VERTEX
  5
27518
  8
0
 10
537.94197664356136
 20
213.38056861489801
 30
0.0
  0
VERTEX
  5
27519
  8
0
 10
538.174974240344
 20
212.5660942917302
 30
0.0
  0
VERTEX
  5
2751A
  8
0
 10
538.67682097962529
 20
210.95640884958451
 30
0.0
  0
VERTEX
  5
2751B
  8
0
 10
539.22580922642851
 20
209.37449731056219
 30
0.0
  0
VERTEX
  5
2751C
  8
0
 10
539.82108203892653
 20
207.8228289555127
 30
0.0
  0
VERTEX
  5
2751D
  8
0
 10
540.46171022751582
 20
206.30382585726329
 30
0.0
  0
VERTEX
  5
2751E
  8
0
 10
541.14669380523242
 20
204.81985909989001
 30
0.0
  0
VERTEX
  5
2751F
  8
0
 10
541.50548739234046
 20
204.0917404580168
 30
0.0
  0
VERTEX
  5
27520
  8
0
 10
541.87496354867812
 20
203.37324507758061
 30
0.0
  0
VERTEX
  5
27521
  8
0
 10
542.64538266702436
 20
201.96624187886479
 30
0.0
  0
VERTEX
  5
27522
  8
0
 10
543.45674857648021
 20
200.6010457618558
 30
0.0
  0
VERTEX
  5
27523
  8
0
 10
543.87739324007737
 20
199.9347939371637
 30
0.0
  0
SEQEND
  5
27524
  8
0
  0
LINE
  5
1CE18
  8
0
 10
546.37739324007748
 20
256.29388739787191
 30
0.0
 11
546.37739324007748
 21
192.2436887314197
 31
0.0
  0
LINE
  5
1CE19
  8
0
 10
591.37739324007748
 20
192.2436887314197
 30
0.0
 11
591.37739324007748
 21
256.29388739787191
 31
0.0
  0
LINE
  5
1CE1A
  8
0
 10
557.00181250476521
 20
266.32887416569702
 30
0.0
 11
580.74715693601718
 21
266.32887416569702
 31
0.0
  0
LINE
  5
1CE81
  8
1
 10
355.90231598404762
 20
311.7085891019542
 30
0.0
 11
355.90231598404762
 21
241.9761887314198
 31
0.0
  0
LINE
  5
1CE82
  8
0
 10
390.70231598404757
 20
292.44368873142048
 30
0.0
 11
390.70231598404757
 21
293.24368873141981
 31
0.0
  0
LINE
  5
1CE83
  8
0
 10
321.10231598404772
 20
293.24368873141981
 30
0.0
 11
321.10231598404772
 21
292.44368873142048
 31
0.0
  0
LINE
  5
1CE84
  8
0
 10
390.40353664802569
 20
283.94368873142048
 30
0.0
 11
391.90231598404762
 21
292.44368873142048
 31
0.0
  0
LINE
  5
1CE85
  8
0
 10
319.90231598404762
 20
292.44368873142048
 30
0.0
 11
321.40109532006949
 21
283.94368873142048
 31
0.0
  0
LINE
  5
1CE86
  8
0
 10
388.90231598404762
 20
272.89295330573623
 30
0.0
 11
388.90231598404762
 21
283.94368873142048
 31
0.0
  0
LINE
  5
1CE87
  8
0
 10
322.90231598404762
 20
283.94368873142048
 30
0.0
 11
322.90231598404762
 21
281.94368873142048
 31
0.0
  0
LINE
  5
1CE88
  8
0
 10
405.90231598404762
 20
295.74368873141981
 30
0.0
 11
405.90231598404762
 21
293.24368873141981
 31
0.0
  0
LINE
  5
1CE8A
  8
0
 10
305.90231598404762
 20
295.74368873141981
 30
0.0
 11
305.90231598404762
 21
293.24368873141981
 31
0.0
  0
LINE
  5
1CE8B
  8
0
 10
305.90231598404762
 20
295.74368873141981
 30
0.0
 11
405.90231598404762
 21
295.74368873141981
 31
0.0
  0
LINE
  5
1CE8D
  8
0
 10
305.90231598404762
 20
293.24368873141981
 30
0.0
 11
405.90231598404762
 21
293.24368873141981
 31
0.0
  0
LINE
  5
1CE8E
  8
0
 10
319.90231598404762
 20
292.44368873142048
 30
0.0
 11
391.90231598404762
 21
292.44368873142048
 31
0.0
  0
LINE
  5
1CE8F
  8
0
 10
321.40109532006949
 20
283.94368873142048
 30
0.0
 11
390.40353664802569
 21
283.94368873142048
 31
0.0
  0
LINE
  5
1CE90
  8
0
 10
334.36165675550961
 20
281.94368873142048
 30
0.0
 11
310.90231598404762
 21
281.94368873142048
 31
0.0
  0
LINE
  5
1CE91
  8
0
 10
334.36165675550961
 20
281.94368873142048
 30
0.0
 11
334.36165675550961
 21
199.9347939371637
 31
0.0
  0
LINE
  5
1CE92
  8
0
 10
310.90231598404762
 20
281.94368873142048
 30
0.0
 11
310.90231598404762
 21
278.2436887314197
 31
0.0
  0
ARC
  5
1CE93
  8
0
 10
323.60231598404772
 20
202.24368873141981
 30
0.0
 40
9.9999999999999698
 50
270.0
 51
323.21965126063219
  0
LINE
  5
1CE94
  8
0
 10
314.20231598404757
 20
192.2436887314197
 30
0.0
 11
323.60231598404772
 21
192.2436887314197
 31
0.0
  0
LINE
  5
1CE95
  8
0
 10
331.61168374887598
 20
196.25619944059599
 30
0.0
 11
388.90231598404762
 21
272.89295330573623
 31
0.0
  0
ARC
  5
1CE96
  8
0
 10
314.20231598404757
 20
202.24368873141981
 30
0.0
 40
10.000000000000011
 50
174.93259717393971
 51
270.0
  0
LINE
  5
1CE97
  8
0
 10
310.90231598404762
 20
278.2436887314197
 30
0.0
 11
304.24140119739968
 21
203.12696479989421
 31
0.0
  0
LINE
  5
1CE98
  8
0
 10
306.9356369808383
 20
281.7436887314197
 30
0.0
 11
258.41897648244299
 21
268.74368873141981
 31
0.0
  0
LINE
  5
1CE99
  8
0
 10
310.90231598404762
 20
281.7436887314197
 30
0.0
 11
306.9356369808383
 21
281.7436887314197
 31
0.0
  0
LINE
  5
1CE9A
  8
0
 10
261.90231598404762
 20
255.74368873141981
 30
0.0
 11
308.90714666814142
 21
255.74368873141981
 31
0.0
  0
LINE
  5
1CE9B
  8
0
 10
258.41897648244299
 20
268.74368873141981
 30
0.0
 11
261.90231598404762
 21
255.74368873141981
 31
0.0
  0
LINE
  5
225C5
  8
0
 10
238.4189764824427
 20
418.75099680114261
 30
0.0
 11
238.4189764824427
 21
450.79403816777619
 31
0.0
  0
LINE
  5
225C6
  8
0
 10
242.96313674647061
 20
415.77251748445809
 30
0.0
 11
242.96313674647061
 21
453.77251748445809
 31
0.0
  0
LINE
  5
225C7
  8
0
 10
255.41897648244299
 20
418.77251748445809
 30
0.0
 11
255.41897648244321
 21
450.77251748445809
 31
0.0
  0
LINE
  5
225C8
  8
0
 10
258.41897648244299
 20
415.77251748445809
 30
0.0
 11
240.0130861810587
 21
415.77251748445809
 31
0.0
  0
LINE
  5
225C9
  8
0
 10
255.41897648244299
 20
418.77251748445809
 30
0.0
 11
258.41897648244299
 21
418.77251748445809
 31
0.0
  0
LINE
  5
225CA
  8
0
 10
258.41897648244299
 20
453.77251748445809
 30
0.0
 11
240.0130861810585
 21
453.77251748445809
 31
0.0
  0
LINE
  5
225CB
  8
0
 10
255.41897648244409
 20
450.77251748445809
 30
0.0
 11
258.4189764824439
 21
450.77251748445809
 31
0.0
  0
ARC
  5
225CC
  8
0
 10
242.7554158760845
 20
419.15606851090342
 30
0.0
 40
4.3553174057440378
 50
185.33657785306951
 51
230.97562584387981
  0
ARC
  5
225CD
  8
0
 10
242.7554158760843
 20
450.38896645801282
 30
0.0
 40
4.3553174057440378
 50
129.0243741561201
 51
174.66342214693049
  0
LINE
  5
225CE
  8
1
 10
226.03446063113961
 20
434.77251748446179
 30
0.0
 11
418.28683183535082
 21
434.77251748445991
 31
0.0
  0
CIRCLE
  5
225CF
  8
0
 10
355.90231598404762
 20
434.77251748445991
 30
0.0
 40
31.174999999999962
  0
CIRCLE
  5
225D0
  8
0
 10
355.90231598404762
 20
434.77251748445991
 30
0.0
 40
25.649999999999999
  0
CIRCLE
  5
225D1
  8
0
 10
355.90231598404762
 20
434.77251748445991
 30
0.0
 40
20.149999999999999
  0
CIRCLE
  5
225D2
  8
0
 10
355.90231598404762
 20
434.77251748445991
 30
0.0
 40
23.802288713680579
  0
CIRCLE
  5
225D3
  8
0
 10
355.90231598404762
 20
434.77251748445991
 30
0.0
 40
13.5
  0
CIRCLE
  5
225D4
  8
0
 10
355.90231598404762
 20
434.77251748445991
 30
0.0
 40
9.0
  0
LINE
  5
225D5
  8
1
 10
355.90231598404762
 20
489.657033335763
 30
0.0
 11
355.90231598404762
 21
379.88800163315682
 31
0.0
  0
CIRCLE
  5
225D6
  8
0
 10
355.90231598404762
 20
434.77251748445991
 30
0.0
 40
27.174999999999962
  0
LINE
  5
225D7
  8
1
 10
318.90231598404762
 20
386.1819169267946
 30
0.0
 11
318.90231598404762
 21
483.36311804212522
 31
0.0
  0
LINE
  5
225DE
  8
0
 10
238.41897648244299
 20
269.86604156742851
 30
0.0
 11
241.63291453087569
 21
266.0358193518332
 31
0.0
  0
LINE
  5
225DF
  8
0
 10
240.33408759024039
 20
271.47301059164511
 30
0.0
 11
238.41897648244299
 21
269.86604156742851
 31
0.0
  0
LINE
  5
225E0
  8
0
 10
242.96313674647061
 20
268.33983181460098
 30
0.0
 11
240.33408759024039
 21
271.47301059164511
 31
0.0
  0
LINE
  5
225E1
  8
0
 10
259.12854318207428
 20
266.09554975703668
 30
0.0
 11
242.96313674647061
 21
268.33983181460098
 31
0.0
  0
LINE
  5
225E2
  8
0
 10
258.44511079549881
 20
268.6461541472745
 30
0.0
 11
258.13956915287281
 21
268.82552289940941
 31
0.0
  0
LINE
  5
225E3
  8
0
 10
241.63291453087569
 20
266.0358193518332
 30
0.0
 11
259.84248123050679
 21
263.43109668682979
 31
0.0
  0
LINE
  5
225E4
  8
0
 10
255.87335676289399
 20
272.6021496726616
 30
0.0
 11
258.41739045640981
 21
272.25182632722039
 31
0.0
  0
LINE
  5
225E5
  8
0
 10
255.4224384707943
 20
269.49170897854952
 30
0.0
 11
255.87335676289399
 21
272.6021496726616
 31
0.0
  0
LINE
  5
225E6
  8
0
 10
258.07381807057368
 20
269.20457816917587
 30
0.0
 11
258.41739045640981
 21
272.25182632722039
 31
0.0
  0
LINE
  5
225E7
  8
0
 10
255.4224384707943
 20
269.49170897854952
 30
0.0
 11
256.16038546334738
 21
266.5076261956155
 31
0.0
  0
LINE
  5
225E8
  8
0
 10
258.07381807057368
 20
269.20457816917587
 30
0.0
 11
258.13956915287281
 21
268.82552289940941
 31
0.0
  0
LINE
  5
227D4
  8
0
 10
565.87739324007794
 20
264.74368873141981
 30
0.0
 11
571.87739324007794
 21
264.74368873141981
 31
0.0
  0
LINE
  5
227D5
  8
0
 10
571.87739324007794
 20
139.7436887314197
 30
0.0
 11
565.87739324007794
 21
139.7436887314197
 31
0.0
  0
ARC
  5
227D6
  8
0
 10
565.87739324007794
 20
140.04368873141991
 30
0.0
 40
0.3000000000000185
 50
180.0
 51
270.0
  0
ARC
  5
227D7
  8
0
 10
565.87739324007794
 20
264.44368873141963
 30
0.0
 40
0.300000000000014
 50
90.0
 51
180.0
  0
LINE
  5
227D8
  8
0
 10
563.17739324007778
 20
264.44368873141963
 30
0.0
 11
565.57739324007787
 21
264.44368873141963
 31
0.0
  0
LINE
  5
227D9
  8
0
 10
565.57739324007787
 20
140.04368873141991
 30
0.0
 11
563.17739324007778
 21
140.04368873141991
 31
0.0
  0
ARC
  5
227DA
  8
0
 10
562.87739324007794
 20
140.04368873141991
 30
0.0
 40
0.2999999999999998
 50
270.0
 51
0.0
  0
ARC
  5
227DB
  8
0
 10
562.87739324007794
 20
264.44368873141963
 30
0.0
 40
0.2999999999999971
 50
0.0
 51
90.0
  0
LINE
  5
227DC
  8
0
 10
559.44887664021644
 20
264.74368873141981
 30
0.0
 11
562.87739324007794
 21
264.74368873141981
 31
0.0
  0
LINE
  5
227DD
  8
0
 10
562.87739324007794
 20
139.7436887314197
 30
0.0
 11
559.44887664021644
 21
139.7436887314197
 31
0.0
  0
ARC
  5
227DE
  8
0
 10
559.44887664021644
 20
140.7436887314197
 30
0.0
 40
1.0000000000000211
 50
198.99999999998761
 51
270.0
  0
ARC
  5
227DF
  8
0
 10
559.44887664021644
 20
263.74368873141981
 30
0.0
 40
1.0000000000000211
 50
90.0
 51
161.00000000001231
  0
LINE
  5
227E0
  8
0
 10
557.09493267940059
 20
259.9788925617367
 30
0.0
 11
558.50335806461726
 21
264.06925688587671
 31
0.0
  0
LINE
  5
227E1
  8
0
 10
558.50335806461726
 20
140.41812057696279
 30
0.0
 11
557.09493267940059
 21
144.50848490110269
 31
0.0
  0
ARC
  5
227E2
  8
0
 10
559.93148840619858
 20
145.48518936447451
 30
0.0
 40
2.999999999999917
 50
179.99999914622629
 51
198.99999999998761
  0
ARC
  5
227E3
  8
0
 10
559.93148840619858
 20
259.00218809836502
 30
0.0
 40
2.9999999999999591
 50
161.00000000001231
 51
180.0
  0
ARC
  5
227E4
  8
0
 10
556.30648840619858
 20
146.798293335778
 30
0.0
 40
0.625
 50
180.0
 51
0.0
  0
ARC
  5
227E5
  8
0
 10
556.30648840619858
 20
257.68908412706151
 30
0.0
 40
0.625
 50
0.0
 51
180.0
  0
ARC
  5
227E6
  8
0
 10
555.05648840619858
 20
150.4285569328722
 30
0.0
 40
0.625
 50
180.0
 51
0.0
  0
ARC
  5
227E7
  8
0
 10
555.05648840619858
 20
254.05882052996731
 30
0.0
 40
0.625
 50
0.0
 51
180.0
  0
LINE
  5
227E8
  8
0
 10
550.29083751327994
 20
240.21836536754651
 30
0.0
 11
554.4314884061987
 21
252.24368873141981
 31
0.0
  0
LINE
  5
227E9
  8
0
 10
554.4314884061987
 20
152.2436887314197
 30
0.0
 11
550.29083751327994
 21
164.269012095292
 31
0.0
  0
ARC
  5
227EA
  8
0
 10
553.12739324007816
 20
165.24571655866379
 30
0.0
 40
3.0000000000001941
 50
179.99999914622629
 51
198.99999999998761
  0
ARC
  5
227EB
  8
0
 10
553.12739324007816
 20
239.2416609041756
 30
0.0
 40
3.000000000000191
 50
161.00000000001231
 51
179.99999914622629
  0
ARC
  5
227EC
  8
0
 10
584.62739324007839
 20
165.24571655866379
 30
0.0
 40
2.9999999999995999
 50
341.00000000001239
 51
0.0000008537736463
  0
ARC
  5
227ED
  8
0
 10
584.62739324007839
 20
239.2416609041756
 30
0.0
 40
2.999999999999599
 50
0.0000008537736463
 51
18.999999999987629
  0
LINE
  5
227EE
  8
0
 10
583.32329807395706
 20
252.24368873141981
 30
0.0
 11
587.46394896687593
 21
240.21836536754651
 31
0.0
  0
LINE
  5
227EF
  8
0
 10
587.46394896687593
 20
164.269012095292
 30
0.0
 11
583.32329807395706
 21
152.2436887314197
 31
0.0
  0
ARC
  5
227F0
  8
0
 10
582.69829807395706
 20
150.4285569328722
 30
0.0
 40
0.625
 50
180.0
 51
0.0
  0
ARC
  5
227F1
  8
0
 10
582.69829807395706
 20
254.05882052996731
 30
0.0
 40
0.625
 50
0.0
 51
180.0
  0
ARC
  5
227F2
  8
0
 10
581.44829807395718
 20
146.798293335778
 30
0.0
 40
0.625
 50
180.0
 51
0.0
  0
ARC
  5
227F3
  8
0
 10
581.44829807395718
 20
257.68908412706151
 30
0.0
 40
0.625
 50
0.0
 51
180.0
  0
ARC
  5
227F4
  8
0
 10
577.82329807395718
 20
145.48518936447451
 30
0.0
 40
2.9999999999999338
 50
341.00000000001239
 51
0.0
  0
ARC
  5
227F5
  8
0
 10
577.82329807395718
 20
259.00218809836502
 30
0.0
 40
2.9999999999999369
 50
0.0
 51
18.999999999987629
  0
LINE
  5
227F6
  8
0
 10
579.25142841553861
 20
264.06925688587671
 30
0.0
 11
580.65985380075506
 21
259.9788925617367
 31
0.0
  0
LINE
  5
227F7
  8
0
 10
580.65985380075506
 20
144.50848490110269
 30
0.0
 11
579.25142841553861
 21
140.41812057696279
 31
0.0
  0
ARC
  5
227F8
  8
0
 10
578.30590983993943
 20
140.7436887314197
 30
0.0
 40
1.0000000000000211
 50
270.0
 51
341.00000000001239
  0
ARC
  5
227F9
  8
0
 10
578.30590983993943
 20
263.74368873141981
 30
0.0
 40
1.0000000000000211
 50
18.999999999987629
 51
90.0
  0
LINE
  5
227FA
  8
0
 10
574.87739324007794
 20
264.74368873141981
 30
0.0
 11
578.30590983993943
 21
264.74368873141981
 31
0.0
  0
LINE
  5
227FB
  8
0
 10
578.30590983993943
 20
139.7436887314197
 30
0.0
 11
574.87739324007794
 21
139.7436887314197
 31
0.0
  0
ARC
  5
227FC
  8
0
 10
574.87739324007794
 20
140.04368873141991
 30
0.0
 40
0.3000000000000185
 50
180.0
 51
270.0
  0
ARC
  5
227FD
  8
0
 10
574.87739324007794
 20
264.44368873141963
 30
0.0
 40
0.300000000000014
 50
90.0
 51
180.0
  0
LINE
  5
227FE
  8
0
 10
572.17739324007778
 20
264.44368873141963
 30
0.0
 11
574.57739324007787
 21
264.44368873141963
 31
0.0
  0
LINE
  5
227FF
  8
0
 10
574.57739324007787
 20
140.04368873141991
 30
0.0
 11
572.17739324007778
 21
140.04368873141991
 31
0.0
  0
ARC
  5
22800
  8
0
 10
571.87739324007794
 20
140.04368873141991
 30
0.0
 40
0.3000000000000003
 50
270.0
 51
0.0
  0
ARC
  5
22801
  8
0
 10
571.87739324007794
 20
264.44368873141963
 30
0.0
 40
0.3000000000000043
 50
0.0
 51
90.0
  0
LINE
  5
22802
  8
0
 10
565.57739324007787
 20
140.04368873141991
 30
0.0
 11
565.57739324007787
 21
264.44368873141963
 31
0.0
  0
LINE
  5
22803
  8
0
 10
563.17739324007778
 20
140.04368873141991
 30
0.0
 11
563.17739324007778
 21
264.44368873141963
 31
0.0
  0
LINE
  5
22804
  8
0
 10
556.9314884061987
 20
145.48518936447451
 30
0.0
 11
556.9314884061987
 21
259.00218809836502
 31
0.0
  0
LINE
  5
22805
  8
0
 10
555.6814884061987
 20
146.798293335778
 30
0.0
 11
555.6814884061987
 21
257.68908412706151
 31
0.0
  0
LINE
  5
22806
  8
0
 10
554.4314884061987
 20
150.4285569328722
 30
0.0
 11
554.4314884061987
 21
254.05882052996731
 31
0.0
  0
LINE
  5
22807
  8
0
 10
550.12739324007794
 20
165.24571655866379
 30
0.0
 11
550.12739324007794
 21
239.2416609041756
 31
0.0
  0
LINE
  5
22808
  8
0
 10
583.32329807395706
 20
150.4285569328722
 30
0.0
 11
583.32329807395706
 21
254.05882052996731
 31
0.0
  0
LINE
  5
22809
  8
0
 10
582.07329807395706
 20
146.798293335778
 30
0.0
 11
582.07329807395706
 21
257.68908412706151
 31
0.0
  0
LINE
  5
2280A
  8
0
 10
580.82329807395706
 20
145.48518936447451
 30
0.0
 11
580.82329807395706
 21
259.00218809836502
 31
0.0
  0
LINE
  5
2280B
  8
0
 10
574.57739324007787
 20
140.04368873141991
 30
0.0
 11
574.57739324007787
 21
264.44368873141963
 31
0.0
  0
LINE
  5
2280C
  8
0
 10
572.17739324007778
 20
140.04368873141991
 30
0.0
 11
572.17739324007778
 21
264.44368873141963
 31
0.0
  0
LINE
  5
2280D
  8
0
 10
587.62739324007794
 20
165.24571655866379
 30
0.0
 11
587.62739324007794
 21
239.2416609041756
 31
0.0
  0
LINE
  5
2280E
  8
3
 10
603.87739324007748
 20
205.4766887314199
 30
0.0
 11
601.87739324007737
 21
205.4766887314199
 31
0.0
  0
LINE
  5
22810
  8
3
 10
603.87739324007748
 20
199.01068873141961
 30
0.0
 11
601.87739324007737
 21
199.01068873141961
 31
0.0
  0
LINE
  5
22812
  8
0
 10
325.16064931738077
 20
205.8569391660985
 30
0.0
 11
325.16064931738077
 21
198.630438296741
 31
0.0
  0
LINE
  5
22813
  8
0
 10
312.64398265071441
 20
205.8569391660985
 30
0.0
 11
312.64398265071441
 21
198.630438296741
 31
0.0
  0
LINE
  5
22814
  8
0
 10
325.16064931738077
 20
198.630438296741
 30
0.0
 11
318.90231598404762
 21
195.01718786206311
 31
0.0
  0
LINE
  5
22815
  8
0
 10
312.64398265071441
 20
198.630438296741
 30
0.0
 11
318.90231598404762
 21
195.01718786206311
 31
0.0
  0
LINE
  5
22816
  8
0
 10
325.16064931738077
 20
205.8569391660985
 30
0.0
 11
318.90231598404762
 21
209.4701896007773
 31
0.0
  0
LINE
  5
22817
  8
0
 10
312.64398265071441
 20
205.8569391660985
 30
0.0
 11
318.90231598404762
 21
209.4701896007773
 31
0.0
  0
CIRCLE
  5
22818
  8
0
 10
318.90231598404807
 20
202.24368873141981
 30
0.0
 40
6.2583333333333311
  0
LINE
  5
22819
  8
1
 10
244.67390457680861
 20
202.24368873141981
 30
0.0
 11
393.1307273912866
 21
202.24368873141981
 31
0.0
  0
LINE
  5
2281C
  8
1
 10
318.90231598404762
 20
128.01527732418069
 30
0.0
 11
318.90231598404762
 21
269.95159163403878
 31
0.0
  0
ARC
  5
2281D
  8
0
 10
318.90231598404762
 20
202.24368873141981
 30
0.0
 40
52.44013179854737
 50
101.1909729862132
 51
38.002477578740312
  0
ARC
  5
2281E
  8
0
 10
318.90231598404762
 20
202.24368873141981
 30
0.0
 40
56.070395395642208
 50
107.41582285313071
 51
39.009193966275582
  0
ARC
  5
2281F
  8
0
 10
318.90231598404739
 20
202.5608121312562
 30
0.0
 40
37.810238368129291
 50
107.7351656284898
 51
31.028527517692691
  0
ARC
  5
22820
  8
0
 10
318.90231598404762
 20
202.24368873141981
 30
0.0
 40
49.999999999999957
 50
102.00815730012761
 51
37.240470051823941
  0
ARC
  5
22821
  8
0
 10
318.90231598404762
 20
202.24368873141981
 30
0.0
 40
62.5
 50
121.2249877309939
 51
40.497082732280369
  0
ARC
  5
22822
  8
0
 10
318.90231598404762
 20
202.24368873141981
 30
0.0
 40
31.210913055372199
 50
112.99289592298381
 51
27.051150670573051
  0
LINE
  5
22823
  8
0
 10
584.93551626406634
 20
263.43109668682979
 30
0.0
 11
579.47116459377298
 21
263.43109668682979
 31
0.0
  0
LINE
  5
22824
  8
0
 10
558.28362188638278
 20
263.43109668682979
 30
0.0
 11
552.81927021608885
 21
263.43109668682979
 31
0.0
  0
LINE
  5
22825
  8
1
 10
568.87739324007805
 20
311.7085891019542
 30
0.0
 11
568.87739324007794
 21
128.01527732418069
 31
0.0
  0
LINE
  5
22826
  8
1
 10
610.48642783259584
 20
202.24368873141981
 30
0.0
 11
527.26835864756004
 21
202.24368873141981
 31
0.0
  0
LINE
  5
22CAF
  8
0
 10
93.880400343976135
 20
194.74368521474571
 30
0.0
 11
90.130400194964523
 21
194.74368521474571
 31
0.0
  0
LINE
  5
22CB0
  8
0
 10
90.130400194964523
 20
209.74368581079219
 30
0.0
 11
93.880400343976135
 21
209.74368581079219
 31
0.0
  0
LINE
  5
22CB1
  8
0
 10
135.13040198310381
 20
194.74368521474571
 30
0.0
 11
131.3804020669229
 21
194.74368521474571
 31
0.0
  0
LINE
  5
22CB2
  8
0
 10
131.3804020669229
 20
209.74368581079219
 30
0.0
 11
135.13040198310381
 21
209.74368581079219
 31
0.0
  0
LINE
  5
22CB3
  8
0
 10
82.130402608952636
 20
196.42868617080421
 30
0.0
 11
79.630401267848129
 21
196.42868617080421
 31
0.0
  0
LINE
  5
22CB4
  8
0
 10
79.630401267848129
 20
208.05869230531431
 30
0.0
 11
82.130402608952636
 21
208.05869230531431
 31
0.0
  0
LINE
  5
22CB5
  8
0
 10
138.2304020721383
 20
196.42868617080421
 30
0.0
 11
137.63040192722451
 21
196.42868617080421
 31
0.0
  0
LINE
  5
22CB6
  8
0
 10
137.63040192722451
 20
208.05869230531431
 30
0.0
 11
138.2304020721383
 21
208.05869230531431
 31
0.0
  0
LINE
  5
22CB7
  8
0
 10
79.630401267848129
 20
198.24369230769841
 30
0.0
 11
78.397400959572906
 21
198.24369230769841
 31
0.0
  0
LINE
  5
22CB8
  8
0
 10
78.397400959572906
 20
206.24368616842
 30
0.0
 11
79.630401267848129
 21
206.24368616842
 31
0.0
  0
LINE
  5
22CB9
  8
0
 10
78.397400959572906
 20
198.24369230769841
 30
0.0
 11
77.630400940022582
 21
199.01069232724871
 31
0.0
  0
LINE
  5
22CBA
  8
0
 10
77.630400940022582
 20
205.4766861488697
 30
0.0
 11
78.397400959572906
 21
206.24368616842
 31
0.0
  0
LINE
  5
22CBB
  8
0
 10
82.130402608952636
 20
208.50202420257301
 30
0.0
 11
82.389820649466628
 21
209.47018989824031
 31
0.0
  0
LINE
  5
22CBC
  8
0
 10
82.389820649466628
 20
195.01718857787819
 30
0.0
 11
82.130402608952636
 21
195.9853542735454
 31
0.0
  0
LINE
  5
22CBD
  8
0
 10
87.630402579150314
 20
195.9853542735454
 30
0.0
 11
87.370980813346023
 21
195.01718857787819
 31
0.0
  0
LINE
  5
22CBE
  8
0
 10
87.370980813346023
 20
209.47018989824031
 30
0.0
 11
87.630402579150314
 21
208.50202420257301
 31
0.0
  0
LINE
  5
22CBF
  8
0
 10
138.2304020721383
 20
208.50202420257301
 30
0.0
 11
138.4898217424668
 21
209.47018989824031
 31
0.0
  0
LINE
  5
22CC0
  8
0
 10
138.4898217424668
 20
195.01718857787819
 30
0.0
 11
138.2304020721383
 21
195.9853542735454
 31
0.0
  0
LINE
  5
22CC1
  8
0
 10
142.93040177150729
 20
195.9853542735454
 30
0.0
 11
142.67098233400949
 21
195.01718857787819
 31
0.0
  0
LINE
  5
22CC2
  8
0
 10
142.67098233400949
 20
209.47018989824031
 30
0.0
 11
142.93040177150729
 21
208.50202420257301
 31
0.0
  0
LINE
  5
22CC3
  8
0
 10
148.6304023332811
 20
292.4436887493012
 30
0.0
 11
147.13162305130729
 21
283.94368828736521
 31
0.0
  0
LINE
  5
22CC4
  8
0
 10
78.129180058083648
 20
283.94368828736521
 30
0.0
 11
76.630402638754958
 21
292.4436887493012
 31
0.0
  0
LINE
  5
22CC5
  8
0
 10
147.43040157779231
 20
293.24368878729911
 30
0.0
 11
147.43040157779231
 21
292.4436887493012
 31
0.0
  0
LINE
  5
22CC6
  8
0
 10
77.830400600276107
 20
292.4436887493012
 30
0.0
 11
77.830400600276107
 21
293.24368878729911
 31
0.0
  0
LINE
  5
22CC7
  8
0
 10
145.63040184154281
 20
283.94368828736521
 30
0.0
 11
145.63040184154281
 21
228.7493867566464
 31
0.0
  0
LINE
  5
22CC8
  8
0
 10
79.630401267848129
 20
228.7493867566464
 30
0.0
 11
79.630401267848129
 21
283.94368828736521
 31
0.0
  0
LINE
  5
22CDE
  8
0
 10
93.630402951679571
 20
268.74368803106518
 30
0.0
 11
87.630402579150086
 21
268.74368803106518
 31
0.0
  0
LINE
  5
22CDF
  8
0
 10
137.63040192722451
 20
268.74368803106518
 30
0.0
 11
131.63040295167929
 21
268.74368803106609
 31
0.0
  0
LINE
  5
22CE1
  8
0
 10
90.130400194964523
 20
255.7436896254894
 30
0.0
 11
87.730400546631927
 21
255.7436896254894
 31
0.0
  0
LINE
  5
22CE3
  8
0
 10
93.630402951679343
 20
266.3288747658608
 30
0.0
 11
90.130400194964523
 21
266.3288747658608
 31
0.0
  0
LINE
  5
22CE4
  8
0
 10
135.13040198310381
 20
266.3288747658608
 30
0.0
 11
131.63040295167929
 21
266.3288747658608
 31
0.0
  0
LINE
  5
22CE6
  8
0
 10
137.63040192722451
 20
255.7436896254894
 30
0.0
 11
135.13040198310409
 21
255.74368962548851
 31
0.0
  0
LINE
  5
22CF8
  8
0
 10
90.130400194964523
 20
192.2436875989315
 30
0.0
 11
87.630402579150314
 21
192.2436875989315
 31
0.0
  0
LINE
  5
22CFE
  8
0
 10
137.63040192722451
 20
192.2436875989315
 30
0.0
 11
135.13040198310381
 21
192.2436875989315
 31
0.0
  0
LINE
  5
22D02
  8
0
 10
90.130400194964523
 20
266.3288747658608
 30
0.0
 11
90.130400194964295
 21
192.2436875989315
 31
0.0
  0
LINE
  5
22D04
  8
0
 10
137.63040192722451
 20
192.2436875989315
 30
0.0
 11
137.63040192722451
 21
281.94368889086218
 31
0.0
  0
LINE
  5
22D05
  8
0
 10
135.13040198310361
 20
192.2436875989315
 30
0.0
 11
135.13040198310361
 21
266.3288747658608
 31
0.0
  0
LINE
  5
22D06
  8
0
 10
70.130404367289657
 20
293.24368878729911
 30
0.0
 11
70.130404367289657
 21
295.74368873141981
 31
0.0
  0
LINE
  5
22D0D
  8
0
 10
155.130401536069
 20
293.24368878729911
 30
0.0
 11
155.130401536069
 21
295.74368873141981
 31
0.0
  0
LINE
  5
22D0E
  8
0
 10
155.130401536069
 20
295.74368873141981
 30
0.0
 11
70.130404367289884
 21
295.74368873141981
 31
0.0
  0
LINE
  5
22D0F
  8
0
 10
155.130401536069
 20
293.24368878729911
 30
0.0
 11
70.130404367289884
 21
293.24368878729911
 31
0.0
  0
LINE
  5
22D10
  8
0
 10
87.630402579150314
 20
281.94368889086218
 30
0.0
 11
137.63040192722451
 21
281.94368889086218
 31
0.0
  0
POLYLINE
  5
22D13
  8
0
 66
     1
 10
0.0
 20
0.0
 30
0.0
 70
   128
  0
VERTEX
  5
27525
  8
0
 10
87.370980813346023
 20
198.6304370453235
 30
0.0
  0
VERTEX
  5
27526
  8
0
 10
87.479748114190215
 20
199.5319349458095
 30
0.0
  0
VERTEX
  5
27527
  8
0
 10
87.630402579150314
 20
202.24368551276891
 30
0.0
  0
SEQEND
  5
27528
  8
0
  0
LINE
  5
22D14
  8
0
 10
87.630402579150314
 20
196.8238128116009
 30
0.0
 11
87.370980813346023
 21
198.6304370453235
 31
0.0
  0
LINE
  5
22D15
  8
0
 10
87.370980813346023
 20
205.8569414307949
 30
0.0
 11
87.630402579150314
 21
207.66356566451759
 31
0.0
  0
LINE
  5
22D16
  8
0
 10
87.630402579150314
 20
202.24368551276891
 30
0.0
 11
87.370980813346023
 21
205.8569414307949
 31
0.0
  0
LINE
  5
22D17
  8
0
 10
82.389820649466628
 20
205.8569414307949
 30
0.0
 11
82.130402608952636
 21
202.24368551276891
 31
0.0
  0
LINE
  5
22D18
  8
0
 10
82.130402608952636
 20
207.66356566451759
 30
0.0
 11
82.389820649466628
 21
205.8569414307949
 31
0.0
  0
LINE
  5
22D19
  8
0
 10
82.130402608952636
 20
202.24368551276891
 30
0.0
 11
82.130402608952636
 21
207.66356566451759
 31
0.0
  0
LINE
  5
22D1A
  8
0
 10
87.630402579150314
 20
207.66356566451759
 30
0.0
 11
87.370980813346023
 21
209.47018989824031
 31
0.0
  0
LINE
  5
22D1B
  8
0
 10
82.389820649466628
 20
209.47018989824031
 30
0.0
 11
87.370980813346023
 21
209.47018989824031
 31
0.0
  0
LINE
  5
22D1C
  8
0
 10
82.389820649466628
 20
209.47018989824031
 30
0.0
 11
82.130402608952636
 21
207.66356566451759
 31
0.0
  0
LINE
  5
22D1D
  8
0
 10
82.389820649466628
 20
205.8569414307949
 30
0.0
 11
87.370980813346023
 21
205.8569414307949
 31
0.0
  0
POLYLINE
  5
22D1E
  8
0
 66
     1
 10
0.0
 20
0.0
 30
0.0
 70
   128
  0
VERTEX
  5
27529
  8
0
 10
82.130402608952636
 20
202.24368551276891
 30
0.0
  0
VERTEX
  5
2752A
  8
0
 10
82.281057073912734
 20
199.5319349458095
 30
0.0
  0
VERTEX
  5
2752B
  8
0
 10
82.389820649466628
 20
198.6304370453235
 30
0.0
  0
SEQEND
  5
2752C
  8
0
  0
LINE
  5
22D1F
  8
0
 10
82.389820649466628
 20
198.6304370453235
 30
0.0
 11
87.370980813346023
 21
198.6304370453235
 31
0.0
  0
LINE
  5
22D20
  8
0
 10
82.130402608952636
 20
196.8238128116009
 30
0.0
 11
82.130402608952636
 21
202.24368551276891
 31
0.0
  0
LINE
  5
22D21
  8
0
 10
82.389820649466628
 20
198.6304370453235
 30
0.0
 11
82.130402608952636
 21
196.8238128116009
 31
0.0
  0
LINE
  5
22D22
  8
0
 10
87.370980813346023
 20
195.01718857787819
 30
0.0
 11
87.630402579150314
 21
196.8238128116009
 31
0.0
  0
LINE
  5
22D23
  8
0
 10
82.130402608952636
 20
196.8238128116009
 30
0.0
 11
82.389820649466628
 21
195.01718857787819
 31
0.0
  0
LINE
  5
22D24
  8
0
 10
82.389820649466628
 20
195.01718857787819
 30
0.0
 11
87.370980813346023
 21
195.01718857787819
 31
0.0
  0
LINE
  5
22D25
  8
0
 10
138.4898217424668
 20
198.6304370453235
 30
0.0
 11
142.67098233400949
 21
198.6304370453235
 31
0.0
  0
LINE
  5
22D26
  8
0
 10
138.2304020721383
 20
196.8238128116009
 30
0.0
 11
138.4898217424668
 21
198.6304370453235
 31
0.0
  0
LINE
  5
22D27
  8
0
 10
138.4898217424668
 20
195.01718857787819
 30
0.0
 11
138.2304020721383
 21
196.8238128116009
 31
0.0
  0
LINE
  5
22D28
  8
0
 10
138.4898217424668
 20
195.01718857787819
 30
0.0
 11
142.67098233400949
 21
195.01718857787819
 31
0.0
  0
LINE
  5
22D29
  8
0
 10
142.93040177150729
 20
196.8238128116009
 30
0.0
 11
142.67098233400949
 21
195.01718857787819
 31
0.0
  0
LINE
  5
22D2A
  8
0
 10
142.67098233400949
 20
198.6304370453235
 30
0.0
 11
142.93040177150729
 21
196.8238128116009
 31
0.0
  0
LINE
  5
22D2B
  8
0
 10
138.4898217424668
 20
209.47018989824031
 30
0.0
 11
142.67098233400949
 21
209.47018989824031
 31
0.0
  0
LINE
  5
22D2C
  8
0
 10
138.2304020721383
 20
207.66356566451759
 30
0.0
 11
138.4898217424668
 21
209.47018989824031
 31
0.0
  0
LINE
  5
22D2D
  8
0
 10
138.4898217424668
 20
205.8569414307949
 30
0.0
 11
138.2304020721383
 21
207.66356566451759
 31
0.0
  0
LINE
  5
22D2E
  8
0
 10
138.4898217424668
 20
205.8569414307949
 30
0.0
 11
142.67098233400949
 21
205.8569414307949
 31
0.0
  0
LINE
  5
22D2F
  8
0
 10
142.93040177150729
 20
207.66356566451759
 30
0.0
 11
142.67098233400949
 21
205.8569414307949
 31
0.0
  0
LINE
  5
22D30
  8
0
 10
142.67098233400949
 20
209.47018989824031
 30
0.0
 11
142.93040177150729
 21
207.66356566451759
 31
0.0
  0
LINE
  5
22D31
  8
0
 10
138.2304020721383
 20
202.24368551276891
 30
0.0
 11
138.4898217424668
 21
205.8569414307949
 31
0.0
  0
POLYLINE
  5
22D33
  8
0
 66
     1
 10
0.0
 20
0.0
 30
0.0
 70
   128
  0
VERTEX
  5
2752D
  8
0
 10
138.4898217424668
 20
198.6304370453235
 30
0.0
  0
VERTEX
  5
2752E
  8
0
 10
138.38105607143709
 20
199.5319349458095
 30
0.0
  0
VERTEX
  5
2752F
  8
0
 10
138.2304020721383
 20
202.24368551276891
 30
0.0
  0
SEQEND
  5
27530
  8
0
  0
POLYLINE
  5
22D34
  8
0
 66
     1
 10
0.0
 20
0.0
 30
0.0
 70
   128
  0
VERTEX
  5
27531
  8
0
 10
142.93040177150729
 20
202.24368551276891
 30
0.0
  0
VERTEX
  5
27532
  8
0
 10
142.77974777220851
 20
199.5319349458095
 30
0.0
  0
VERTEX
  5
27533
  8
0
 10
142.67098233400949
 20
198.6304370453235
 30
0.0
  0
SEQEND
  5
27534
  8
0
  0
LINE
  5
22D35
  8
0
 10
142.67098233400949
 20
205.8569414307949
 30
0.0
 11
142.93040177150729
 21
202.24368551276891
 31
0.0
  0
LINE
  5
22D3A
  8
0
 10
79.630401267848129
 20
196.42868617080421
 30
0.0
 11
79.630401267848129
 21
208.05869230531329
 31
0.0
  0
LINE
  5
22D3C
  8
0
 10
78.397400959572906
 20
198.24369230769841
 30
0.0
 11
78.397400959572906
 21
206.24368616842
 31
0.0
  0
LINE
  5
22D3E
  8
0
 10
77.630400940022582
 20
199.01069232724871
 30
0.0
 11
77.630400940022582
 21
205.4766861488697
 31
0.0
  0
LINE
  5
22D3F
  8
0
 10
82.130402608952636
 20
207.66356566451759
 30
0.0
 11
82.130402608952636
 21
208.50202420257301
 31
0.0
  0
LINE
  5
22D40
  8
0
 10
82.130402608952636
 20
195.9853542735454
 30
0.0
 11
82.130402608952636
 21
196.8238128116009
 31
0.0
  0
LINE
  5
22D45
  8
0
 10
147.13162305130729
 20
283.94368828736521
 30
0.0
 11
78.129180058083648
 21
283.94368828736521
 31
0.0
  0
LINE
  5
22D46
  8
0
 10
148.6304023332811
 20
292.4436887493012
 30
0.0
 11
76.630402638754958
 21
292.4436887493012
 31
0.0
  0
POLYLINE
  5
22D47
  8
0
 10
145.63040198310389
 20
228.74938604384354
 30
0.0
 66
     1
 70
     8
  0
VERTEX
  8
0
  5
27539
 10
145.630
 20
228.749
 30
0.000000
  70
    32
  0
VERTEX
  8
0
  5
2753A
 10
145.630
 20
228.594
 30
0.000000
  70
    32
  0
VERTEX
  8
0
  5
2753B
 10
145.630
 20
228.438
 30
0.000000
  70
    32
  0
VERTEX
  8
0
  5
2753C
 10
145.629
 20
228.282
 30
0.000000
  70
    32
  0
VERTEX
  8
0
  5
2753D
 10
145.627
 20
228.126
 30
0.000000
  70
    32
  0
VERTEX
  8
0
  5
2753E
 10
145.625
 20
227.970
 30
0.000000
  70
    32
  0
VERTEX
  8
0
  5
2753F
 10
145.623
 20
227.814
 30
0.000000
  70
    32
  0
VERTEX
  8
0
  5
27540
 10
145.620
 20
227.658
 30
0.000000
  70
    32
  0
VERTEX
  8
0
  5
27541
 10
145.617
 20
227.503
 30
0.000000
  70
    32
  0
VERTEX
  8
0
  5
27542
 10
145.614
 20
227.347
 30
0.000000
  70
    32
  0
VERTEX
  8
0
  5
27543
 10
145.610
 20
227.191
 30
0.000000
  70
    32
  0
VERTEX
  8
0
  5
27544
 10
145.606
 20
227.035
 30
0.000000
  70
    32
  0
VERTEX
  8
0
  5
27545
 10
145.601
 20
226.879
 30
0.000000
  70
    32
  0
VERTEX
  8
0
  5
27546
 10
145.596
 20
226.724
 30
0.000000
  70
    32
  0
VERTEX
  8
0
  5
27547
 10
145.590
 20
226.568
 30
0.000000
  70
    32
  0
VERTEX
  8
0
  5
27548
 10
145.584
 20
226.412
 30
0.000000
  70
    32
  0
VERTEX
  8
0
  5
27549
 10
145.578
 20
226.257
 30
0.000000
  70
    32
  0
VERTEX
  8
0
  5
2754A
 10
145.571
 20
226.101
 30
0.000000
  70
    32
  0
VERTEX
  8
0
  5
2754B
 10
145.564
 20
225.946
 30
0.000000
  70
    32
  0
VERTEX
  8
0
  5
2754C
 10
145.556
 20
225.790
 30
0.000000
  70
    32
  0
VERTEX
  8
0
  5
2754D
 10
145.548
 20
225.635
 30
0.000000
  70
    32
  0
VERTEX
  8
0
  5
2754E
 10
145.540
 20
225.479
 30
0.000000
  70
    32
  0
VERTEX
  8
0
  5
2754F
 10
145.531
 20
225.324
 30
0.000000
  70
    32
  0
VERTEX
  8
0
  5
27550
 10
145.522
 20
225.168
 30
0.000000
  70
    32
  0
VERTEX
  8
0
  5
27551
 10
145.512
 20
225.013
 30
0.000000
  70
    32
  0
VERTEX
  8
0
  5
27552
 10
145.502
 20
224.858
 30
0.000000
  70
    32
  0
VERTEX
  8
0
  5
27553
 10
145.491
 20
224.702
 30
0.000000
  70
    32
  0
VERTEX
  8
0
  5
27554
 10
145.481
 20
224.547
 30
0.000000
  70
    32
  0
VERTEX
  8
0
  5
27555
 10
145.469
 20
224.392
 30
0.000000
  70
    32
  0
VERTEX
  8
0
  5
27556
 10
145.458
 20
224.237
 30
0.000000
  70
    32
  0
VERTEX
  8
0
  5
27557
 10
145.445
 20
224.082
 30
0.000000
  70
    32
  0
VERTEX
  8
0
  5
27558
 10
145.433
 20
223.927
 30
0.000000
  70
    32
  0
VERTEX
  8
0
  5
27559
 10
145.420
 20
223.772
 30
0.000000
  70
    32
  0
VERTEX
  8
0
  5
2755A
 10
145.407
 20
223.617
 30
0.000000
  70
    32
  0
VERTEX
  8
0
  5
2755B
 10
145.393
 20
223.462
 30
0.000000
  70
    32
  0
VERTEX
  8
0
  5
2755C
 10
145.379
 20
223.308
 30
0.000000
  70
    32
  0
VERTEX
  8
0
  5
2755D
 10
145.364
 20
223.153
 30
0.000000
  70
    32
  0
VERTEX
  8
0
  5
2755E
 10
145.349
 20
222.999
 30
0.000000
  70
    32
  0
VERTEX
  8
0
  5
2755F
 10
145.334
 20
222.844
 30
0.000000
  70
    32
  0
VERTEX
  8
0
  5
27560
 10
145.318
 20
222.690
 30
0.000000
  70
    32
  0
VERTEX
  8
0
  5
27561
 10
145.302
 20
222.535
 30
0.000000
  70
    32
  0
VERTEX
  8
0
  5
27562
 10
145.285
 20
222.381
 30
0.000000
  70
    32
  0
VERTEX
  8
0
  5
27563
 10
145.268
 20
222.227
 30
0.000000
  70
    32
  0
VERTEX
  8
0
  5
27564
 10
145.251
 20
222.073
 30
0.000000
  70
    32
  0
VERTEX
  8
0
  5
27565
 10
145.233
 20
221.919
 30
0.000000
  70
    32
  0
VERTEX
  8
0
  5
27566
 10
145.215
 20
221.765
 30
0.000000
  70
    32
  0
VERTEX
  8
0
  5
27567
 10
145.196
 20
221.611
 30
0.000000
  70
    32
  0
VERTEX
  8
0
  5
27568
 10
145.177
 20
221.457
 30
0.000000
  70
    32
  0
VERTEX
  8
0
  5
27569
 10
145.158
 20
221.303
 30
0.000000
  70
    32
  0
VERTEX
  8
0
  5
2756A
 10
145.138
 20
221.150
 30
0.000000
  70
    32
  0
VERTEX
  8
0
  5
2756B
 10
145.117
 20
220.996
 30
0.000000
  70
    32
  0
VERTEX
  8
0
  5
2756C
 10
145.097
 20
220.843
 30
0.000000
  70
    32
  0
VERTEX
  8
0
  5
2756D
 10
145.076
 20
220.690
 30
0.000000
  70
    32
  0
VERTEX
  8
0
  5
2756E
 10
145.054
 20
220.536
 30
0.000000
  70
    32
  0
VERTEX
  8
0
  5
2756F
 10
145.032
 20
220.383
 30
0.000000
  70
    32
  0
VERTEX
  8
0
  5
27570
 10
145.010
 20
220.230
 30
0.000000
  70
    32
  0
VERTEX
  8
0
  5
27571
 10
144.987
 20
220.077
 30
0.000000
  70
    32
  0
VERTEX
  8
0
  5
27572
 10
144.964
 20
219.925
 30
0.000000
  70
    32
  0
VERTEX
  8
0
  5
27573
 10
144.941
 20
219.772
 30
0.000000
  70
    32
  0
VERTEX
  8
0
  5
27574
 10
144.917
 20
219.619
 30
0.000000
  70
    32
  0
VERTEX
  8
0
  5
27575
 10
144.893
 20
219.467
 30
0.000000
  70
    32
  0
VERTEX
  8
0
  5
27576
 10
144.868
 20
219.315
 30
0.000000
  70
    32
  0
VERTEX
  8
0
  5
27577
 10
144.843
 20
219.162
 30
0.000000
  70
    32
  0
VERTEX
  8
0
  5
27578
 10
144.817
 20
219.010
 30
0.000000
  70
    32
  0
VERTEX
  8
0
  5
27579
 10
144.791
 20
218.858
 30
0.000000
  70
    32
  0
VERTEX
  8
0
  5
2757A
 10
144.765
 20
218.706
 30
0.000000
  70
    32
  0
VERTEX
  8
0
  5
2757B
 10
144.738
 20
218.555
 30
0.000000
  70
    32
  0
VERTEX
  8
0
  5
2757C
 10
144.711
 20
218.403
 30
0.000000
  70
    32
  0
VERTEX
  8
0
  5
2757D
 10
144.684
 20
218.252
 30
0.000000
  70
    32
  0
VERTEX
  8
0
  5
2757E
 10
144.656
 20
218.100
 30
0.000000
  70
    32
  0
VERTEX
  8
0
  5
2757F
 10
144.627
 20
217.949
 30
0.000000
  70
    32
  0
VERTEX
  8
0
  5
27580
 10
144.599
 20
217.798
 30
0.000000
  70
    32
  0
VERTEX
  8
0
  5
27581
 10
144.570
 20
217.647
 30
0.000000
  70
    32
  0
VERTEX
  8
0
  5
27582
 10
144.540
 20
217.496
 30
0.000000
  70
    32
  0
VERTEX
  8
0
  5
27583
 10
144.510
 20
217.346
 30
0.000000
  70
    32
  0
VERTEX
  8
0
  5
27584
 10
144.480
 20
217.195
 30
0.000000
  70
    32
  0
VERTEX
  8
0
  5
27585
 10
144.449
 20
217.045
 30
0.000000
  70
    32
  0
VERTEX
  8
0
  5
27586
 10
144.418
 20
216.895
 30
0.000000
  70
    32
  0
VERTEX
  8
0
  5
27587
 10
144.387
 20
216.745
 30
0.000000
  70
    32
  0
VERTEX
  8
0
  5
27588
 10
144.355
 20
216.595
 30
0.000000
  70
    32
  0
VERTEX
  8
0
  5
27589
 10
144.323
 20
216.445
 30
0.000000
  70
    32
  0
VERTEX
  8
0
  5
2758A
 10
144.290
 20
216.295
 30
0.000000
  70
    32
  0
VERTEX
  8
0
  5
2758B
 10
144.257
 20
216.146
 30
0.000000
  70
    32
  0
VERTEX
  8
0
  5
2758C
 10
144.223
 20
215.996
 30
0.000000
  70
    32
  0
VERTEX
  8
0
  5
2758D
 10
144.189
 20
215.847
 30
0.000000
  70
    32
  0
VERTEX
  8
0
  5
2758E
 10
144.155
 20
215.698
 30
0.000000
  70
    32
  0
VERTEX
  8
0
  5
2758F
 10
144.121
 20
215.550
 30
0.000000
  70
    32
  0
VERTEX
  8
0
  5
27590
 10
144.085
 20
215.401
 30
0.000000
  70
    32
  0
VERTEX
  8
0
  5
27591
 10
144.050
 20
215.252
 30
0.000000
  70
    32
  0
VERTEX
  8
0
  5
27592
 10
144.014
 20
215.104
 30
0.000000
  70
    32
  0
VERTEX
  8
0
  5
27593
 10
143.978
 20
214.956
 30
0.000000
  70
    32
  0
VERTEX
  8
0
  5
27594
 10
143.941
 20
214.808
 30
0.000000
  70
    32
  0
VERTEX
  8
0
  5
27595
 10
143.904
 20
214.660
 30
0.000000
  70
    32
  0
VERTEX
  8
0
  5
27596
 10
143.867
 20
214.512
 30
0.000000
  70
    32
  0
VERTEX
  8
0
  5
27597
 10
143.829
 20
214.365
 30
0.000000
  70
    32
  0
VERTEX
  8
0
  5
27598
 10
143.791
 20
214.218
 30
0.000000
  70
    32
  0
VERTEX
  8
0
  5
27599
 10
143.753
 20
214.071
 30
0.000000
  70
    32
  0
VERTEX
  8
0
  5
2759A
 10
143.714
 20
213.924
 30
0.000000
  70
    32
  0
VERTEX
  8
0
  5
2759B
 10
143.674
 20
213.777
 30
0.000000
  70
    32
  0
VERTEX
  8
0
  5
2759C
 10
143.635
 20
213.630
 30
0.000000
  70
    32
  0
VERTEX
  8
0
  5
2759D
 10
143.594
 20
213.484
 30
0.000000
  70
    32
  0
VERTEX
  8
0
  5
2759E
 10
143.554
 20
213.338
 30
0.000000
  70
    32
  0
VERTEX
  8
0
  5
2759F
 10
143.513
 20
213.192
 30
0.000000
  70
    32
  0
VERTEX
  8
0
  5
275A0
 10
143.472
 20
213.046
 30
0.000000
  70
    32
  0
VERTEX
  8
0
  5
275A1
 10
143.430
 20
212.901
 30
0.000000
  70
    32
  0
VERTEX
  8
0
  5
275A2
 10
143.388
 20
212.755
 30
0.000000
  70
    32
  0
VERTEX
  8
0
  5
275A3
 10
143.346
 20
212.610
 30
0.000000
  70
    32
  0
VERTEX
  8
0
  5
275A4
 10
143.303
 20
212.465
 30
0.000000
  70
    32
  0
VERTEX
  8
0
  5
275A5
 10
143.260
 20
212.320
 30
0.000000
  70
    32
  0
VERTEX
  8
0
  5
275A6
 10
143.216
 20
212.176
 30
0.000000
  70
    32
  0
VERTEX
  8
0
  5
275A7
 10
143.172
 20
212.031
 30
0.000000
  70
    32
  0
VERTEX
  8
0
  5
275A8
 10
143.128
 20
211.887
 30
0.000000
  70
    32
  0
VERTEX
  8
0
  5
275A9
 10
143.083
 20
211.743
 30
0.000000
  70
    32
  0
VERTEX
  8
0
  5
275AA
 10
143.038
 20
211.600
 30
0.000000
  70
    32
  0
VERTEX
  8
0
  5
275AB
 10
142.993
 20
211.456
 30
0.000000
  70
    32
  0
VERTEX
  8
0
  5
275AC
 10
142.947
 20
211.313
 30
0.000000
  70
    32
  0
VERTEX
  8
0
  5
275AD
 10
142.901
 20
211.170
 30
0.000000
  70
    32
  0
VERTEX
  8
0
  5
275AE
 10
142.854
 20
211.027
 30
0.000000
  70
    32
  0
VERTEX
  8
0
  5
275AF
 10
142.807
 20
210.884
 30
0.000000
  70
    32
  0
VERTEX
  8
0
  5
275B0
 10
142.760
 20
210.742
 30
0.000000
  70
    32
  0
VERTEX
  8
0
  5
275B1
 10
142.712
 20
210.599
 30
0.000000
  70
    32
  0
VERTEX
  8
0
  5
275B2
 10
142.664
 20
210.458
 30
0.000000
  70
    32
  0
VERTEX
  8
0
  5
275B3
 10
142.615
 20
210.316
 30
0.000000
  70
    32
  0
VERTEX
  8
0
  5
275B4
 10
142.567
 20
210.174
 30
0.000000
  70
    32
  0
VERTEX
  8
0
  5
275B5
 10
142.517
 20
210.033
 30
0.000000
  70
    32
  0
VERTEX
  8
0
  5
275B6
 10
142.468
 20
209.892
 30
0.000000
  70
    32
  0
VERTEX
  8
0
  5
275B7
 10
142.418
 20
209.751
 30
0.000000
  70
    32
  0
VERTEX
  8
0
  5
275B8
 10
142.368
 20
209.611
 30
0.000000
  70
    32
  0
VERTEX
  8
0
  5
275B9
 10
142.317
 20
209.470
 30
0.000000
  70
    32
  0
SEQEND
  8
0
  5
275BA
  0
POLYLINE
  5
22D48
  8
0
 10
82.943981635912479
 20
209.47018960077639
 30
0.0
 66
     1
 70
     8
  0
VERTEX
  8
0
  5
275BB
 10
82.9440
 20
209.470
 30
0.000000
  70
    32
  0
VERTEX
  8
0
  5
275BC
 10
82.8933
 20
209.611
 30
0.000000
  70
    32
  0
VERTEX
  8
0
  5
275BD
 10
82.8429
 20
209.751
 30
0.000000
  70
    32
  0
VERTEX
  8
0
  5
275BE
 10
82.7930
 20
209.892
 30
0.000000
  70
    32
  0
VERTEX
  8
0
  5
275BF
 10
82.7434
 20
210.033
 30
0.000000
  70
    32
  0
VERTEX
  8
0
  5
275C0
 10
82.6942
 20
210.174
 30
0.000000
  70
    32
  0
VERTEX
  8
0
  5
275C1
 10
82.6453
 20
210.316
 30
0.000000
  70
    32
  0
VERTEX
  8
0
  5
275C2
 10
82.5969
 20
210.458
 30
0.000000
  70
    32
  0
VERTEX
  8
0
  5
275C3
 10
82.5488
 20
210.599
 30
0.000000
  70
    32
  0
VERTEX
  8
0
  5
275C4
 10
82.5010
 20
210.742
 30
0.000000
  70
    32
  0
VERTEX
  8
0
  5
275C5
 10
82.4537
 20
210.884
 30
0.000000
  70
    32
  0
VERTEX
  8
0
  5
275C6
 10
82.4067
 20
211.027
 30
0.000000
  70
    32
  0
VERTEX
  8
0
  5
275C7
 10
82.3601
 20
211.170
 30
0.000000
  70
    32
  0
VERTEX
  8
0
  5
275C8
 10
82.3139
 20
211.313
 30
0.000000
  70
    32
  0
VERTEX
  8
0
  5
275C9
 10
82.2681
 20
211.456
 30
0.000000
  70
    32
  0
VERTEX
  8
0
  5
275CA
 10
82.2226
 20
211.600
 30
0.000000
  70
    32
  0
VERTEX
  8
0
  5
275CB
 10
82.1775
 20
211.743
 30
0.000000
  70
    32
  0
VERTEX
  8
0
  5
275CC
 10
82.1328
 20
211.887
 30
0.000000
  70
    32
  0
VERTEX
  8
0
  5
275CD
 10
82.0885
 20
212.031
 30
0.000000
  70
    32
  0
VERTEX
  8
0
  5
275CE
 10
82.0446
 20
212.176
 30
0.000000
  70
    32
  0
VERTEX
  8
0
  5
275CF
 10
82.0010
 20
212.320
 30
0.000000
  70
    32
  0
VERTEX
  8
0
  5
275D0
 10
81.9578
 20
212.465
 30
0.000000
  70
    32
  0
VERTEX
  8
0
  5
275D1
 10
81.9150
 20
212.610
 30
0.000000
  70
    32
  0
VERTEX
  8
0
  5
275D2
 10
81.8726
 20
212.755
 30
0.000000
  70
    32
  0
VERTEX
  8
0
  5
275D3
 10
81.8306
 20
212.901
 30
0.000000
  70
    32
  0
VERTEX
  8
0
  5
275D4
 10
81.7890
 20
213.046
 30
0.000000
  70
    32
  0
VERTEX
  8
0
  5
275D5
 10
81.7477
 20
213.192
 30
0.000000
  70
    32
  0
VERTEX
  8
0
  5
275D6
 10
81.7068
 20
213.338
 30
0.000000
  70
    32
  0
VERTEX
  8
0
  5
275D7
 10
81.6663
 20
213.484
 30
0.000000
  70
    32
  0
VERTEX
  8
0
  5
275D8
 10
81.6262
 20
213.630
 30
0.000000
  70
    32
  0
VERTEX
  8
0
  5
275D9
 10
81.5865
 20
213.777
 30
0.000000
  70
    32
  0
VERTEX
  8
0
  5
275DA
 10
81.5472
 20
213.924
 30
0.000000
  70
    32
  0
VERTEX
  8
0
  5
275DB
 10
81.5083
 20
214.071
 30
0.000000
  70
    32
  0
VERTEX
  8
0
  5
275DC
 10
81.4697
 20
214.218
 30
0.000000
  70
    32
  0
VERTEX
  8
0
  5
275DD
 10
81.4315
 20
214.365
 30
0.000000
  70
    32
  0
VERTEX
  8
0
  5
275DE
 10
81.3938
 20
214.512
 30
0.000000
  70
    32
  0
VERTEX
  8
0
  5
275DF
 10
81.3564
 20
214.660
 30
0.000000
  70
    32
  0
VERTEX
  8
0
  5
275E0
 10
81.3194
 20
214.808
 30
0.000000
  70
    32
  0
VERTEX
  8
0
  5
275E1
 10
81.2828
 20
214.956
 30
0.000000
  70
    32
  0
VERTEX
  8
0
  5
275E2
 10
81.2466
 20
215.104
 30
0.000000
  70
    32
  0
VERTEX
  8
0
  5
275E3
 10
81.2107
 20
215.252
 30
0.000000
  70
    32
  0
VERTEX
  8
0
  5
275E4
 10
81.1753
 20
215.401
 30
0.000000
  70
    32
  0
VERTEX
  8
0
  5
275E5
 10
81.1403
 20
215.550
 30
0.000000
  70
    32
  0
VERTEX
  8
0
  5
275E6
 10
81.1056
 20
215.698
 30
0.000000
  70
    32
  0
VERTEX
  8
0
  5
275E7
 10
81.0714
 20
215.847
 30
0.000000
  70
    32
  0
VERTEX
  8
0
  5
275E8
 10
81.0375
 20
215.996
 30
0.000000
  70
    32
  0
VERTEX
  8
0
  5
275E9
 10
81.0040
 20
216.146
 30
0.000000
  70
    32
  0
VERTEX
  8
0
  5
275EA
 10
80.9710
 20
216.295
 30
0.000000
  70
    32
  0
VERTEX
  8
0
  5
275EB
 10
80.9383
 20
216.445
 30
0.000000
  70
    32
  0
VERTEX
  8
0
  5
275EC
 10
80.9060
 20
216.595
 30
0.000000
  70
    32
  0
VERTEX
  8
0
  5
275ED
 10
80.8741
 20
216.745
 30
0.000000
  70
    32
  0
VERTEX
  8
0
  5
275EE
 10
80.8426
 20
216.895
 30
0.000000
  70
    32
  0
VERTEX
  8
0
  5
275EF
 10
80.8115
 20
217.045
 30
0.000000
  70
    32
  0
VERTEX
  8
0
  5
275F0
 10
80.7808
 20
217.195
 30
0.000000
  70
    32
  0
VERTEX
  8
0
  5
275F1
 10
80.7505
 20
217.346
 30
0.000000
  70
    32
  0
VERTEX
  8
0
  5
275F2
 10
80.7206
 20
217.496
 30
0.000000
  70
    32
  0
VERTEX
  8
0
  5
275F3
 10
80.6911
 20
217.647
 30
0.000000
  70
    32
  0
VERTEX
  8
0
  5
275F4
 10
80.6620
 20
217.798
 30
0.000000
  70
    32
  0
VERTEX
  8
0
  5
275F5
 10
80.6333
 20
217.949
 30
0.000000
  70
    32
  0
VERTEX
  8
0
  5
275F6
 10
80.6050
 20
218.100
 30
0.000000
  70
    32
  0
VERTEX
  8
0
  5
275F7
 10
80.5771
 20
218.252
 30
0.000000
  70
    32
  0
VERTEX
  8
0
  5
275F8
 10
80.5496
 20
218.403
 30
0.000000
  70
    32
  0
VERTEX
  8
0
  5
275F9
 10
80.5225
 20
218.555
 30
0.000000
  70
    32
  0
VERTEX
  8
0
  5
275FA
 10
80.4958
 20
218.706
 30
0.000000
  70
    32
  0
VERTEX
  8
0
  5
275FB
 10
80.4695
 20
218.858
 30
0.000000
  70
    32
  0
VERTEX
  8
0
  5
275FC
 10
80.4436
 20
219.010
 30
0.000000
  70
    32
  0
VERTEX
  8
0
  5
275FD
 10
80.4180
 20
219.162
 30
0.000000
  70
    32
  0
VERTEX
  8
0
  5
275FE
 10
80.3929
 20
219.315
 30
0.000000
  70
    32
  0
VERTEX
  8
0
  5
275FF
 10
80.3682
 20
219.467
 30
0.000000
  70
    32
  0
VERTEX
  8
0
  5
27600
 10
80.3439
 20
219.619
 30
0.000000
  70
    32
  0
VERTEX
  8
0
  5
27601
 10
80.3200
 20
219.772
 30
0.000000
  70
    32
  0
VERTEX
  8
0
  5
27602
 10
80.2965
 20
219.925
 30
0.000000
  70
    32
  0
VERTEX
  8
0
  5
27603
 10
80.2735
 20
220.077
 30
0.000000
  70
    32
  0
VERTEX
  8
0
  5
27604
 10
80.2508
 20
220.230
 30
0.000000
  70
    32
  0
VERTEX
  8
0
  5
27605
 10
80.2285
 20
220.383
 30
0.000000
  70
    32
  0
VERTEX
  8
0
  5
27606
 10
80.2066
 20
220.536
 30
0.000000
  70
    32
  0
VERTEX
  8
0
  5
27607
 10
80.1851
 20
220.690
 30
0.000000
  70
    32
  0
VERTEX
  8
0
  5
27608
 10
80.1640
 20
220.843
 30
0.000000
  70
    32
  0
VERTEX
  8
0
  5
27609
 10
80.1434
 20
220.996
 30
0.000000
  70
    32
  0
VERTEX
  8
0
  5
2760A
 10
80.1231
 20
221.150
 30
0.000000
  70
    32
  0
VERTEX
  8
0
  5
2760B
 10
80.1033
 20
221.303
 30
0.000000
  70
    32
  0
VERTEX
  8
0
  5
2760C
 10
80.0838
 20
221.457
 30
0.000000
  70
    32
  0
VERTEX
  8
0
  5
2760D
 10
80.0648
 20
221.611
 30
0.000000
  70
    32
  0
VERTEX
  8
0
  5
2760E
 10
80.0461
 20
221.765
 30
0.000000
  70
    32
  0
VERTEX
  8
0
  5
2760F
 10
80.0279
 20
221.919
 30
0.000000
  70
    32
  0
VERTEX
  8
0
  5
27610
 10
80.0101
 20
222.073
 30
0.000000
  70
    32
  0
VERTEX
  8
0
  5
27611
 10
79.9926
 20
222.227
 30
0.000000
  70
    32
  0
VERTEX
  8
0
  5
27612
 10
79.9756
 20
222.381
 30
0.000000
  70
    32
  0
VERTEX
  8
0
  5
27613
 10
79.9590
 20
222.535
 30
0.000000
  70
    32
  0
VERTEX
  8
0
  5
27614
 10
79.9428
 20
222.690
 30
0.000000
  70
    32
  0
VERTEX
  8
0
  5
27615
 10
79.9270
 20
222.844
 30
0.000000
  70
    32
  0
VERTEX
  8
0
  5
27616
 10
79.9116
 20
222.999
 30
0.000000
  70
    32
  0
VERTEX
  8
0
  5
27617
 10
79.8967
 20
223.153
 30
0.000000
  70
    32
  0
VERTEX
  8
0
  5
27618
 10
79.8821
 20
223.308
 30
0.000000
  70
    32
  0
VERTEX
  8
0
  5
27619
 10
79.8679
 20
223.462
 30
0.000000
  70
    32
  0
VERTEX
  8
0
  5
2761A
 10
79.8542
 20
223.617
 30
0.000000
  70
    32
  0
VERTEX
  8
0
  5
2761B
 10
79.8408
 20
223.772
 30
0.000000
  70
    32
  0
VERTEX
  8
0
  5
2761C
 10
79.8279
 20
223.927
 30
0.000000
  70
    32
  0
VERTEX
  8
0
  5
2761D
 10
79.8154
 20
224.082
 30
0.000000
  70
    32
  0
VERTEX
  8
0
  5
2761E
 10
79.8033
 20
224.237
 30
0.000000
  70
    32
  0
VERTEX
  8
0
  5
2761F
 10
79.7916
 20
224.392
 30
0.000000
  70
    32
  0
VERTEX
  8
0
  5
27620
 10
79.7803
 20
224.547
 30
0.000000
  70
    32
  0
VERTEX
  8
0
  5
27621
 10
79.7694
 20
224.702
 30
0.000000
  70
    32
  0
VERTEX
  8
0
  5
27622
 10
79.7589
 20
224.858
 30
0.000000
  70
    32
  0
VERTEX
  8
0
  5
27623
 10
79.7488
 20
225.013
 30
0.000000
  70
    32
  0
VERTEX
  8
0
  5
27624
 10
79.7392
 20
225.168
 30
0.000000
  70
    32
  0
VERTEX
  8
0
  5
27625
 10
79.7299
 20
225.324
 30
0.000000
  70
    32
  0
VERTEX
  8
0
  5
27626
 10
79.7211
 20
225.479
 30
0.000000
  70
    32
  0
VERTEX
  8
0
  5
27627
 10
79.7127
 20
225.635
 30
0.000000
  70
    32
  0
VERTEX
  8
0
  5
27628
 10
79.7046
 20
225.790
 30
0.000000
  70
    32
  0
VERTEX
  8
0
  5
27629
 10
79.6970
 20
225.946
 30
0.000000
  70
    32
  0
VERTEX
  8
0
  5
2762A
 10
79.6898
 20
226.101
 30
0.000000
  70
    32
  0
VERTEX
  8
0
  5
2762B
 10
79.6831
 20
226.257
 30
0.000000
  70
    32
  0
VERTEX
  8
0
  5
2762C
 10
79.6767
 20
226.412
 30
0.000000
  70
    32
  0
VERTEX
  8
0
  5
2762D
 10
79.6707
 20
226.568
 30
0.000000
  70
    32
  0
VERTEX
  8
0
  5
2762E
 10
79.6652
 20
226.724
 30
0.000000
  70
    32
  0
VERTEX
  8
0
  5
2762F
 10
79.6600
 20
226.879
 30
0.000000
  70
    32
  0
VERTEX
  8
0
  5
27630
 10
79.6553
 20
227.035
 30
0.000000
  70
    32
  0
VERTEX
  8
0
  5
27631
 10
79.6510
 20
227.191
 30
0.000000
  70
    32
  0
VERTEX
  8
0
  5
27632
 10
79.6471
 20
227.347
 30
0.000000
  70
    32
  0
VERTEX
  8
0
  5
27633
 10
79.6436
 20
227.503
 30
0.000000
  70
    32
  0
VERTEX
  8
0
  5
27634
 10
79.6405
 20
227.658
 30
0.000000
  70
    32
  0
VERTEX
  8
0
  5
27635
 10
79.6378
 20
227.814
 30
0.000000
  70
    32
  0
VERTEX
  8
0
  5
27636
 10
79.6355
 20
227.970
 30
0.000000
  70
    32
  0
VERTEX
  8
0
  5
27637
 10
79.6337
 20
228.126
 30
0.000000
  70
    32
  0
VERTEX
  8
0
  5
27638
 10
79.6323
 20
228.282
 30
0.000000
  70
    32
  0
VERTEX
  8
0
  5
27639
 10
79.6312
 20
228.438
 30
0.000000
  70
    32
  0
VERTEX
  8
0
  5
2763A
 10
79.6306
 20
228.594
 30
0.000000
  70
    32
  0
VERTEX
  8
0
  5
2763B
 10
79.6304
 20
228.749
 30
0.000000
  70
    32
  0
SEQEND
  8
0
  5
2763C
  0
POLYLINE
  5
22D49
  8
0
 10
90.130401983104576
 20
256.2939825064031
 30
0.0
 66
     1
 70
     8
  0
VERTEX
  8
0
  5
2763D
 10
90.1304
 20
256.294
 30
0.000000
  70
    32
  0
VERTEX
  8
0
  5
2763E
 10
90.1747
 20
256.359
 30
0.000000
  70
    32
  0
VERTEX
  8
0
  5
2763F
 10
90.2191
 20
256.423
 30
0.000000
  70
    32
  0
VERTEX
  8
0
  5
27640
 10
90.2636
 20
256.487
 30
0.000000
  70
    32
  0
VERTEX
  8
0
  5
27641
 10
90.3082
 20
256.552
 30
0.000000
  70
    32
  0
VERTEX
  8
0
  5
27642
 10
90.3529
 20
256.616
 30
0.000000
  70
    32
  0
VERTEX
  8
0
  5
27643
 10
90.3977
 20
256.680
 30
0.000000
  70
    32
  0
VERTEX
  8
0
  5
27644
 10
90.4426
 20
256.743
 30
0.000000
  70
    32
  0
VERTEX
  8
0
  5
27645
 10
90.4876
 20
256.807
 30
0.000000
  70
    32
  0
VERTEX
  8
0
  5
27646
 10
90.5327
 20
256.871
 30
0.000000
  70
    32
  0
VERTEX
  8
0
  5
27647
 10
90.5779
 20
256.934
 30
0.000000
  70
    32
  0
VERTEX
  8
0
  5
27648
 10
90.6232
 20
256.997
 30
0.000000
  70
    32
  0
VERTEX
  8
0
  5
27649
 10
90.6686
 20
257.061
 30
0.000000
  70
    32
  0
VERTEX
  8
0
  5
2764A
 10
90.7141
 20
257.124
 30
0.000000
  70
    32
  0
VERTEX
  8
0
  5
2764B
 10
90.7597
 20
257.187
 30
0.000000
  70
    32
  0
VERTEX
  8
0
  5
2764C
 10
90.8055
 20
257.249
 30
0.000000
  70
    32
  0
VERTEX
  8
0
  5
2764D
 10
90.8513
 20
257.312
 30
0.000000
  70
    32
  0
VERTEX
  8
0
  5
2764E
 10
90.8972
 20
257.374
 30
0.000000
  70
    32
  0
VERTEX
  8
0
  5
2764F
 10
90.9432
 20
257.437
 30
0.000000
  70
    32
  0
VERTEX
  8
0
  5
27650
 10
90.9893
 20
257.499
 30
0.000000
  70
    32
  0
VERTEX
  8
0
  5
27651
 10
91.0355
 20
257.561
 30
0.000000
  70
    32
  0
VERTEX
  8
0
  5
27652
 10
91.0819
 20
257.623
 30
0.000000
  70
    32
  0
VERTEX
  8
0
  5
27653
 10
91.1283
 20
257.685
 30
0.000000
  70
    32
  0
VERTEX
  8
0
  5
27654
 10
91.1748
 20
257.747
 30
0.000000
  70
    32
  0
VERTEX
  8
0
  5
27655
 10
91.2214
 20
257.808
 30
0.000000
  70
    32
  0
VERTEX
  8
0
  5
27656
 10
91.2681
 20
257.870
 30
0.000000
  70
    32
  0
VERTEX
  8
0
  5
27657
 10
91.3149
 20
257.931
 30
0.000000
  70
    32
  0
VERTEX
  8
0
  5
27658
 10
91.3618
 20
257.992
 30
0.000000
  70
    32
  0
VERTEX
  8
0
  5
27659
 10
91.4088
 20
258.053
 30
0.000000
  70
    32
  0
VERTEX
  8
0
  5
2765A
 10
91.4560
 20
258.114
 30
0.000000
  70
    32
  0
VERTEX
  8
0
  5
2765B
 10
91.5032
 20
258.175
 30
0.000000
  70
    32
  0
VERTEX
  8
0
  5
2765C
 10
91.5505
 20
258.236
 30
0.000000
  70
    32
  0
VERTEX
  8
0
  5
2765D
 10
91.5979
 20
258.296
 30
0.000000
  70
    32
  0
VERTEX
  8
0
  5
2765E
 10
91.6454
 20
258.357
 30
0.000000
  70
    32
  0
VERTEX
  8
0
  5
2765F
 10
91.6929
 20
258.417
 30
0.000000
  70
    32
  0
VERTEX
  8
0
  5
27660
 10
91.7406
 20
258.477
 30
0.000000
  70
    32
  0
VERTEX
  8
0
  5
27661
 10
91.7884
 20
258.537
 30
0.000000
  70
    32
  0
VERTEX
  8
0
  5
27662
 10
91.8363
 20
258.597
 30
0.000000
  70
    32
  0
VERTEX
  8
0
  5
27663
 10
91.8843
 20
258.656
 30
0.000000
  70
    32
  0
VERTEX
  8
0
  5
27664
 10
91.9324
 20
258.716
 30
0.000000
  70
    32
  0
VERTEX
  8
0
  5
27665
 10
91.9805
 20
258.775
 30
0.000000
  70
    32
  0
VERTEX
  8
0
  5
27666
 10
92.0288
 20
258.835
 30
0.000000
  70
    32
  0
VERTEX
  8
0
  5
27667
 10
92.0772
 20
258.894
 30
0.000000
  70
    32
  0
VERTEX
  8
0
  5
27668
 10
92.1256
 20
258.953
 30
0.000000
  70
    32
  0
VERTEX
  8
0
  5
27669
 10
92.1742
 20
259.012
 30
0.000000
  70
    32
  0
VERTEX
  8
0
  5
2766A
 10
92.2228
 20
259.070
 30
0.000000
  70
    32
  0
VERTEX
  8
0
  5
2766B
 10
92.2715
 20
259.129
 30
0.000000
  70
    32
  0
VERTEX
  8
0
  5
2766C
 10
92.3204
 20
259.187
 30
0.000000
  70
    32
  0
VERTEX
  8
0
  5
2766D
 10
92.3693
 20
259.246
 30
0.000000
  70
    32
  0
VERTEX
  8
0
  5
2766E
 10
92.4183
 20
259.304
 30
0.000000
  70
    32
  0
VERTEX
  8
0
  5
2766F
 10
92.4674
 20
259.362
 30
0.000000
  70
    32
  0
VERTEX
  8
0
  5
27670
 10
92.5166
 20
259.420
 30
0.000000
  70
    32
  0
VERTEX
  8
0
  5
27671
 10
92.5659
 20
259.477
 30
0.000000
  70
    32
  0
VERTEX
  8
0
  5
27672
 10
92.6153
 20
259.535
 30
0.000000
  70
    32
  0
VERTEX
  8
0
  5
27673
 10
92.6648
 20
259.592
 30
0.000000
  70
    32
  0
VERTEX
  8
0
  5
27674
 10
92.7144
 20
259.650
 30
0.000000
  70
    32
  0
VERTEX
  8
0
  5
27675
 10
92.7640
 20
259.707
 30
0.000000
  70
    32
  0
VERTEX
  8
0
  5
27676
 10
92.8138
 20
259.764
 30
0.000000
  70
    32
  0
VERTEX
  8
0
  5
27677
 10
92.8637
 20
259.821
 30
0.000000
  70
    32
  0
VERTEX
  8
0
  5
27678
 10
92.9136
 20
259.877
 30
0.000000
  70
    32
  0
VERTEX
  8
0
  5
27679
 10
92.9636
 20
259.934
 30
0.000000
  70
    32
  0
VERTEX
  8
0
  5
2767A
 10
93.0137
 20
259.990
 30
0.000000
  70
    32
  0
VERTEX
  8
0
  5
2767B
 10
93.0640
 20
260.047
 30
0.000000
  70
    32
  0
VERTEX
  8
0
  5
2767C
 10
93.1143
 20
260.103
 30
0.000000
  70
    32
  0
VERTEX
  8
0
  5
2767D
 10
93.1647
 20
260.159
 30
0.000000
  70
    32
  0
VERTEX
  8
0
  5
2767E
 10
93.2151
 20
260.215
 30
0.000000
  70
    32
  0
VERTEX
  8
0
  5
2767F
 10
93.2657
 20
260.270
 30
0.000000
  70
    32
  0
VERTEX
  8
0
  5
27680
 10
93.3164
 20
260.326
 30
0.000000
  70
    32
  0
VERTEX
  8
0
  5
27681
 10
93.3671
 20
260.381
 30
0.000000
  70
    32
  0
VERTEX
  8
0
  5
27682
 10
93.4180
 20
260.437
 30
0.000000
  70
    32
  0
VERTEX
  8
0
  5
27683
 10
93.4689
 20
260.492
 30
0.000000
  70
    32
  0
VERTEX
  8
0
  5
27684
 10
93.5199
 20
260.547
 30
0.000000
  70
    32
  0
VERTEX
  8
0
  5
27685
 10
93.5710
 20
260.602
 30
0.000000
  70
    32
  0
VERTEX
  8
0
  5
27686
 10
93.6222
 20
260.656
 30
0.000000
  70
    32
  0
VERTEX
  8
0
  5
27687
 10
93.6735
 20
260.711
 30
0.000000
  70
    32
  0
VERTEX
  8
0
  5
27688
 10
93.7249
 20
260.765
 30
0.000000
  70
    32
  0
VERTEX
  8
0
  5
27689
 10
93.7763
 20
260.820
 30
0.000000
  70
    32
  0
VERTEX
  8
0
  5
2768A
 10
93.8279
 20
260.874
 30
0.000000
  70
    32
  0
VERTEX
  8
0
  5
2768B
 10
93.8795
 20
260.928
 30
0.000000
  70
    32
  0
VERTEX
  8
0
  5
2768C
 10
93.9312
 20
260.981
 30
0.000000
  70
    32
  0
VERTEX
  8
0
  5
2768D
 10
93.9830
 20
261.035
 30
0.000000
  70
    32
  0
VERTEX
  8
0
  5
2768E
 10
94.0349
 20
261.089
 30
0.000000
  70
    32
  0
VERTEX
  8
0
  5
2768F
 10
94.0869
 20
261.142
 30
0.000000
  70
    32
  0
VERTEX
  8
0
  5
27690
 10
94.1389
 20
261.195
 30
0.000000
  70
    32
  0
VERTEX
  8
0
  5
27691
 10
94.1911
 20
261.248
 30
0.000000
  70
    32
  0
VERTEX
  8
0
  5
27692
 10
94.2433
 20
261.301
 30
0.000000
  70
    32
  0
VERTEX
  8
0
  5
27693
 10
94.2956
 20
261.354
 30
0.000000
  70
    32
  0
VERTEX
  8
0
  5
27694
 10
94.3480
 20
261.407
 30
0.000000
  70
    32
  0
VERTEX
  8
0
  5
27695
 10
94.4005
 20
261.459
 30
0.000000
  70
    32
  0
VERTEX
  8
0
  5
27696
 10
94.4531
 20
261.511
 30
0.000000
  70
    32
  0
VERTEX
  8
0
  5
27697
 10
94.5057
 20
261.563
 30
0.000000
  70
    32
  0
VERTEX
  8
0
  5
27698
 10
94.5585
 20
261.615
 30
0.000000
  70
    32
  0
VERTEX
  8
0
  5
27699
 10
94.6113
 20
261.667
 30
0.000000
  70
    32
  0
VERTEX
  8
0
  5
2769A
 10
94.6642
 20
261.719
 30
0.000000
  70
    32
  0
VERTEX
  8
0
  5
2769B
 10
94.7172
 20
261.771
 30
0.000000
  70
    32
  0
VERTEX
  8
0
  5
2769C
 10
94.7703
 20
261.822
 30
0.000000
  70
    32
  0
VERTEX
  8
0
  5
2769D
 10
94.8234
 20
261.873
 30
0.000000
  70
    32
  0
VERTEX
  8
0
  5
2769E
 10
94.8766
 20
261.924
 30
0.000000
  70
    32
  0
VERTEX
  8
0
  5
2769F
 10
94.9300
 20
261.975
 30
0.000000
  70
    32
  0
VERTEX
  8
0
  5
276A0
 10
94.9833
 20
262.026
 30
0.000000
  70
    32
  0
VERTEX
  8
0
  5
276A1
 10
95.0368
 20
262.077
 30
0.000000
  70
    32
  0
VERTEX
  8
0
  5
276A2
 10
95.0904
 20
262.127
 30
0.000000
  70
    32
  0
VERTEX
  8
0
  5
276A3
 10
95.1440
 20
262.177
 30
0.000000
  70
    32
  0
VERTEX
  8
0
  5
276A4
 10
95.1977
 20
262.228
 30
0.000000
  70
    32
  0
VERTEX
  8
0
  5
276A5
 10
95.2515
 20
262.278
 30
0.000000
  70
    32
  0
VERTEX
  8
0
  5
276A6
 10
95.3054
 20
262.328
 30
0.000000
  70
    32
  0
VERTEX
  8
0
  5
276A7
 10
95.3594
 20
262.377
 30
0.000000
  70
    32
  0
VERTEX
  8
0
  5
276A8
 10
95.4134
 20
262.427
 30
0.000000
  70
    32
  0
VERTEX
  8
0
  5
276A9
 10
95.4675
 20
262.476
 30
0.000000
  70
    32
  0
VERTEX
  8
0
  5
276AA
 10
95.5217
 20
262.525
 30
0.000000
  70
    32
  0
VERTEX
  8
0
  5
276AB
 10
95.5760
 20
262.574
 30
0.000000
  70
    32
  0
VERTEX
  8
0
  5
276AC
 10
95.6304
 20
262.623
 30
0.000000
  70
    32
  0
VERTEX
  8
0
  5
276AD
 10
95.6848
 20
262.672
 30
0.000000
  70
    32
  0
VERTEX
  8
0
  5
276AE
 10
95.7393
 20
262.721
 30
0.000000
  70
    32
  0
VERTEX
  8
0
  5
276AF
 10
95.7939
 20
262.769
 30
0.000000
  70
    32
  0
VERTEX
  8
0
  5
276B0
 10
95.8486
 20
262.818
 30
0.000000
  70
    32
  0
VERTEX
  8
0
  5
276B1
 10
95.9033
 20
262.866
 30
0.000000
  70
    32
  0
VERTEX
  8
0
  5
276B2
 10
95.9582
 20
262.914
 30
0.000000
  70
    32
  0
VERTEX
  8
0
  5
276B3
 10
96.0131
 20
262.962
 30
0.000000
  70
    32
  0
VERTEX
  8
0
  5
276B4
 10
96.0680
 20
263.009
 30
0.000000
  70
    32
  0
VERTEX
  8
0
  5
276B5
 10
96.1231
 20
263.057
 30
0.000000
  70
    32
  0
VERTEX
  8
0
  5
276B6
 10
96.1782
 20
263.104
 30
0.000000
  70
    32
  0
VERTEX
  8
0
  5
276B7
 10
96.2334
 20
263.151
 30
0.000000
  70
    32
  0
VERTEX
  8
0
  5
276B8
 10
96.2887
 20
263.198
 30
0.000000
  70
    32
  0
VERTEX
  8
0
  5
276B9
 10
96.3441
 20
263.245
 30
0.000000
  70
    32
  0
VERTEX
  8
0
  5
276BA
 10
96.3995
 20
263.292
 30
0.000000
  70
    32
  0
VERTEX
  8
0
  5
276BB
 10
96.4550
 20
263.338
 30
0.000000
  70
    32
  0
VERTEX
  8
0
  5
276BC
 10
96.5106
 20
263.385
 30
0.000000
  70
    32
  0
VERTEX
  8
0
  5
276BD
 10
96.5663
 20
263.431
 30
0.000000
  70
    32
  0
SEQEND
  8
0
  5
276BE
  0
POLYLINE
  5
22D4A
  8
0
 10
128.69455155568951
 20
263.43109668683513
 30
0.0
 66
     1
 70
     8
  0
VERTEX
  8
0
  5
276BF
 10
128.695
 20
263.431
 30
0.000000
  70
    32
  0
VERTEX
  8
0
  5
276C0
 10
128.750
 20
263.385
 30
0.000000
  70
    32
  0
VERTEX
  8
0
  5
276C1
 10
128.806
 20
263.338
 30
0.000000
  70
    32
  0
VERTEX
  8
0
  5
276C2
 10
128.861
 20
263.292
 30
0.000000
  70
    32
  0
VERTEX
  8
0
  5
276C3
 10
128.917
 20
263.245
 30
0.000000
  70
    32
  0
VERTEX
  8
0
  5
276C4
 10
128.972
 20
263.198
 30
0.000000
  70
    32
  0
VERTEX
  8
0
  5
276C5
 10
129.027
 20
263.151
 30
0.000000
  70
    32
  0
VERTEX
  8
0
  5
276C6
 10
129.083
 20
263.104
 30
0.000000
  70
    32
  0
VERTEX
  8
0
  5
276C7
 10
129.138
 20
263.057
 30
0.000000
  70
    32
  0
VERTEX
  8
0
  5
276C8
 10
129.193
 20
263.009
 30
0.000000
  70
    32
  0
VERTEX
  8
0
  5
276C9
 10
129.248
 20
262.962
 30
0.000000
  70
    32
  0
VERTEX
  8
0
  5
276CA
 10
129.303
 20
262.914
 30
0.000000
  70
    32
  0
VERTEX
  8
0
  5
276CB
 10
129.357
 20
262.866
 30
0.000000
  70
    32
  0
VERTEX
  8
0
  5
276CC
 10
129.412
 20
262.818
 30
0.000000
  70
    32
  0
VERTEX
  8
0
  5
276CD
 10
129.467
 20
262.769
 30
0.000000
  70
    32
  0
VERTEX
  8
0
  5
276CE
 10
129.521
 20
262.721
 30
0.000000
  70
    32
  0
VERTEX
  8
0
  5
276CF
 10
129.576
 20
262.672
 30
0.000000
  70
    32
  0
VERTEX
  8
0
  5
276D0
 10
129.630
 20
262.623
 30
0.000000
  70
    32
  0
VERTEX
  8
0
  5
276D1
 10
129.685
 20
262.574
 30
0.000000
  70
    32
  0
VERTEX
  8
0
  5
276D2
 10
129.739
 20
262.525
 30
0.000000
  70
    32
  0
VERTEX
  8
0
  5
276D3
 10
129.793
 20
262.476
 30
0.000000
  70
    32
  0
VERTEX
  8
0
  5
276D4
 10
129.847
 20
262.427
 30
0.000000
  70
    32
  0
VERTEX
  8
0
  5
276D5
 10
129.901
 20
262.377
 30
0.000000
  70
    32
  0
VERTEX
  8
0
  5
276D6
 10
129.955
 20
262.328
 30
0.000000
  70
    32
  0
VERTEX
  8
0
  5
276D7
 10
130.009
 20
262.278
 30
0.000000
  70
    32
  0
VERTEX
  8
0
  5
276D8
 10
130.063
 20
262.228
 30
0.000000
  70
    32
  0
VERTEX
  8
0
  5
276D9
 10
130.117
 20
262.177
 30
0.000000
  70
    32
  0
VERTEX
  8
0
  5
276DA
 10
130.170
 20
262.127
 30
0.000000
  70
    32
  0
VERTEX
  8
0
  5
276DB
 10
130.224
 20
262.077
 30
0.000000
  70
    32
  0
VERTEX
  8
0
  5
276DC
 10
130.277
 20
262.026
 30
0.000000
  70
    32
  0
VERTEX
  8
0
  5
276DD
 10
130.331
 20
261.975
 30
0.000000
  70
    32
  0
VERTEX
  8
0
  5
276DE
 10
130.384
 20
261.924
 30
0.000000
  70
    32
  0
VERTEX
  8
0
  5
276DF
 10
130.437
 20
261.873
 30
0.000000
  70
    32
  0
VERTEX
  8
0
  5
276E0
 10
130.491
 20
261.822
 30
0.000000
  70
    32
  0
VERTEX
  8
0
  5
276E1
 10
130.544
 20
261.771
 30
0.000000
  70
    32
  0
VERTEX
  8
0
  5
276E2
 10
130.597
 20
261.719
 30
0.000000
  70
    32
  0
VERTEX
  8
0
  5
276E3
 10
130.650
 20
261.667
 30
0.000000
  70
    32
  0
VERTEX
  8
0
  5
276E4
 10
130.702
 20
261.615
 30
0.000000
  70
    32
  0
VERTEX
  8
0
  5
276E5
 10
130.755
 20
261.563
 30
0.000000
  70
    32
  0
VERTEX
  8
0
  5
276E6
 10
130.808
 20
261.511
 30
0.000000
  70
    32
  0
VERTEX
  8
0
  5
276E7
 10
130.860
 20
261.459
 30
0.000000
  70
    32
  0
VERTEX
  8
0
  5
276E8
 10
130.913
 20
261.407
 30
0.000000
  70
    32
  0
VERTEX
  8
0
  5
276E9
 10
130.965
 20
261.354
 30
0.000000
  70
    32
  0
VERTEX
  8
0
  5
276EA
 10
131.017
 20
261.301
 30
0.000000
  70
    32
  0
VERTEX
  8
0
  5
276EB
 10
131.070
 20
261.248
 30
0.000000
  70
    32
  0
VERTEX
  8
0
  5
276EC
 10
131.122
 20
261.195
 30
0.000000
  70
    32
  0
VERTEX
  8
0
  5
276ED
 10
131.174
 20
261.142
 30
0.000000
  70
    32
  0
VERTEX
  8
0
  5
276EE
 10
131.226
 20
261.089
 30
0.000000
  70
    32
  0
VERTEX
  8
0
  5
276EF
 10
131.278
 20
261.035
 30
0.000000
  70
    32
  0
VERTEX
  8
0
  5
276F0
 10
131.330
 20
260.981
 30
0.000000
  70
    32
  0
VERTEX
  8
0
  5
276F1
 10
131.381
 20
260.928
 30
0.000000
  70
    32
  0
VERTEX
  8
0
  5
276F2
 10
131.433
 20
260.874
 30
0.000000
  70
    32
  0
VERTEX
  8
0
  5
276F3
 10
131.484
 20
260.820
 30
0.000000
  70
    32
  0
VERTEX
  8
0
  5
276F4
 10
131.536
 20
260.765
 30
0.000000
  70
    32
  0
VERTEX
  8
0
  5
276F5
 10
131.587
 20
260.711
 30
0.000000
  70
    32
  0
VERTEX
  8
0
  5
276F6
 10
131.639
 20
260.656
 30
0.000000
  70
    32
  0
VERTEX
  8
0
  5
276F7
 10
131.690
 20
260.602
 30
0.000000
  70
    32
  0
VERTEX
  8
0
  5
276F8
 10
131.741
 20
260.547
 30
0.000000
  70
    32
  0
VERTEX
  8
0
  5
276F9
 10
131.792
 20
260.492
 30
0.000000
  70
    32
  0
VERTEX
  8
0
  5
276FA
 10
131.843
 20
260.437
 30
0.000000
  70
    32
  0
VERTEX
  8
0
  5
276FB
 10
131.894
 20
260.381
 30
0.000000
  70
    32
  0
VERTEX
  8
0
  5
276FC
 10
131.944
 20
260.326
 30
0.000000
  70
    32
  0
VERTEX
  8
0
  5
276FD
 10
131.995
 20
260.270
 30
0.000000
  70
    32
  0
VERTEX
  8
0
  5
276FE
 10
132.046
 20
260.215
 30
0.000000
  70
    32
  0
VERTEX
  8
0
  5
276FF
 10
132.096
 20
260.159
 30
0.000000
  70
    32
  0
VERTEX
  8
0
  5
27700
 10
132.147
 20
260.103
 30
0.000000
  70
    32
  0
VERTEX
  8
0
  5
27701
 10
132.197
 20
260.047
 30
0.000000
  70
    32
  0
VERTEX
  8
0
  5
27702
 10
132.247
 20
259.990
 30
0.000000
  70
    32
  0
VERTEX
  8
0
  5
27703
 10
132.297
 20
259.934
 30
0.000000
  70
    32
  0
VERTEX
  8
0
  5
27704
 10
132.347
 20
259.877
 30
0.000000
  70
    32
  0
VERTEX
  8
0
  5
27705
 10
132.397
 20
259.821
 30
0.000000
  70
    32
  0
VERTEX
  8
0
  5
27706
 10
132.447
 20
259.764
 30
0.000000
  70
    32
  0
VERTEX
  8
0
  5
27707
 10
132.497
 20
259.707
 30
0.000000
  70
    32
  0
VERTEX
  8
0
  5
27708
 10
132.546
 20
259.650
 30
0.000000
  70
    32
  0
VERTEX
  8
0
  5
27709
 10
132.596
 20
259.592
 30
0.000000
  70
    32
  0
VERTEX
  8
0
  5
2770A
 10
132.645
 20
259.535
 30
0.000000
  70
    32
  0
VERTEX
  8
0
  5
2770B
 10
132.695
 20
259.477
 30
0.000000
  70
    32
  0
VERTEX
  8
0
  5
2770C
 10
132.744
 20
259.420
 30
0.000000
  70
    32
  0
VERTEX
  8
0
  5
2770D
 10
132.793
 20
259.362
 30
0.000000
  70
    32
  0
VERTEX
  8
0
  5
2770E
 10
132.842
 20
259.304
 30
0.000000
  70
    32
  0
VERTEX
  8
0
  5
2770F
 10
132.892
 20
259.246
 30
0.000000
  70
    32
  0
VERTEX
  8
0
  5
27710
 10
132.940
 20
259.187
 30
0.000000
  70
    32
  0
VERTEX
  8
0
  5
27711
 10
132.989
 20
259.129
 30
0.000000
  70
    32
  0
VERTEX
  8
0
  5
27712
 10
133.038
 20
259.070
 30
0.000000
  70
    32
  0
VERTEX
  8
0
  5
27713
 10
133.087
 20
259.012
 30
0.000000
  70
    32
  0
VERTEX
  8
0
  5
27714
 10
133.135
 20
258.953
 30
0.000000
  70
    32
  0
VERTEX
  8
0
  5
27715
 10
133.184
 20
258.894
 30
0.000000
  70
    32
  0
VERTEX
  8
0
  5
27716
 10
133.232
 20
258.835
 30
0.000000
  70
    32
  0
VERTEX
  8
0
  5
27717
 10
133.280
 20
258.775
 30
0.000000
  70
    32
  0
VERTEX
  8
0
  5
27718
 10
133.328
 20
258.716
 30
0.000000
  70
    32
  0
VERTEX
  8
0
  5
27719
 10
133.377
 20
258.656
 30
0.000000
  70
    32
  0
VERTEX
  8
0
  5
2771A
 10
133.424
 20
258.597
 30
0.000000
  70
    32
  0
VERTEX
  8
0
  5
2771B
 10
133.472
 20
258.537
 30
0.000000
  70
    32
  0
VERTEX
  8
0
  5
2771C
 10
133.520
 20
258.477
 30
0.000000
  70
    32
  0
VERTEX
  8
0
  5
2771D
 10
133.568
 20
258.417
 30
0.000000
  70
    32
  0
VERTEX
  8
0
  5
2771E
 10
133.615
 20
258.357
 30
0.000000
  70
    32
  0
VERTEX
  8
0
  5
2771F
 10
133.663
 20
258.296
 30
0.000000
  70
    32
  0
VERTEX
  8
0
  5
27720
 10
133.710
 20
258.236
 30
0.000000
  70
    32
  0
VERTEX
  8
0
  5
27721
 10
133.758
 20
258.175
 30
0.000000
  70
    32
  0
VERTEX
  8
0
  5
27722
 10
133.805
 20
258.114
 30
0.000000
  70
    32
  0
VERTEX
  8
0
  5
27723
 10
133.852
 20
258.053
 30
0.000000
  70
    32
  0
VERTEX
  8
0
  5
27724
 10
133.899
 20
257.992
 30
0.000000
  70
    32
  0
VERTEX
  8
0
  5
27725
 10
133.946
 20
257.931
 30
0.000000
  70
    32
  0
VERTEX
  8
0
  5
27726
 10
133.993
 20
257.870
 30
0.000000
  70
    32
  0
VERTEX
  8
0
  5
27727
 10
134.039
 20
257.808
 30
0.000000
  70
    32
  0
VERTEX
  8
0
  5
27728
 10
134.086
 20
257.747
 30
0.000000
  70
    32
  0
VERTEX
  8
0
  5
27729
 10
134.133
 20
257.685
 30
0.000000
  70
    32
  0
VERTEX
  8
0
  5
2772A
 10
134.179
 20
257.623
 30
0.000000
  70
    32
  0
VERTEX
  8
0
  5
2772B
 10
134.225
 20
257.561
 30
0.000000
  70
    32
  0
VERTEX
  8
0
  5
2772C
 10
134.271
 20
257.499
 30
0.000000
  70
    32
  0
VERTEX
  8
0
  5
2772D
 10
134.318
 20
257.437
 30
0.000000
  70
    32
  0
VERTEX
  8
0
  5
2772E
 10
134.364
 20
257.374
 30
0.000000
  70
    32
  0
VERTEX
  8
0
  5
2772F
 10
134.410
 20
257.312
 30
0.000000
  70
    32
  0
VERTEX
  8
0
  5
27730
 10
134.455
 20
257.249
 30
0.000000
  70
    32
  0
VERTEX
  8
0
  5
27731
 10
134.501
 20
257.187
 30
0.000000
  70
    32
  0
VERTEX
  8
0
  5
27732
 10
134.547
 20
257.124
 30
0.000000
  70
    32
  0
VERTEX
  8
0
  5
27733
 10
134.592
 20
257.061
 30
0.000000
  70
    32
  0
VERTEX
  8
0
  5
27734
 10
134.638
 20
256.997
 30
0.000000
  70
    32
  0
VERTEX
  8
0
  5
27735
 10
134.683
 20
256.934
 30
0.000000
  70
    32
  0
VERTEX
  8
0
  5
27736
 10
134.728
 20
256.871
 30
0.000000
  70
    32
  0
VERTEX
  8
0
  5
27737
 10
134.773
 20
256.807
 30
0.000000
  70
    32
  0
VERTEX
  8
0
  5
27738
 10
134.818
 20
256.743
 30
0.000000
  70
    32
  0
VERTEX
  8
0
  5
27739
 10
134.863
 20
256.680
 30
0.000000
  70
    32
  0
VERTEX
  8
0
  5
2773A
 10
134.908
 20
256.616
 30
0.000000
  70
    32
  0
VERTEX
  8
0
  5
2773B
 10
134.953
 20
256.552
 30
0.000000
  70
    32
  0
VERTEX
  8
0
  5
2773C
 10
134.997
 20
256.487
 30
0.000000
  70
    32
  0
VERTEX
  8
0
  5
2773D
 10
135.042
 20
256.423
 30
0.000000
  70
    32
  0
VERTEX
  8
0
  5
2773E
 10
135.086
 20
256.359
 30
0.000000
  70
    32
  0
VERTEX
  8
0
  5
2773F
 10
135.130
 20
256.294
 30
0.000000
  70
    32
  0
SEQEND
  8
0
  5
27740
  0
LINE
  5
22D6A
  8
0
 10
109.6304029516796
 20
139.7436887314197
 30
0.0
 11
115.6304029516795
 21
139.7436887314197
 31
0.0
  0
ARC
  5
22D6B
  8
0
 10
115.6304029516795
 20
140.04368873141991
 30
0.0
 40
0.3000000000000185
 50
270.0
 51
0.0
  0
LINE
  5
22D6E
  8
0
 10
115.9304029516795
 20
140.04368873141991
 30
0.0
 11
118.3304029516796
 21
140.04368873141991
 31
0.0
  0
ARC
  5
22D6F
  8
0
 10
118.6304029516795
 20
140.04368873141991
 30
0.0
 40
0.2999999999999998
 50
180.0
 51
270.0
  0
LINE
  5
22D72
  8
0
 10
118.6304029516795
 20
139.7436887314197
 30
0.0
 11
122.058919551541
 21
139.7436887314197
 31
0.0
  0
ARC
  5
22D73
  8
0
 10
122.058919551541
 20
140.7436887314197
 30
0.0
 40
1.0000000000000211
 50
270.0
 51
341.00000000001239
  0
LINE
  5
22D75
  8
0
 10
124.41286351235679
 20
259.9788925617367
 30
0.0
 11
123.2241743053744
 21
263.43109668682979
 31
0.0
  0
LINE
  5
22D76
  8
0
 10
123.0044381271402
 20
140.41812057696279
 30
0.0
 11
124.41286351235679
 21
144.50848490110269
 31
0.0
  0
ARC
  5
22D77
  8
0
 10
121.5763077855588
 20
145.48518936447451
 30
0.0
 40
2.999999999999917
 50
341.00000000001239
 51
0.0000008537736463
  0
ARC
  5
22D78
  8
0
 10
121.5763077855588
 20
259.00218809836502
 30
0.0
 40
2.9999999999999591
 50
0.0
 51
18.999999999987629
  0
ARC
  5
22D79
  8
0
 10
125.2013077855588
 20
146.798293335778
 30
0.0
 40
0.625
 50
180.0
 51
0.0
  0
ARC
  5
22D7A
  8
0
 10
125.2013077855588
 20
257.68908412706151
 30
0.0
 40
0.625
 50
0.0
 51
180.0
  0
ARC
  5
22D7B
  8
0
 10
126.4513077855588
 20
150.4285569328722
 30
0.0
 40
0.625
 50
180.0
 51
0.0
  0
ARC
  5
22D7C
  8
0
 10
126.4513077855588
 20
254.05882052996731
 30
0.0
 40
0.625
 50
0.0
 51
180.0
  0
LINE
  5
22D7D
  8
0
 10
131.2169586784776
 20
240.21836536754651
 30
0.0
 11
127.0763077855588
 21
252.24368873141981
 31
0.0
  0
LINE
  5
22D7E
  8
0
 10
127.0763077855588
 20
152.2436887314197
 30
0.0
 11
131.2169586784776
 21
164.269012095292
 31
0.0
  0
ARC
  5
22D7F
  8
0
 10
128.38040295167929
 20
165.24571655866379
 30
0.0
 40
3.0000000000001941
 50
341.00000000001239
 51
0.0000008537736463
  0
ARC
  5
22D80
  8
0
 10
128.38040295167929
 20
239.2416609041756
 30
0.0
 40
3.000000000000191
 50
0.0000008537736463
 51
18.999999999987629
  0
ARC
  5
22D81
  8
0
 10
96.880402951679116
 20
165.24571655866379
 30
0.0
 40
2.9999999999995999
 50
179.99999914622629
 51
198.99999999998761
  0
ARC
  5
22D82
  8
0
 10
96.880402951679116
 20
239.2416609041756
 30
0.0
 40
2.999999999999599
 50
161.00000000001231
 51
179.99999914622629
  0
LINE
  5
22D83
  8
0
 10
98.184498117800345
 20
252.24368873141981
 30
0.0
 11
94.043847224881574
 21
240.21836536754651
 31
0.0
  0
LINE
  5
22D84
  8
0
 10
94.043847224881574
 20
164.269012095292
 30
0.0
 11
98.184498117800345
 21
152.2436887314197
 31
0.0
  0
ARC
  5
22D85
  8
0
 10
98.809498117800345
 20
150.4285569328722
 30
0.0
 40
0.625
 50
180.0
 51
0.0
  0
ARC
  5
22D86
  8
0
 10
98.809498117800345
 20
254.05882052996731
 30
0.0
 40
0.625
 50
0.0
 51
180.0
  0
ARC
  5
22D87
  8
0
 10
100.0594981178003
 20
146.798293335778
 30
0.0
 40
0.625
 50
180.0
 51
0.0
  0
ARC
  5
22D88
  8
0
 10
100.0594981178003
 20
257.68908412706151
 30
0.0
 40
0.625
 50
0.0
 51
180.0
  0
ARC
  5
22D89
  8
0
 10
103.6844981178003
 20
145.48518936447451
 30
0.0
 40
2.9999999999999338
 50
180.0
 51
198.99999999998761
  0
ARC
  5
22D8A
  8
0
 10
103.6844981178003
 20
259.00218809836502
 30
0.0
 40
2.9999999999999369
 50
161.00000000001231
 51
180.0
  0
LINE
  5
22D8B
  8
0
 10
102.03663159798469
 20
263.43109668682979
 30
0.0
 11
100.84794239100231
 21
259.9788925617367
 31
0.0
  0
LINE
  5
22D8C
  8
0
 10
100.84794239100231
 20
144.50848490110269
 30
0.0
 11
102.25636777621889
 21
140.41812057696279
 31
0.0
  0
ARC
  5
22D8D
  8
0
 10
103.2018863518181
 20
140.7436887314197
 30
0.0
 40
1.0000000000000211
 50
198.99999999998761
 51
270.0
  0
LINE
  5
22D90
  8
0
 10
103.2018863518181
 20
139.7436887314197
 30
0.0
 11
106.6304029516796
 21
139.7436887314197
 31
0.0
  0
ARC
  5
22D91
  8
0
 10
106.6304029516796
 20
140.04368873141991
 30
0.0
 40
0.3000000000000185
 50
270.0
 51
0.0
  0
LINE
  5
22D94
  8
0
 10
106.9304029516795
 20
140.04368873141991
 30
0.0
 11
109.3304029516796
 21
140.04368873141991
 31
0.0
  0
ARC
  5
22D95
  8
0
 10
109.6304029516796
 20
140.04368873141991
 30
0.0
 40
0.3000000000000003
 50
180.0
 51
270.0
  0
LINE
  5
22D97
  8
0
 10
115.9304029516795
 20
140.04368873141991
 30
0.0
 11
115.9304029516795
 21
263.43109668682979
 31
0.0
  0
LINE
  5
22D98
  8
0
 10
118.3304029516796
 20
140.04368873141991
 30
0.0
 11
118.3304029516798
 21
263.43109668682979
 31
0.0
  0
LINE
  5
22D99
  8
0
 10
124.5763077855588
 20
145.48518936447451
 30
0.0
 11
124.5763077855588
 21
259.00218809836502
 31
0.0
  0
LINE
  5
22D9A
  8
0
 10
125.8263077855588
 20
146.798293335778
 30
0.0
 11
125.8263077855588
 21
257.68908412706151
 31
0.0
  0
LINE
  5
22D9B
  8
0
 10
127.0763077855588
 20
150.4285569328722
 30
0.0
 11
127.0763077855588
 21
254.05882052996731
 31
0.0
  0
LINE
  5
22D9C
  8
0
 10
131.38040295167951
 20
165.24571655866379
 30
0.0
 11
131.38040295167951
 21
239.2416609041756
 31
0.0
  0
LINE
  5
22D9D
  8
0
 10
98.184498117800345
 20
150.4285569328722
 30
0.0
 11
98.184498117800345
 21
254.05882052996731
 31
0.0
  0
LINE
  5
22D9E
  8
0
 10
99.434498117800345
 20
146.798293335778
 30
0.0
 11
99.434498117800345
 21
257.68908412706151
 31
0.0
  0
LINE
  5
22D9F
  8
0
 10
100.6844981178003
 20
145.48518936447451
 30
0.0
 11
100.6844981178003
 21
259.00218809836502
 31
0.0
  0
LINE
  5
22DA0
  8
0
 10
106.9304029516795
 20
140.04368873141991
 30
0.0
 11
106.9304029516795
 21
263.43109668682979
 31
0.0
  0
LINE
  5
22DA1
  8
0
 10
109.3304029516796
 20
140.04368873141991
 30
0.0
 11
109.3304029516796
 21
263.43109668682979
 31
0.0
  0
LINE
  5
22DA2
  8
0
 10
93.880402951679571
 20
165.24571655866379
 30
0.0
 11
93.880402951679571
 21
239.2416609041756
 31
0.0
  0
LINE
  5
22DA5
  8
0
 10
87.630402579150314
 20
281.94368889086218
 30
0.0
 11
87.630402579150314
 21
192.2436875989315
 31
0.0
  0
LINE
  5
22DA6
  8
0
 10
138.2304020721383
 20
208.50202420257301
 30
0.0
 11
138.2304020721383
 21
195.9853542735454
 31
0.0
  0
LINE
  5
22DA7
  8
0
 10
142.93040177150729
 20
208.50202420257301
 30
0.0
 11
142.93040177150729
 21
195.9853542735454
 31
0.0
  0
LINE
  5
22DAA
  8
1
 10
112.6304029516793
 20
311.7085891019542
 30
0.0
 11
112.6304029516795
 21
128.01527732418069
 31
0.0
  0
LINE
  5
22DAB
  8
1
 10
71.02136835916167
 20
202.24368873141981
 30
0.0
 11
154.23943754419739
 21
202.24368873141981
 31
0.0
  0
LINE
  5
22DAC
  8
3
 10
77.630400940022582
 20
205.4766861488697
 30
0.0
 11
79.630401267848129
 21
205.4766861488697
 31
0.0
  0
LINE
  5
22DAD
  8
3
 10
77.630400940022582
 20
199.01069232724871
 30
0.0
 11
79.630401267848129
 21
199.01069232724871
 31
0.0
  0
LINE
  5
22DAF
  8
0
 10
131.63040295167929
 20
263.43109668682979
 30
0.0
 11
93.630402951679343
 21
263.43109668682979
 31
0.0
  0
LINE
  5
22DB0
  8
0
 10
131.63040295167929
 20
263.43109668682979
 30
0.0
 11
131.63040295167929
 21
271.47301059164511
 31
0.0
  0
LINE
  5
22DB1
  8
0
 10
128.6304029516796
 20
271.47301059164511
 30
0.0
 11
128.6304029516796
 21
272.6021496726616
 31
0.0
  0
LINE
  5
22DB2
  8
0
 10
131.63040295167929
 20
271.47301059164511
 30
0.0
 11
93.630402951679343
 21
271.47301059164511
 31
0.0
  0
LINE
  5
22DB3
  8
0
 10
93.630402951679343
 20
263.43109668682979
 30
0.0
 11
93.630402951679343
 21
271.47301059164511
 31
0.0
  0
LINE
  5
22DB4
  8
0
 10
128.6304029516796
 20
272.6021496726616
 30
0.0
 11
96.630402951679116
 21
272.6021496726616
 31
0.0
  0
LINE
  5
22DB5
  8
0
 10
96.630402951679116
 20
271.47301059164511
 30
0.0
 11
96.630402951679116
 21
272.6021496726616
 31
0.0
  0
LINE
  5
22DB6
  8
0
 10
93.630402951679343
 20
266.0358193518332
 30
0.0
 11
131.63040295167929
 21
266.0358193518332
 31
0.0
  0
LINE
  5
22DB7
  8
0
 10
552.81927021608885
 20
263.43109668682979
 30
0.0
 11
558.28362188638278
 21
263.43109668682979
 31
0.0
  0
LINE
  5
22DB8
  8
0
 10
579.47116459377298
 20
263.43109668682979
 30
0.0
 11
584.93551626406634
 21
263.43109668682979
 31
0.0
  0
TEXT
  5
272A8
  8
0
 62
     3
 10
0.0
 20
0.0
 30
0.0
 40
10.0
  1
CAE2-125SBF
  7
STANDARD1
  0
ENDSEC
  0
EOF
