  0
SECTION
  2
HEADER
  9
$ACADVER
  1
AC1009
  9
$INSBASE
 10
0.0
 20
0.0
 30
0.0
  9
$EXTMIN
 10
0.0
 20
-2.960436562073669
 30
0.0
  9
$EXTMAX
 10
611.37739324007748
 20
489.657033335763
 30
0.0
  9
$LIMMIN
 10
0.0
 20
0.0
  9
$LIMMAX
 10
375.0
 20
270.0
  9
$ORTHOMODE
 70
     1
  9
$REGENMODE
 70
     1
  9
$FILLMODE
 70
     1
  9
$QTEXTMODE
 70
     0
  9
$MIRRTEXT
 70
     1
  9
$DRAGMODE
 70
     2
  9
$LTSCALE
 40
10.0
  9
$OSMODE
 70
  3071
  9
$ATTMODE
 70
     1
  9
$TEXTSIZE
 40
5.0
  9
$TRACEWID
 40
0.05
  9
$TEXTSTYLE
  7
STANDARD
  9
$CLAYER
  8
0
  9
$CELTYPE
  6
BYLAYER
  9
$CECOLOR
 62
     6
  9
$DIMSCALE
 40
2.0
  9
$DIMASZ
 40
3.0
  9
$DIMEXO
 40
2.0
  9
$DIMDLI
 40
0.38
  9
$DIMRND
 40
0.0
  9
$DIMDLE
 40
0.0
  9
$DIMEXE
 40
2.0
  9
$DIMTP
 40
0.0
  9
$DIMTM
 40
0.0
  9
$DIMTXT
 40
3.2000000000000002
  9
$DIMCEN
 40
0.0
  9
$DIMTSZ
 40
0.0
  9
$DIMTOL
 70
     0
  9
$DIMLIM
 70
     0
  9
$DIMTIH
 70
     0
  9
$DIMTOH
 70
     0
  9
$DIMSE1
 70
     0
  9
$DIMSE2
 70
     0
  9
$DIMTAD
 70
     1
  9
$DIMZIN
 70
     8
  9
$DIMBLK
  1

  9
$DIMASO
 70
     0
  9
$DIMSHO
 70
     0
  9
$DIMPOST
  1

  9
$DIMAPOST
  1

  9
$DIMALT
 70
     0
  9
$DIMALTD
 70
     2
  9
$DIMALTF
 40
25.399999999999999
  9
$DIMLFAC
 40
1.0
  9
$DIMTOFL
 70
     0
  9
$DIMTVP
 40
1.6000000000000001
  9
$DIMTIX
 70
     1
  9
$DIMSOXD
 70
     0
  9
$DIMSAH
 70
     0
  9
$DIMBLK1
  1

  9
$DIMBLK2
  1

  9
$DIMSTYLE
  2
STANDARD
  9
$DIMCLRD
 70
     0
  9
$DIMCLRE
 70
     0
  9
$DIMCLRT
 70
     0
  9
$DIMTFAC
 40
1.0
  9
$DIMGAP
 40
1.1999999999999991
  9
$LUNITS
 70
     2
  9
$LUPREC
 70
     4
  9
$SKETCHINC
 40
0.1
  9
$FILLETRAD
 40
0.0
  9
$AUNITS
 70
     0
  9
$AUPREC
 70
     4
  9
$MENU
  1
ACAD
  9
$ELEVATION
 40
0.0
  9
$PELEVATION
 40
0.0
  9
$THICKNESS
 40
0.0
  9
$LIMCHECK
 70
     0
  9
$BLIPMODE
 70
     0
  9
$CHAMFERA
 40
0.0
  9
$CHAMFERB
 40
0.0
  9
$SKPOLY
 70
     0
  9
$TDCREATE
 40
2448055.7149187499
  9
$TDUPDATE
 40
2456598.5585220838
  9
$TDINDWG
 40
2.7317842476999998
  9
$TDUSRTIMER
 40
2.7317842476999998
  9
$USRTIMER
 70
     1
  9
$ANGBASE
 50
0.0
  9
$ANGDIR
 70
     0
  9
$PDMODE
 70
     0
  9
$PDSIZE
 40
0.0
  9
$PLINEWID
 40
0.0
  9
$COORDS
 70
     1
  9
$SPLFRAME
 70
     0
  9
$SPLINETYPE
 70
     6
  9
$SPLINESEGS
 70
     8
  9
$ATTDIA
 70
     0
  9
$ATTREQ
 70
     1
  9
$HANDLING
 70
     1
  9
$HANDSEED
  5
27533
  9
$SURFTAB1
 70
     6
  9
$SURFTAB2
 70
     6
  9
$SURFTYPE
 70
     6
  9
$SURFU
 70
     6
  9
$SURFV
 70
     6
  9
$UCSNAME
  2

  9
$UCSORG
 10
0.0
 20
0.0
 30
0.0
  9
$UCSXDIR
 10
1.0
 20
0.0
 30
0.0
  9
$UCSYDIR
 10
0.0
 20
1.0
 30
0.0
  9
$PUCSNAME
  2

  9
$PUCSORG
 10
0.0
 20
0.0
 30
0.0
  9
$PUCSXDIR
 10
1.0
 20
0.0
 30
0.0
  9
$PUCSYDIR
 10
0.0
 20
1.0
 30
0.0
  9
$USERI1
 70
     0
  9
$USERI2
 70
     0
  9
$USERI3
 70
     0
  9
$USERI4
 70
     0
  9
$USERI5
 70
     0
  9
$USERR1
 40
0.0
  9
$USERR2
 40
0.0
  9
$USERR3
 40
0.0
  9
$USERR4
 40
0.0
  9
$USERR5
 40
0.0
  9
$WORLDVIEW
 70
     1
  9
$SHADEDGE
 70
     3
  9
$SHADEDIF
 70
    70
  9
$TILEMODE
 70
     1
  9
$MAXACTVP
 70
    16
  9
$PLIMCHECK
 70
     0
  9
$PEXTMIN
 10
1.0000000000000000E+020
 20
1.0000000000000000E+020
 30
1.0000000000000000E+020
  9
$PEXTMAX
 10
-1.0000000000000000E+020
 20
-1.0000000000000000E+020
 30
-1.0000000000000000E+020
  9
$PLIMMIN
 10
0.0
 20
0.0
  9
$PLIMMAX
 10
12.0
 20
9.0
  9
$UNITMODE
 70
     0
  9
$VISRETAIN
 70
     0
  9
$PLINEGEN
 70
     1
  9
$PSLTSCALE
 70
     0
  0
ENDSEC
  0
SECTION
  2
TABLES
  0
TABLE
  2
VPORT
 70
     1
  0
VPORT
  2
*ACTIVE
 70
     0
 10
0.0
 20
0.0
 11
1.0
 21
1.0
 12
319.33917033655808
 22
243.35288206276891
 13
0.0
 23
0.0
 14
5.0
 24
5.0
 15
10.0
 25
10.0
 16
0.0
 26
0.0
 36
1.0
 17
0.0
 27
0.0
 37
0.0
 40
497.05647086068882
 41
1.831871345029239
 42
50.0
 43
0.0
 44
0.0
 50
0.0
 51
0.0
 71
     0
 72
   500
 73
     1
 74
     1
 75
     0
 76
     0
 77
     0
 78
     2
  0
ENDTAB
  0
TABLE
  2
LTYPE
 70
     3
  0
LTYPE
  2
CONTINUOUS
 70
     0
  3
実線
 72
    65
 73
     0
 40
0.0
  0
LTYPE
  2
CENTER
 70
     0
  3
____ _ ____ _ ____ _ ____ _ ____ _ ____ _ ____
 72
    65
 73
     4
 40
2.0
 49
1.25
 49
-0.25
 49
0.25
 49
-0.25
  0
LTYPE
  2
PHANTOM2
 70
     0
  3
___ _ _ ___ _ _ ___ _ _ ___ _ _
 72
    65
 73
     6
 40
1.25
 49
0.625
 49
-0.125
 49
0.125
 49
-0.125
 49
0.125
 49
-0.125
  0
ENDTAB
  0
TABLE
  2
LAYER
 70
     4
  0
LAYER
  2
0
 70
     0
 62
     7
  6
CONTINUOUS
  0
LAYER
  2
1
 70
     0
 62
     1
  6
CENTER
  0
LAYER
  2
DEFPOINTS
 70
     0
 62
     7
  6
CONTINUOUS
  0
LAYER
  2
3
 70
     0
 62
     3
  6
CONTINUOUS
  0
ENDTAB
  0
TABLE
  2
STYLE
 70
     3
  0
STYLE
  2
STANDARD
 70
     0
 40
0.0
 41
1.0
 50
0.0
 71
     0
 42
5.0
  3
simplex.shx
  4
bigfont.shx
  0
STYLE
  2
07500
 70
     0
 40
0.0
 41
0.75
 50
0.0
 71
     0
 42
0.2
  3
simplex.shx
  4
bigfont.shx
  0
STYLE
  2
STANDARD1
 70
     0
 40
0.0
 41
1.0
 50
0.0
 71
     0
 42
3.0
  3
txt
  4

  0
ENDTAB
  0
TABLE
  2
VIEW
 70
     2
  0
VIEW
  2
ALL
 70
     0
 40
270.0
 10
220.99159663865549
 20
135.0
 41
0.0
 11
0.0
 21
0.0
 31
1.0
 12
0.0
 22
0.0
 32
0.0
 42
0.0
 43
0.0
 44
0.0
 50
0.0
 71
     0
  0
VIEW
  2
OLE1
 70
     0
 40
168.2487151179721
 10
2892.3009567448912
 20
702.51600084347126
 41
162.5749581879237
 11
0.0
 21
0.0
 31
1.0
 12
0.0
 22
0.0
 32
0.0
 42
50.0
 43
0.0
 44
0.0
 50
0.0
 71
     0
  0
ENDTAB
  0
TABLE
  2
UCS
 70
     0
  0
ENDTAB
  0
TABLE
  2
APPID
 70
    48
  0
APPID
  2
ACAD
 70
     0
  0
APPID
  2
DCO15
 70
     0
  0
APPID
  2
GENIUS_GENOREF_13
 70
     0
  0
APPID
  2
GENIUS_GENOENT_13
 70
     0
  0
APPID
  2
GENIUS_GENBH_13
 70
     0
  0
APPID
  2
GENIUS_GENOBJ_13
 70
     0
  0
APPID
  2
GENIUS_GENODEF_13
 70
     0
  0
APPID
  2
GENIUS_GENOLIS_13
 70
     0
  0
APPID
  2
GENIUS_GENOBJ-NBEHI-BHF_13
 70
     0
  0
APPID
  2
GENIUS_GENOBJ-NBEHI-BHB_13
 70
     0
  0
APPID
  2
GENIUS_GENOBJ-F-PART_13
 70
     0
  0
APPID
  2
GENIUS_GEFSTDP_13
 70
     0
  0
APPID
  2
GENIUS_GENOBJ-N-RSSYM_13
 70
     0
  0
APPID
  2
GENIUS_GENSYMENT_13
 70
     0
  0
APPID
  2
GENIUS_GENOBJ-N-TIT_13
 70
     0
  0
APPID
  2
GENIUS_GENTITLE_13
 70
     0
  0
APPID
  2
GENIUS_GENZVEED_13
 70
     0
  0
APPID
  2
GENIUS_GENOBJ-N-LEADER_13
 70
     0
  0
APPID
  2
GENIUS_GENOBJ-N-FIL_13
 70
     0
  0
APPID
  2
GENIUS_GENOBJ-N-SEC_13
 70
     0
  0
APPID
  2
GENIUS_GENOBJ-N-CRS_13
 70
     0
  0
APPID
  2
GENIUS_GENOBJ-N-ZOO_13
 70
     0
  0
APPID
  2
GENIUS_GENZOO_13
 70
     0
  0
APPID
  2
GENIUS_GENOBJ-F-TOL_13
 70
     0
  0
APPID
  2
GENIUS_GENFIL_13
 70
     0
  0
APPID
  2
GENIUS_GENOBJ-N-CHA_13
 70
     0
  0
APPID
  2
_CALL_MAC$
 70
     0
  0
APPID
  2
ASM_BASE
 70
     0
  0
APPID
  2
ASM_EXPLO_VER_2_00
 70
     0
  0
APPID
  2
ASM_CADM_VER_12_00
 70
     0
  0
APPID
  2
ASM_BASEFORO
 70
     0
  0
APPID
  2
ASM_BASETRAVI
 70
     0
  0
APPID
  2
ASM_BASETRAVI1
 70
     0
  0
APPID
  2
ASM_GRUPPI
 70
     0
  0
APPID
  2
ASM_CADM_ALBERO
 70
     0
  0
APPID
  2
ASM_GOLE
 70
     0
  0
APPID
  2
ACAD_MLEADERVER
 70
     0
  0
APPID
  2
ACAD_DSTYLE_DIMJAG
 70
     0
  0
APPID
  2
ACAD_DSTYLE_DIMTALN
 70
     0
  0
APPID
  2
ACAD_EXEMPT_FROM_CAD_STANDARDS
 70
     0
  0
APPID
  2
ACAD_DSTYLE_DIMRADIAL_EXTENSION
 70
     0
  0
APPID
  2
ACAD_PSEXT
 70
     0
  0
APPID
  2
ACAD_DSTYLE_DIMBREAK
 70
     0
  0
APPID
  2
ACAECLAYERSTANDARD
 70
     0
  0
APPID
  2
ACCMTRANSPARENCY
 70
     0
  0
APPID
  2
GRADIENTCOLOR1ACI
 70
     0
  0
APPID
  2
GRADIENTCOLOR2ACI
 70
     0
  0
APPID
  2
ACAD_NAV_VCDISPLAY
 70
     0
  0
ENDTAB
  0
TABLE
  2
DIMSTYLE
 70
     1
  0
DIMSTYLE
  2
STANDARD
 70
     0
  3

  4

  5

  6

  7

 40
1.0
 41
0.18
 42
0.0625
 43
0.38
 44
0.18
 45
0.0
 46
0.0
 47
0.0
 48
0.0
140
0.18
141
0.09
142
0.0
143
25.399999999999999
144
1.0
145
0.0
146
1.0
147
0.09
 71
     0
 72
     0
 73
     1
 74
     1
 75
     0
 76
     0
 77
     0
 78
     0
170
     0
171
     2
172
     0
173
     0
174
     0
175
     0
176
     0
177
     0
178
     0
  0
ENDTAB
  0
ENDSEC
  0
SECTION
  2
BLOCKS
  0
BLOCK
  8
0
  2
$MODEL_SPACE
 70
     0
 10
0.0
 20
0.0
 30
0.0
  3
$MODEL_SPACE
  1

  0
ENDBLK
  5
36
  8
0
  0
BLOCK
 67
     1
  8
0
  2
$PAPER_SPACE
 70
     0
 10
0.0
 20
0.0
 30
0.0
  3
$PAPER_SPACE
  1

  0
ENDBLK
  5
34
 67
     1
  8
0
  0
ENDSEC
  0
SECTION
  2
ENTITIES
  0
LINE
  5
2295F
  8
0
 10
313.08731598404762
 20
409.17251748445949
 30
0.0
 11
313.08731598404762
 21
409.77251748445991
 31
0.0
  0
LINE
  5
22960
  8
0
 10
314.90231598404762
 20
467.77251748445991
 30
0.0
 11
314.90231598404762
 21
469.00551748446009
 31
0.0
  0
LINE
  5
22961
  8
0
 10
314.90231598404762
 20
469.00551748446009
 30
0.0
 11
315.0965969619686
 21
469.19979846238027
 31
0.0
  0
LINE
  5
22962
  8
0
 10
313.08731598404762
 20
465.27251748445991
 30
0.0
 11
313.08731598404762
 21
467.77251748445991
 31
0.0
  0
LINE
  5
22963
  8
0
 10
314.90231598404762
 20
469.00551748446009
 30
0.0
 11
317.42842753974128
 21
469.00551748446009
 31
0.0
  0
LINE
  5
22964
  8
0
 10
312.64398265071418
 20
404.47251748445979
 30
0.0
 11
320.5473533220736
 21
404.47251748445979
 31
0.0
  0
LINE
  5
22965
  8
0
 10
312.64398265071418
 20
409.17251748445949
 30
0.0
 11
322.11444017364971
 21
409.17251748445949
 31
0.0
  0
LINE
  5
22966
  8
0
 10
312.64398265071418
 20
404.47251748445979
 30
0.0
 11
312.64398265071418
 21
409.17251748445949
 31
0.0
  0
POLYLINE
  5
22967
  8
0
 66
     1
 10
0.0
 20
0.0
 30
0.0
  0
VERTEX
  5
271B7
  8
0
 10
322.03148265071422
 20
409.17251748445949
 30
0.0
  0
VERTEX
  5
271B8
  8
0
 10
321.5290448987987
 20
409.1653273508399
 30
0.0
  0
VERTEX
  5
271B9
  8
0
 10
320.52028435488643
 20
409.10855276705558
 30
0.0
  0
VERTEX
  5
271BA
  8
0
 10
319.46449446216252
 20
408.99394242830198
 30
0.0
  0
VERTEX
  5
271BB
  8
0
 10
318.90231598404762
 20
408.9130977750446
 30
0.0
  0
SEQEND
  5
271BC
  8
0
  0
POLYLINE
  5
22968
  8
0
 66
     1
 10
0.0
 20
0.0
 30
0.0
  0
VERTEX
  5
271BD
  8
0
 10
318.90231598404762
 20
404.73193719387558
 30
0.0
  0
VERTEX
  5
271BE
  8
0
 10
319.1954619174644
 20
404.68821803474202
 30
0.0
  0
VERTEX
  5
271BF
  8
0
 10
319.7598589543959
 20
404.61385214856449
 30
0.0
  0
VERTEX
  5
271C0
  8
0
 10
320.30166470085032
 20
404.55585558094299
 30
0.0
  0
VERTEX
  5
271C1
  8
0
 10
320.56639845914771
 20
404.53270453047838
 30
0.0
  0
SEQEND
  5
271C2
  8
0
  0
LINE
  5
22969
  8
0
 10
322.11270276843362
 20
409.17232920395588
 30
0.0
 11
322.03148265071422
 21
409.17251748445949
 31
0.0
  0
POLYLINE
  5
2296A
  8
0
 66
     1
 10
0.0
 20
0.0
 30
0.0
  0
VERTEX
  5
271C3
  8
0
 10
315.77314931738101
 20
409.17251748445949
 30
0.0
  0
VERTEX
  5
271C4
  8
0
 10
315.27071156546549
 20
409.1653273508399
 30
0.0
  0
VERTEX
  5
271C5
  8
0
 10
314.26195102155322
 20
409.10855276705558
 30
0.0
  0
VERTEX
  5
271C6
  8
0
 10
313.20616112882908
 20
408.99394242830198
 30
0.0
  0
VERTEX
  5
271C7
  8
0
 10
312.64398265071418
 20
408.9130977750446
 30
0.0
  0
SEQEND
  5
271C8
  8
0
  0
POLYLINE
  5
2296B
  8
0
 66
     1
 10
0.0
 20
0.0
 30
0.0
  0
VERTEX
  5
271C9
  8
0
 10
312.64398265071418
 20
404.73193719387558
 30
0.0
  0
VERTEX
  5
271CA
  8
0
 10
313.20616112882908
 20
404.6510925406173
 30
0.0
  0
VERTEX
  5
271CB
  8
0
 10
314.26195102155322
 20
404.53648220186369
 30
0.0
  0
VERTEX
  5
271CC
  8
0
 10
315.27071156546549
 20
404.47970761807937
 30
0.0
  0
VERTEX
  5
271CD
  8
0
 10
315.77314931738101
 20
404.47251748445979
 30
0.0
  0
SEQEND
  5
271CE
  8
0
  0
POLYLINE
  5
2296C
  8
0
 66
     1
 10
0.0
 20
0.0
 30
0.0
  0
VERTEX
  5
271CF
  8
0
 10
315.77314931738101
 20
404.47251748445979
 30
0.0
  0
VERTEX
  5
271D0
  8
0
 10
316.27558706929648
 20
404.47970761807937
 30
0.0
  0
VERTEX
  5
271D1
  8
0
 10
317.28434761320892
 20
404.53648220186369
 30
0.0
  0
VERTEX
  5
271D2
  8
0
 10
318.34013750593272
 20
404.6510925406173
 30
0.0
  0
VERTEX
  5
271D3
  8
0
 10
318.90231598404762
 20
404.73193719387558
 30
0.0
  0
SEQEND
  5
271D4
  8
0
  0
LINE
  5
2296D
  8
0
 10
318.90231598404762
 20
404.73193719387558
 30
0.0
 11
318.90231598404762
 21
408.9130977750446
 31
0.0
  0
POLYLINE
  5
2296E
  8
0
 66
     1
 10
0.0
 20
0.0
 30
0.0
  0
VERTEX
  5
271D5
  8
0
 10
318.90231598404762
 20
408.9130977750446
 30
0.0
  0
VERTEX
  5
271D6
  8
0
 10
318.34013750593272
 20
408.99394242830198
 30
0.0
  0
VERTEX
  5
271D7
  8
0
 10
317.28434761320892
 20
409.10855276705558
 30
0.0
  0
VERTEX
  5
271D8
  8
0
 10
316.27558706929648
 20
409.1653273508399
 30
0.0
  0
VERTEX
  5
271D9
  8
0
 10
315.77314931738101
 20
409.17251748445949
 30
0.0
  0
SEQEND
  5
271DA
  8
0
  0
LINE
  5
2296F
  8
0
 10
313.08731598404762
 20
467.77251748445991
 30
0.0
 11
319.25676755274748
 21
467.77251748445991
 31
0.0
  0
LINE
  5
22970
  8
0
 10
312.64398265071418
 20
465.27251748445991
 30
0.0
 11
320.48019006956662
 21
465.27251748445991
 31
0.0
  0
LINE
  5
22971
  8
0
 10
312.64398265071418
 20
460.31726801370218
 30
0.0
 11
312.64398265071418
 21
465.27251748445991
 31
0.0
  0
POLYLINE
  5
22972
  8
0
 66
     1
 10
0.0
 20
0.0
 30
0.0
  0
VERTEX
  5
271DB
  8
0
 10
320.50136746472299
 20
465.20697166993699
 30
0.0
  0
VERTEX
  5
271DC
  8
0
 10
320.24677211729983
 20
465.18394129165779
 30
0.0
  0
VERTEX
  5
271DD
  8
0
 10
319.72576666665873
 20
465.12707946095537
 30
0.0
  0
VERTEX
  5
271DE
  8
0
 10
319.18356150820023
 20
465.05510705057799
 30
0.0
  0
VERTEX
  5
271DF
  8
0
 10
318.90231598404762
 20
465.01309777504412
 30
0.0
  0
SEQEND
  5
271E0
  8
0
  0
POLYLINE
  5
22973
  8
0
 66
     1
 10
0.0
 20
0.0
 30
0.0
  0
VERTEX
  5
271E1
  8
0
 10
318.90231598404762
 20
460.0319371938748
 30
0.0
  0
VERTEX
  5
271E2
  8
0
 10
319.4644944621582
 20
459.95109254061748
 30
0.0
  0
VERTEX
  5
271E3
  8
0
 10
320.52028435487478
 20
459.83648220186473
 30
0.0
  0
VERTEX
  5
271E4
  8
0
 10
321.5290448987796
 20
459.77970761808041
 30
0.0
  0
VERTEX
  5
271E5
  8
0
 10
322.03148265069132
 20
459.77251748445991
 30
0.0
  0
SEQEND
  5
271E6
  8
0
  0
LINE
  5
22974
  8
0
 10
322.03148265071422
 20
459.77251748445991
 30
0.0
 11
322.31230805940299
 21
459.77476697467313
 31
0.0
  0
POLYLINE
  5
22975
  8
0
 66
     1
 10
0.0
 20
0.0
 30
0.0
  0
VERTEX
  5
271E7
  8
0
 10
315.77314931738101
 20
465.27251748445991
 30
0.0
  0
VERTEX
  5
271E8
  8
0
 10
315.27071156546549
 20
465.26532735083941
 30
0.0
  0
VERTEX
  5
271E9
  8
0
 10
314.26195102155322
 20
465.2085527670551
 30
0.0
  0
VERTEX
  5
271EA
  8
0
 10
313.20616112882908
 20
465.09394242830228
 30
0.0
  0
VERTEX
  5
271EB
  8
0
 10
312.64398265071418
 20
465.01309777504412
 30
0.0
  0
SEQEND
  5
271EC
  8
0
  0
POLYLINE
  5
22976
  8
0
 66
     1
 10
0.0
 20
0.0
 30
0.0
  0
VERTEX
  5
271ED
  8
0
 10
312.74781927338609
 20
460.01607516605958
 30
0.0
  0
VERTEX
  5
271EE
  8
0
 10
313.28849144318912
 20
459.94033262972152
 30
0.0
  0
VERTEX
  5
271EF
  8
0
 10
314.30817605442849
 20
459.83269557458152
 30
0.0
  0
VERTEX
  5
271F0
  8
0
 10
315.28580704006549
 20
459.779282915816
 30
0.0
  0
VERTEX
  5
271F1
  8
0
 10
315.7731493172962
 20
459.77251748445991
 30
0.0
  0
SEQEND
  5
271F2
  8
0
  0
POLYLINE
  5
22977
  8
0
 66
     1
 10
0.0
 20
0.0
 30
0.0
  0
VERTEX
  5
271F3
  8
0
 10
315.77314931738101
 20
459.77251748445991
 30
0.0
  0
VERTEX
  5
271F4
  8
0
 10
316.27558706929648
 20
459.7797076180795
 30
0.0
  0
VERTEX
  5
271F5
  8
0
 10
317.28434761320892
 20
459.83648220186387
 30
0.0
  0
VERTEX
  5
271F6
  8
0
 10
318.34013750593272
 20
459.95109254061748
 30
0.0
  0
VERTEX
  5
271F7
  8
0
 10
318.90231598404762
 20
460.0319371938748
 30
0.0
  0
SEQEND
  5
271F8
  8
0
  0
LINE
  5
22978
  8
0
 10
318.90231598404762
 20
460.0319371938748
 30
0.0
 11
318.90231598404762
 21
465.01309777504412
 31
0.0
  0
POLYLINE
  5
22979
  8
0
 66
     1
 10
0.0
 20
0.0
 30
0.0
  0
VERTEX
  5
271F9
  8
0
 10
318.90231598404762
 20
465.01309777504412
 30
0.0
  0
VERTEX
  5
271FA
  8
0
 10
318.34013750593272
 20
465.09394242830228
 30
0.0
  0
VERTEX
  5
271FB
  8
0
 10
317.28434761320892
 20
465.2085527670551
 30
0.0
  0
VERTEX
  5
271FC
  8
0
 10
316.27558706929648
 20
465.26532735083941
 30
0.0
  0
VERTEX
  5
271FD
  8
0
 10
315.77314931738101
 20
465.27251748445991
 30
0.0
  0
SEQEND
  5
271FE
  8
0
  0
LINE
  5
2297A
  8
1
 10
388.67731598404771
 20
457.27251748445991
 30
0.0
 11
398.12731598404753
 21
457.27251748445991
 31
0.0
  0
LINE
  5
2297B
  8
1
 10
393.40231598404762
 20
461.99751748445942
 30
0.0
 11
393.40231598404762
 21
452.54751748445949
 31
0.0
  0
LINE
  5
2297C
  8
1
 10
391.17731598404771
 20
464.77251748445991
 30
0.0
 11
400.62731598404753
 21
464.77251748445991
 31
0.0
  0
LINE
  5
2297D
  8
1
 10
395.90231598404762
 20
469.49751748445942
 30
0.0
 11
395.90231598404762
 21
460.0475174844596
 31
0.0
  0
LINE
  5
2297E
  8
1
 10
388.67731598404771
 20
412.27251748446002
 30
0.0
 11
398.12731598404753
 21
412.27251748446002
 31
0.0
  0
LINE
  5
2297F
  8
1
 10
393.40231598404762
 20
416.99751748445931
 30
0.0
 11
393.40231598404762
 21
407.5475174844596
 31
0.0
  0
LINE
  5
22980
  8
1
 10
391.17731598404771
 20
404.77251748445991
 30
0.0
 11
400.62731598404753
 21
404.77251748445991
 31
0.0
  0
LINE
  5
22981
  8
1
 10
395.90231598404762
 20
409.49751748445942
 30
0.0
 11
395.90231598404762
 21
400.0475174844596
 31
0.0
  0
LINE
  5
22982
  8
1
 10
311.17731598404771
 20
464.77251748445991
 30
0.0
 11
320.62731598404753
 21
464.77251748445991
 31
0.0
  0
LINE
  5
22983
  8
1
 10
315.90231598404762
 20
469.49751748445942
 30
0.0
 11
315.90231598404762
 21
460.0475174844596
 31
0.0
  0
LINE
  5
22984
  8
1
 10
313.67731598404771
 20
457.27251748445991
 30
0.0
 11
323.12731598404753
 21
457.27251748445991
 31
0.0
  0
LINE
  5
22985
  8
1
 10
318.40231598404762
 20
461.99751748445942
 30
0.0
 11
318.40231598404762
 21
452.54751748445949
 31
0.0
  0
LINE
  5
22986
  8
1
 10
311.17731598404771
 20
404.77251748445991
 30
0.0
 11
320.62731598404753
 21
404.77251748445991
 31
0.0
  0
LINE
  5
22987
  8
1
 10
315.90231598404762
 20
409.49751748445942
 30
0.0
 11
315.90231598404762
 21
400.0475174844596
 31
0.0
  0
LINE
  5
22988
  8
1
 10
313.67731598404771
 20
412.27251748446002
 30
0.0
 11
323.12731598404753
 21
412.27251748446002
 31
0.0
  0
LINE
  5
22989
  8
1
 10
318.40231598404762
 20
416.99751748445931
 30
0.0
 11
318.40231598404762
 21
407.5475174844596
 31
0.0
  0
LINE
  5
2298A
  8
0
 10
304.20231598404757
 20
409.77251748445991
 30
0.0
 11
304.20231598404757
 21
412.27251742858061
 31
0.0
  0
LINE
  5
2298B
  8
0
 10
304.20231598404757
 20
457.27251754033932
 30
0.0
 11
304.20231598404757
 21
459.77251748445991
 31
0.0
  0
LINE
  5
2298C
  8
0
 10
305.90231598404762
 20
401.27251748445991
 30
0.0
 11
305.90231598404762
 21
468.27251748445991
 31
0.0
  0
ARC
  5
2298D
  8
0
 10
314.90231598404762
 20
401.27251748445991
 30
0.0
 40
8.9999999999999911
 50
180.0
 51
270.0
  0
LINE
  5
2298E
  8
0
 10
396.90231598404762
 20
392.27251748446002
 30
0.0
 11
314.90231598404762
 21
392.27251748446002
 31
0.0
  0
ARC
  5
2298F
  8
0
 10
396.90231598404762
 20
401.27251748445991
 30
0.0
 40
9.0000000000000142
 50
270.0
 51
0.0
  0
LINE
  5
22990
  8
0
 10
405.90231598404762
 20
468.27251748445991
 30
0.0
 11
405.90231598404762
 21
401.27251748445991
 31
0.0
  0
ARC
  5
22991
  8
0
 10
396.90231598404762
 20
468.27251748445991
 30
0.0
 40
9.0
 50
0.0
 51
90.0
  0
LINE
  5
22992
  8
0
 10
314.90231598404762
 20
477.27251748445991
 30
0.0
 11
396.90231598404762
 21
477.27251748445991
 31
0.0
  0
ARC
  5
22993
  8
0
 10
314.90231598404762
 20
468.27251748445991
 30
0.0
 40
8.9999999999999947
 50
90.0
 51
180.0
  0
LINE
  5
22994
  8
0
 10
400.1713908252749
 20
463.34949253738432
 30
0.0
 11
397.67139082527501
 21
455.84949253738421
 31
0.0
  0
ARC
  5
22995
  8
0
 10
393.40231598404762
 20
457.27251748445991
 30
0.0
 40
4.499999999999968
 50
161.56505117713979
 51
341.56505117713982
  0
LINE
  5
22996
  8
0
 10
389.13324114282022
 20
458.6955424315355
 30
0.0
 11
391.63324114282022
 21
466.19554243153561
 31
0.0
  0
ARC
  5
22997
  8
0
 10
395.90231598404762
 20
464.77251748445991
 30
0.0
 40
4.499999999999968
 50
341.56505117713982
 51
161.56505117713979
  0
LINE
  5
22998
  8
0
 10
391.63324114282022
 20
403.34949253738432
 30
0.0
 11
389.13324114282022
 21
410.84949253738432
 31
0.0
  0
ARC
  5
22999
  8
0
 10
393.40231598404762
 20
412.27251748446002
 30
0.0
 40
4.4999999999999938
 50
18.434948822860211
 51
198.43494882286021
  0
LINE
  5
2299A
  8
0
 10
397.67139082527501
 20
413.69554243153561
 30
0.0
 11
400.1713908252749
 21
406.19554243153561
 31
0.0
  0
ARC
  5
2299B
  8
0
 10
395.90231598404762
 20
404.77251748445991
 30
0.0
 40
4.4999999999999929
 50
198.43494882286021
 51
18.434948822860211
  0
LINE
  5
2299C
  8
0
 10
314.13324114282022
 20
455.84949253738421
 30
0.0
 11
311.63324114282022
 21
463.34949253738432
 31
0.0
  0
ARC
  5
2299D
  8
0
 10
315.90231598404762
 20
464.77251748445991
 30
0.0
 40
4.4999999999999956
 50
18.434948822860211
 51
198.43494882286021
  0
LINE
  5
2299E
  8
0
 10
320.17139082527501
 20
466.19554243153561
 30
0.0
 11
322.67139082527501
 21
458.6955424315355
 31
0.0
  0
ARC
  5
2299F
  8
0
 10
318.40231598404762
 20
457.27251748445991
 30
0.0
 40
4.4999999999999973
 50
198.43494882286021
 51
18.434948822860211
  0
LINE
  5
229A0
  8
0
 10
322.67139082527501
 20
410.84949253738432
 30
0.0
 11
320.17139082527501
 21
403.34949253738432
 31
0.0
  0
ARC
  5
229A1
  8
0
 10
315.90231598404762
 20
404.77251748445991
 30
0.0
 40
4.5
 50
161.56505117713979
 51
341.56505117713982
  0
LINE
  5
229A2
  8
0
 10
311.63324114282022
 20
406.19554243153561
 30
0.0
 11
314.13324114282022
 21
413.69554243153561
 31
0.0
  0
ARC
  5
229A3
  8
0
 10
318.40231598404762
 20
412.27251748446002
 30
0.0
 40
4.4999999999999956
 50
341.56505117713982
 51
161.56505117713979
  0
LINE
  5
229A4
  8
0
 10
322.31239914096682
 20
409.77251748445991
 30
0.0
 11
312.82556616046168
 21
409.77251748445991
 31
0.0
  0
LINE
  5
229A5
  8
0
 10
322.31239914096682
 20
459.77251748445991
 30
0.0
 11
312.82556616046168
 21
459.77251748445991
 31
0.0
  0
LINE
  5
229A6
  8
0
 10
304.20231598404757
 20
409.77251748445991
 30
0.0
 11
305.90231598404762
 21
409.77251748445991
 31
0.0
  0
LINE
  5
229A7
  8
0
 10
305.90231598404762
 20
459.77251748445991
 30
0.0
 11
304.20231598404757
 21
459.77251748445991
 31
0.0
  0
LINE
  5
229AD
  8
0
 10
543.87739324007737
 20
196.4286887314201
 30
0.0
 11
543.27739324007757
 21
196.4286887314201
 31
0.0
  0
LINE
  5
229AE
  8
0
 10
603.11039324007743
 20
198.2436887314197
 30
0.0
 11
601.87739324007737
 21
198.2436887314197
 31
0.0
  0
LINE
  5
229AF
  8
0
 10
601.87739324007737
 20
206.24368873141981
 30
0.0
 11
603.11039324007743
 21
206.24368873141981
 31
0.0
  0
LINE
  5
229B0
  8
0
 10
603.87739324007748
 20
199.01068873141961
 30
0.0
 11
603.11039324007743
 21
198.2436887314197
 31
0.0
  0
LINE
  5
229B1
  8
0
 10
603.11039324007743
 20
206.24368873141981
 30
0.0
 11
603.87739324007748
 21
205.4766887314199
 31
0.0
  0
LINE
  5
229B2
  8
0
 10
538.57739324007753
 20
208.50202206475299
 30
0.0
 11
538.83681294949315
 21
209.47018960077639
 31
0.0
  0
LINE
  5
229B3
  8
0
 10
538.83681294949315
 20
195.01718786206311
 30
0.0
 11
538.57739324007753
 21
195.98535539808651
 31
0.0
  0
LINE
  5
229B4
  8
0
 10
543.27739324007757
 20
195.98535539808651
 30
0.0
 11
543.01797353066195
 21
195.01718786206311
 31
0.0
  0
LINE
  5
229B5
  8
0
 10
601.87739324007737
 20
196.4286887314201
 30
0.0
 11
599.37739324007748
 21
196.4286887314201
 31
0.0
  0
LINE
  5
229B6
  8
0
 10
599.37739324007748
 20
208.05868873142029
 30
0.0
 11
601.87739324007737
 21
208.05868873142029
 31
0.0
  0
LINE
  5
229B7
  8
0
 10
594.13681294949288
 20
195.01718786206311
 30
0.0
 11
593.87739324007737
 21
195.98535539808651
 31
0.0
  0
LINE
  5
229B8
  8
0
 10
599.11797353066186
 20
209.47018960077639
 30
0.0
 11
599.37739324007748
 21
208.50202206475299
 31
0.0
  0
LINE
  5
229B9
  8
0
 10
599.37739324007748
 20
195.98535539808651
 30
0.0
 11
599.11797353066186
 21
195.01718786206311
 31
0.0
  0
LINE
  5
229BA
  8
0
 10
591.37739324007748
 20
194.7436887314197
 30
0.0
 11
587.62739324007737
 21
194.7436887314197
 31
0.0
  0
LINE
  5
229BB
  8
0
 10
550.12739324007737
 20
194.7436887314197
 30
0.0
 11
546.37739324007748
 21
194.7436887314197
 31
0.0
  0
LINE
  5
229BC
  8
0
 10
546.37739324007748
 20
209.74368873141981
 30
0.0
 11
550.12739324007737
 21
209.74368873141981
 31
0.0
  0
LINE
  5
229BD
  8
0
 10
587.62739324007737
 20
209.74368873141981
 30
0.0
 11
591.37739324007748
 21
209.74368873141981
 31
0.0
  0
LINE
  5
229BE
  8
0
 10
603.11039324007743
 20
206.24368873141981
 30
0.0
 11
603.11039324007743
 21
198.2436887314197
 31
0.0
  0
LINE
  5
229BF
  8
0
 10
603.87739324007748
 20
205.4766887314199
 30
0.0
 11
603.87739324007748
 21
199.01068873141961
 31
0.0
  0
LINE
  5
229C0
  8
0
 10
538.57739324007753
 20
208.50202206475299
 30
0.0
 11
538.57739324007753
 21
195.98535539808651
 31
0.0
  0
LINE
  5
229C1
  8
0
 10
543.27739324007757
 20
200.8925148924036
 30
0.0
 11
543.27739324007757
 21
195.98535539808651
 31
0.0
  0
POLYLINE
  5
229C2
  8
0
 66
     1
 10
0.0
 20
0.0
 30
0.0
  0
VERTEX
  5
271FF
  8
0
 10
538.83681294949315
 20
198.63043829674189
 30
0.0
  0
VERTEX
  5
27200
  8
0
 10
538.75596829623476
 20
198.3058644010689
 30
0.0
  0
VERTEX
  5
27201
  8
0
 10
538.64135795748155
 20
197.69630382229749
 30
0.0
  0
VERTEX
  5
27202
  8
0
 10
538.58458337369734
 20
197.11389565072199
 30
0.0
  0
VERTEX
  5
27203
  8
0
 10
538.57739324007753
 20
196.8238130794025
 30
0.0
  0
SEQEND
  5
27204
  8
0
  0
POLYLINE
  5
229C3
  8
0
 66
     1
 10
0.0
 20
0.0
 30
0.0
  0
VERTEX
  5
27205
  8
0
 10
538.57739324007753
 20
196.8238130794025
 30
0.0
  0
VERTEX
  5
27206
  8
0
 10
538.58458337369734
 20
196.5337305080829
 30
0.0
  0
VERTEX
  5
27207
  8
0
 10
538.64135795748155
 20
195.95132233650651
 30
0.0
  0
VERTEX
  5
27208
  8
0
 10
538.75596829623476
 20
195.34176175773521
 30
0.0
  0
VERTEX
  5
27209
  8
0
 10
538.83681294949315
 20
195.01718786206311
 30
0.0
  0
SEQEND
  5
2720A
  8
0
  0
POLYLINE
  5
229C4
  8
0
 66
     1
 10
0.0
 20
0.0
 30
0.0
  0
VERTEX
  5
2720B
  8
0
 10
543.01797353066195
 20
195.01718786206311
 30
0.0
  0
VERTEX
  5
2720C
  8
0
 10
543.09881818391989
 20
195.34176175773521
 30
0.0
  0
VERTEX
  5
2720D
  8
0
 10
543.21342852267321
 20
195.95132233650651
 30
0.0
  0
VERTEX
  5
2720E
  8
0
 10
543.27020310645753
 20
196.5337305080829
 30
0.0
  0
VERTEX
  5
2720F
  8
0
 10
543.27739324007757
 20
196.8238130794025
 30
0.0
  0
SEQEND
  5
27210
  8
0
  0
POLYLINE
  5
229C5
  8
0
 66
     1
 10
0.0
 20
0.0
 30
0.0
  0
VERTEX
  5
27211
  8
0
 10
543.27739324007757
 20
196.8238130794025
 30
0.0
  0
VERTEX
  5
27212
  8
0
 10
543.27020310645753
 20
197.11389565072199
 30
0.0
  0
VERTEX
  5
27213
  8
0
 10
543.21342852267321
 20
197.69630382229749
 30
0.0
  0
VERTEX
  5
27214
  8
0
 10
543.09881818391989
 20
198.3058644010689
 30
0.0
  0
VERTEX
  5
27215
  8
0
 10
543.01797353066195
 20
198.63043829674189
 30
0.0
  0
SEQEND
  5
27216
  8
0
  0
LINE
  5
229C6
  8
0
 10
538.83681294949315
 20
195.01718786206311
 30
0.0
 11
543.01797353066195
 21
195.01718786206311
 31
0.0
  0
POLYLINE
  5
229C7
  8
0
 66
     1
 10
0.0
 20
0.0
 30
0.0
  0
VERTEX
  5
27217
  8
0
 10
538.83681294949315
 20
209.47018960077639
 30
0.0
  0
VERTEX
  5
27218
  8
0
 10
538.75596829623476
 20
209.14561570510429
 30
0.0
  0
VERTEX
  5
27219
  8
0
 10
538.64135795748155
 20
208.53605512633291
 30
0.0
  0
VERTEX
  5
2721A
  8
0
 10
538.58458337369734
 20
207.95364695475749
 30
0.0
  0
VERTEX
  5
2721B
  8
0
 10
538.57739324007753
 20
207.66356438343789
 30
0.0
  0
SEQEND
  5
2721C
  8
0
  0
POLYLINE
  5
229C8
  8
0
 66
     1
 10
0.0
 20
0.0
 30
0.0
  0
VERTEX
  5
2721D
  8
0
 10
538.57739324007753
 20
207.66356438343789
 30
0.0
  0
VERTEX
  5
2721E
  8
0
 10
538.58458337369734
 20
207.3734818121184
 30
0.0
  0
VERTEX
  5
2721F
  8
0
 10
538.64135795748155
 20
206.79107364054201
 30
0.0
  0
VERTEX
  5
27220
  8
0
 10
538.75596829623476
 20
206.1815130617706
 30
0.0
  0
VERTEX
  5
27221
  8
0
 10
538.83681294949315
 20
205.8569391660985
 30
0.0
  0
SEQEND
  5
27222
  8
0
  0
LINE
  5
229C9
  8
0
 10
538.83681294949315
 20
209.47018960077639
 30
0.0
 11
539.1909260819217
 21
209.47018960077639
 31
0.0
  0
LINE
  5
229CA
  8
0
 10
538.83681294949315
 20
205.8569391660985
 30
0.0
 11
540.66150591193946
 21
205.8569391660985
 31
0.0
  0
POLYLINE
  5
229CB
  8
0
 66
     1
 10
0.0
 20
0.0
 30
0.0
  0
VERTEX
  5
27223
  8
0
 10
538.83681294949315
 20
205.8569391660985
 30
0.0
  0
VERTEX
  5
27224
  8
0
 10
538.75596829623476
 20
205.20779137475441
 30
0.0
  0
VERTEX
  5
27225
  8
0
 10
538.64135795748155
 20
203.9886702172098
 30
0.0
  0
VERTEX
  5
27226
  8
0
 10
538.58458337369734
 20
202.8238538740589
 30
0.0
  0
VERTEX
  5
27227
  8
0
 10
538.57739324007753
 20
202.24368873141981
 30
0.0
  0
SEQEND
  5
27228
  8
0
  0
POLYLINE
  5
229CC
  8
0
 66
     1
 10
0.0
 20
0.0
 30
0.0
  0
VERTEX
  5
27229
  8
0
 10
538.57739324007753
 20
202.24368873141981
 30
0.0
  0
VERTEX
  5
2722A
  8
0
 10
538.58458337369734
 20
201.66352358878069
 30
0.0
  0
VERTEX
  5
2722B
  8
0
 10
538.64135795748155
 20
200.4987072456297
 30
0.0
  0
VERTEX
  5
2722C
  8
0
 10
538.75596829623476
 20
199.27958608808601
 30
0.0
  0
VERTEX
  5
2722D
  8
0
 10
538.83681294949315
 20
198.63043829674189
 30
0.0
  0
SEQEND
  5
2722E
  8
0
  0
LINE
  5
229CD
  8
0
 10
538.83681294949315
 20
198.63043829674189
 30
0.0
 11
543.01797353066195
 21
198.63043829674189
 31
0.0
  0
POLYLINE
  5
229CE
  8
0
 66
     1
 10
0.0
 20
0.0
 30
0.0
  0
VERTEX
  5
2722F
  8
0
 10
543.01797353066195
 20
198.63043829674189
 30
0.0
  0
VERTEX
  5
27230
  8
0
 10
543.0705394222216
 20
199.04076890591659
 30
0.0
  0
VERTEX
  5
27231
  8
0
 10
543.15656911453289
 20
199.825555566812
 30
0.0
  0
VERTEX
  5
27232
  8
0
 10
543.21886853194417
 20
200.57588743752419
 30
0.0
  0
VERTEX
  5
27233
  8
0
 10
543.24154714135102
 20
200.94277756100021
 30
0.0
  0
SEQEND
  5
27234
  8
0
  0
LINE
  5
229CF
  8
0
 10
601.87739324007737
 20
208.05868873142029
 30
0.0
 11
601.87739324007737
 21
196.4286887314201
 31
0.0
  0
LINE
  5
229D0
  8
0
 10
599.37739324007748
 20
208.50202206475299
 30
0.0
 11
599.37739324007748
 21
195.98535539808651
 31
0.0
  0
POLYLINE
  5
229D1
  8
0
 66
     1
 10
0.0
 20
0.0
 30
0.0
  0
VERTEX
  5
27235
  8
0
 10
594.13681294949288
 20
198.63043829674189
 30
0.0
  0
VERTEX
  5
27236
  8
0
 10
594.05596829623482
 20
198.3058644010689
 30
0.0
  0
VERTEX
  5
27237
  8
0
 10
593.94135795748184
 20
197.69630382229749
 30
0.0
  0
VERTEX
  5
27238
  8
0
 10
593.8845833736973
 20
197.11389565072199
 30
0.0
  0
VERTEX
  5
27239
  8
0
 10
593.87739324007737
 20
196.8238130794025
 30
0.0
  0
SEQEND
  5
2723A
  8
0
  0
POLYLINE
  5
229D2
  8
0
 66
     1
 10
0.0
 20
0.0
 30
0.0
  0
VERTEX
  5
2723B
  8
0
 10
593.87739324007737
 20
196.8238130794025
 30
0.0
  0
VERTEX
  5
2723C
  8
0
 10
593.8845833736973
 20
196.5337305080829
 30
0.0
  0
VERTEX
  5
2723D
  8
0
 10
593.94135795748184
 20
195.95132233650651
 30
0.0
  0
VERTEX
  5
2723E
  8
0
 10
594.05596829623482
 20
195.34176175773521
 30
0.0
  0
VERTEX
  5
2723F
  8
0
 10
594.13681294949288
 20
195.01718786206311
 30
0.0
  0
SEQEND
  5
27240
  8
0
  0
POLYLINE
  5
229D3
  8
0
 66
     1
 10
0.0
 20
0.0
 30
0.0
  0
VERTEX
  5
27241
  8
0
 10
599.11797353066197
 20
195.01718786206311
 30
0.0
  0
VERTEX
  5
27242
  8
0
 10
599.19881818392014
 20
195.34176175773521
 30
0.0
  0
VERTEX
  5
27243
  8
0
 10
599.31342852267312
 20
195.95132233650651
 30
0.0
  0
VERTEX
  5
27244
  8
0
 10
599.37020310645755
 20
196.5337305080829
 30
0.0
  0
VERTEX
  5
27245
  8
0
 10
599.37739324007748
 20
196.8238130794025
 30
0.0
  0
SEQEND
  5
27246
  8
0
  0
POLYLINE
  5
229D4
  8
0
 66
     1
 10
0.0
 20
0.0
 30
0.0
  0
VERTEX
  5
27247
  8
0
 10
599.37739324007748
 20
196.8238130794025
 30
0.0
  0
VERTEX
  5
27248
  8
0
 10
599.37020310645744
 20
197.11389565072199
 30
0.0
  0
VERTEX
  5
27249
  8
0
 10
599.31342852267312
 20
197.69630382229749
 30
0.0
  0
VERTEX
  5
2724A
  8
0
 10
599.19881818392014
 20
198.3058644010689
 30
0.0
  0
VERTEX
  5
2724B
  8
0
 10
599.11797353066197
 20
198.63043829674189
 30
0.0
  0
SEQEND
  5
2724C
  8
0
  0
LINE
  5
229D5
  8
0
 10
594.13681294949288
 20
195.01718786206311
 30
0.0
 11
599.11797353066197
 21
195.01718786206311
 31
0.0
  0
POLYLINE
  5
229D6
  8
0
 66
     1
 10
0.0
 20
0.0
 30
0.0
  0
VERTEX
  5
2724D
  8
0
 10
599.37739324007748
 20
207.66356438343789
 30
0.0
  0
VERTEX
  5
2724E
  8
0
 10
599.37020310645744
 20
207.95364695475749
 30
0.0
  0
VERTEX
  5
2724F
  8
0
 10
599.31342852267312
 20
208.53605512633291
 30
0.0
  0
VERTEX
  5
27250
  8
0
 10
599.19881818392014
 20
209.14561570510429
 30
0.0
  0
VERTEX
  5
27251
  8
0
 10
599.11797353066197
 20
209.47018960077639
 30
0.0
  0
SEQEND
  5
27252
  8
0
  0
POLYLINE
  5
229D7
  8
0
 66
     1
 10
0.0
 20
0.0
 30
0.0
  0
VERTEX
  5
27253
  8
0
 10
599.11797353066197
 20
205.8569391660985
 30
0.0
  0
VERTEX
  5
27254
  8
0
 10
599.19881818392014
 20
206.1815130617706
 30
0.0
  0
VERTEX
  5
27255
  8
0
 10
599.31342852267312
 20
206.79107364054201
 30
0.0
  0
VERTEX
  5
27256
  8
0
 10
599.37020310645744
 20
207.3734818121184
 30
0.0
  0
VERTEX
  5
27257
  8
0
 10
599.37739324007748
 20
207.66356438343789
 30
0.0
  0
SEQEND
  5
27258
  8
0
  0
LINE
  5
229D8
  8
0
 10
598.56386039823315
 20
209.47018960077639
 30
0.0
 11
599.11797353066197
 21
209.47018960077639
 31
0.0
  0
POLYLINE
  5
229D9
  8
0
 66
     1
 10
0.0
 20
0.0
 30
0.0
  0
VERTEX
  5
27259
  8
0
 10
599.37739324007748
 20
202.24368873141981
 30
0.0
  0
VERTEX
  5
2725A
  8
0
 10
599.37020310645744
 20
202.8238538740589
 30
0.0
  0
VERTEX
  5
2725B
  8
0
 10
599.31342852267312
 20
203.9886702172098
 30
0.0
  0
VERTEX
  5
2725C
  8
0
 10
599.19881818392014
 20
205.20779137475441
 30
0.0
  0
VERTEX
  5
2725D
  8
0
 10
599.11797353066197
 20
205.8569391660985
 30
0.0
  0
SEQEND
  5
2725E
  8
0
  0
LINE
  5
229DA
  8
0
 10
597.0932805682155
 20
205.8569391660985
 30
0.0
 11
599.11797353066197
 21
205.8569391660985
 31
0.0
  0
POLYLINE
  5
229DB
  8
0
 66
     1
 10
0.0
 20
0.0
 30
0.0
  0
VERTEX
  5
2725F
  8
0
 10
593.97376839867331
 20
200.09163749867821
 30
0.0
  0
VERTEX
  5
27260
  8
0
 10
593.99513338732731
 20
199.8576754720425
 30
0.0
  0
VERTEX
  5
27261
  8
0
 10
594.04464715197525
 20
199.3796827418837
 30
0.0
  0
VERTEX
  5
27262
  8
0
 10
594.1036061117768
 20
198.88514999458309
 30
0.0
  0
VERTEX
  5
27263
  8
0
 10
594.13681294949288
 20
198.63043829674189
 30
0.0
  0
SEQEND
  5
27264
  8
0
  0
LINE
  5
229DC
  8
0
 10
594.13681294949288
 20
198.63043829674189
 30
0.0
 11
599.11797353066197
 21
198.63043829674189
 31
0.0
  0
POLYLINE
  5
229DD
  8
0
 66
     1
 10
0.0
 20
0.0
 30
0.0
  0
VERTEX
  5
27265
  8
0
 10
599.11797353066197
 20
198.63043829674189
 30
0.0
  0
VERTEX
  5
27266
  8
0
 10
599.19881818392014
 20
199.27958608808601
 30
0.0
  0
VERTEX
  5
27267
  8
0
 10
599.31342852267312
 20
200.4987072456297
 30
0.0
  0
VERTEX
  5
27268
  8
0
 10
599.37020310645744
 20
201.66352358878069
 30
0.0
  0
VERTEX
  5
27269
  8
0
 10
599.37739324007748
 20
202.24368873141981
 30
0.0
  0
SEQEND
  5
2726A
  8
0
  0
LINE
  5
229DE
  8
0
 10
534.07739324007753
 20
292.44368873141963
 30
0.0
 11
534.07739324007753
 21
293.24368873141981
 31
0.0
  0
LINE
  5
229DF
  8
0
 10
603.67739324007744
 20
293.24368873141981
 30
0.0
 11
603.67739324007744
 21
292.44368873141963
 31
0.0
  0
LINE
  5
229E0
  8
0
 10
534.37617257609941
 20
283.94368873141963
 30
0.0
 11
532.87739324007748
 21
292.44368873141963
 31
0.0
  0
LINE
  5
229E1
  8
0
 10
604.87739324007737
 20
292.44368873141963
 30
0.0
 11
603.37861390405556
 21
283.94368873141963
 31
0.0
  0
LINE
  5
229E2
  8
0
 10
535.87739324007737
 20
228.7493860438444
 30
0.0
 11
535.87739324007737
 21
283.94368873141963
 31
0.0
  0
LINE
  5
229E3
  8
0
 10
601.87739324007737
 20
283.94368873141963
 30
0.0
 11
601.87739324007737
 21
228.7493860438444
 31
0.0
  0
LINE
  5
229E4
  8
0
 10
526.37739324007737
 20
295.74368873141981
 30
0.0
 11
526.37739324007737
 21
293.24368873141981
 31
0.0
  0
LINE
  5
229E5
  8
0
 10
611.37739324007748
 20
295.74368873141981
 30
0.0
 11
526.37739324007737
 21
295.74368873141981
 31
0.0
  0
LINE
  5
229E6
  8
0
 10
611.37739324007748
 20
293.24368873141981
 30
0.0
 11
526.37739324007737
 21
293.24368873141981
 31
0.0
  0
LINE
  5
229E7
  8
0
 10
611.37739324007748
 20
295.74368873141981
 30
0.0
 11
611.37739324007748
 21
293.24368873141981
 31
0.0
  0
LINE
  5
229E8
  8
0
 10
604.87739324007737
 20
292.44368873141963
 30
0.0
 11
532.87739324007748
 21
292.44368873141963
 31
0.0
  0
LINE
  5
229E9
  8
0
 10
603.37861390405556
 20
283.94368873141963
 30
0.0
 11
534.37617257609941
 21
283.94368873141963
 31
0.0
  0
LINE
  5
229EA
  8
0
 10
543.87739324007737
 20
199.9347939371637
 30
0.0
 11
543.87739324007737
 21
192.2436887314197
 31
0.0
  0
LINE
  5
229EB
  8
0
 10
546.37739324007748
 20
192.2436887314197
 30
0.0
 11
543.87739324007737
 21
192.2436887314197
 31
0.0
  0
LINE
  5
229EC
  8
0
 10
593.87739324007737
 20
192.2436887314197
 30
0.0
 11
593.87739324007737
 21
199.9347939371637
 31
0.0
  0
LINE
  5
229ED
  8
0
 10
593.87739324007737
 20
192.2436887314197
 30
0.0
 11
591.37739324007748
 21
192.2436887314197
 31
0.0
  0
POLYLINE
  5
229EE
  8
0
 66
     1
 10
0.0
 20
0.0
 30
0.0
  0
VERTEX
  5
2726B
  8
0
 10
591.37739324007748
 20
201.2047895812857
 30
0.0
  0
VERTEX
  5
2726C
  8
0
 10
591.79650760956793
 20
201.83020768141799
 30
0.0
  0
VERTEX
  5
2726D
  8
0
 10
592.60542283314805
 20
203.1149997899511
 30
0.0
  0
VERTEX
  5
2726E
  8
0
 10
593.37411767196625
 20
204.44324366822369
 30
0.0
  0
VERTEX
  5
2726F
  8
0
 10
593.74297254080659
 20
205.12295921634089
 30
0.0
  0
VERTEX
  5
27270
  8
0
 10
594.10128914373865
 20
205.81268786591681
 30
0.0
  0
VERTEX
  5
27271
  8
0
 10
594.78570465069492
 20
207.2210110957794
 30
0.0
  0
VERTEX
  5
27272
  8
0
 10
595.42620406890092
 20
208.6658261683524
 30
0.0
  0
VERTEX
  5
27273
  8
0
 10
596.02170171473779
 20
210.14468403838509
 30
0.0
  0
VERTEX
  5
27274
  8
0
 10
596.57118818519825
 20
211.65507795611759
 30
0.0
  0
VERTEX
  5
27275
  8
0
 10
597.07373206888155
 20
213.19444771635881
 30
0.0
  0
VERTEX
  5
27276
  8
0
 10
597.3071311917364
 20
213.97418492281119
 30
0.0
  0
VERTEX
  5
27277
  8
0
 10
597.52848152479214
 20
214.76018399818619
 30
0.0
  0
VERTEX
  5
27278
  8
0
 10
597.93466572625755
 20
216.3496327878984
 30
0.0
  0
VERTEX
  5
27279
  8
0
 10
598.29159616752565
 20
217.96009987771589
 30
0.0
  0
VERTEX
  5
2727A
  8
0
 10
598.598667830821
 20
219.5888554326248
 30
0.0
  0
VERTEX
  5
2727B
  8
0
 10
598.85536021188523
 20
221.23313861760471
 30
0.0
  0
VERTEX
  5
2727C
  8
0
 10
599.06123820226162
 20
222.89016227739921
 30
0.0
  0
VERTEX
  5
2727D
  8
0
 10
599.14500936445575
 20
223.7225747642533
 30
0.0
  0
VERTEX
  5
2727E
  8
0
 10
599.21595282682983
 20
224.5571176609119
 30
0.0
  0
VERTEX
  5
2727F
  8
0
 10
599.31924183533795
 20
226.2311791821985
 30
0.0
  0
VERTEX
  5
27280
  8
0
 10
599.37093014693335
 20
227.9095092099997
 30
0.0
  0
VERTEX
  5
27281
  8
0
 10
599.37739324007748
 20
228.7493860438444
 30
0.0
  0
SEQEND
  5
27282
  8
0
  0
POLYLINE
  5
229EF
  8
0
 66
     1
 10
0.0
 20
0.0
 30
0.0
  0
VERTEX
  5
27283
  8
0
 10
599.37739324007748
 20
228.7493860438444
 30
0.0
  0
VERTEX
  5
27284
  8
0
 10
599.37416731385429
 20
229.3427677253321
 30
0.0
  0
VERTEX
  5
27285
  8
0
 10
599.34836399832409
 20
230.52902902816459
 30
0.0
  0
VERTEX
  5
27286
  8
0
 10
599.29677919944493
 20
231.71378457536051
 30
0.0
  0
VERTEX
  5
27287
  8
0
 10
599.26133153187561
 20
232.30528436091569
 30
0.0
  0
VERTEX
  5
27288
  8
0
 10
599.21945656310641
 20
232.89603194544631
 30
0.0
  0
VERTEX
  5
27289
  8
0
 10
599.11646151197874
 20
234.0747708391163
 30
0.0
  0
VERTEX
  5
2728A
  8
0
 10
598.9878811901574
 20
235.2490039255872
 30
0.0
  0
VERTEX
  5
2728B
  8
0
 10
598.83382438943181
 20
236.41773768643631
 30
0.0
  0
VERTEX
  5
2728C
  8
0
 10
598.65442145723534
 20
237.5799832562216
 30
0.0
  0
VERTEX
  5
2728D
  8
0
 10
598.44982418636005
 20
238.73475725915711
 30
0.0
  0
VERTEX
  5
2728E
  8
0
 10
598.33813094189395
 20
239.3090368240664
 30
0.0
  0
VERTEX
  5
2728F
  8
0
 10
598.2202056865226
 20
239.8810826411482
 30
0.0
  0
VERTEX
  5
27290
  8
0
 10
597.96576023789839
 20
241.01798949647949
 30
0.0
  0
VERTEX
  5
27291
  8
0
 10
597.68670312673953
 20
242.14451588844619
 30
0.0
  0
VERTEX
  5
27292
  8
0
 10
597.38327046322161
 20
243.25970866325321
 30
0.0
  0
VERTEX
  5
27293
  8
0
 10
597.05571898167182
 20
244.36262425647789
 30
0.0
  0
VERTEX
  5
27294
  8
0
 10
596.70432582334433
 20
245.452329491417
 30
0.0
  0
VERTEX
  5
27295
  8
0
 10
596.51978074469525
 20
245.99193964170081
 30
0.0
  0
VERTEX
  5
27296
  8
0
 10
596.32938830193325
 20
246.52790236865161
 30
0.0
  0
VERTEX
  5
27297
  8
0
 10
595.93122365201316
 20
247.5884328461471
 30
0.0
  0
VERTEX
  5
27298
  8
0
 10
595.51016876062954
 20
248.6330236092399
 30
0.0
  0
VERTEX
  5
27299
  8
0
 10
595.29116805550268
 20
249.149064854264
 30
0.0
  0
VERTEX
  5
2729A
  8
0
 10
595.06657988225618
 20
249.66079082985749
 30
0.0
  0
VERTEX
  5
2729B
  8
0
 10
594.60083233737055
 20
250.67086491432289
 30
0.0
  0
VERTEX
  5
2729C
  8
0
 10
594.1133201948935
 20
251.66239123912061
 30
0.0
  0
VERTEX
  5
2729D
  8
0
 10
593.86153059089179
 20
252.15093619341681
 30
0.0
  0
VERTEX
  5
2729E
  8
0
 10
593.60445593876887
 20
252.63453087398921
 30
0.0
  0
VERTEX
  5
2729F
  8
0
 10
593.07467011896028
 20
253.586461291744
 30
0.0
  0
VERTEX
  5
272A0
  8
0
 10
592.52441098716213
 20
254.517377064215
 30
0.0
  0
VERTEX
  5
272A1
  8
0
 10
591.95414411753598
 20
255.42649054371941
 30
0.0
  0
VERTEX
  5
272A2
  8
0
 10
591.36435201278618
 20
256.31303252949238
 30
0.0
  0
VERTEX
  5
272A3
  8
0
 10
590.75553369591569
 20
257.17625291850618
 30
0.0
  0
VERTEX
  5
272A4
  8
0
 10
590.44415006626707
 20
257.59888848559513
 30
0.0
  0
VERTEX
  5
272A5
  8
0
 10
590.12820428800251
 20
258.01542134012919
 30
0.0
  0
VERTEX
  5
272A6
  8
0
 10
589.48289457235501
 20
258.82982777410052
 30
0.0
  0
VERTEX
  5
272A7
  8
0
 10
588.82015054541807
 20
259.61878315126887
 30
0.0
  0
VERTEX
  5
272A8
  8
0
 10
588.14053295480346
 20
260.3816199366193
 30
0.0
  0
VERTEX
  5
272A9
  8
0
 10
587.44461682484337
 20
261.11769269407341
 30
0.0
  0
VERTEX
  5
272AA
  8
0
 10
586.73299097006065
 20
261.82637863259242
 30
0.0
  0
VERTEX
  5
272AB
  8
0
 10
586.37147454878425
 20
262.17026324463222
 30
0.0
  0
VERTEX
  5
272AC
  8
0
 10
586.00625749697394
 20
262.5070781331205
 30
0.0
  0
VERTEX
  5
272AD
  8
0
 10
585.2650312946555
 20
263.15921525592063
 30
0.0
  0
VERTEX
  5
272AE
  8
0
 10
584.50993951447344
 20
263.78223822788192
 30
0.0
  0
VERTEX
  5
272AF
  8
0
 10
583.74162103945832
 20
264.37561990937053
 30
0.0
  0
VERTEX
  5
272B0
  8
0
 10
582.96072594374596
 20
264.9388582402417
 30
0.0
  0
VERTEX
  5
272B1
  8
0
 10
582.16791494254835
 20
265.47147666463661
 30
0.0
  0
VERTEX
  5
272B2
  8
0
 10
581.76725022316873
 20
265.72616156170437
 30
0.0
  0
VERTEX
  5
272B3
  8
0
 10
581.36385883312323
 20
265.9730245341953
 30
0.0
  0
VERTEX
  5
272B4
  8
0
 10
580.54923792721274
 20
266.44307748934631
 30
0.0
  0
VERTEX
  5
272B5
  8
0
 10
579.7247414754313
 20
266.88123781836202
 30
0.0
  0
VERTEX
  5
272B6
  8
0
 10
578.89106708409099
 20
267.28713479386079
 30
0.0
  0
VERTEX
  5
272B7
  8
0
 10
578.0489201249577
 20
267.66042498647772
 30
0.0
  0
VERTEX
  5
272B8
  8
0
 10
577.19901313843502
 20
268.00079255544188
 30
0.0
  0
VERTEX
  5
272B9
  8
0
 10
576.77137411570425
 20
268.15853926581713
 30
0.0
  0
VERTEX
  5
272BA
  8
0
 10
576.34206523068428
 20
268.30794951580992
 30
0.0
  0
VERTEX
  5
272BB
  8
0
 10
575.47880146518969
 20
268.58163598212832
 30
0.0
  0
VERTEX
  5
272BC
  8
0
 10
574.60995224928092
 20
268.82162038832121
 30
0.0
  0
VERTEX
  5
272BD
  8
0
 10
573.73625271613685
 20
269.02769968362372
 30
0.0
  0
VERTEX
  5
272BE
  8
0
 10
572.85844210278901
 20
269.1996995043782
 30
0.0
  0
VERTEX
  5
272BF
  8
0
 10
571.97726312465295
 20
269.33747432156269
 30
0.0
  0
VERTEX
  5
272C0
  8
0
 10
571.53564339388106
 20
269.39348979127323
 30
0.0
  0
VERTEX
  5
272C1
  8
0
 10
571.09346134711689
 20
269.4409075639287
 30
0.0
  0
VERTEX
  5
272C2
  8
0
 10
570.20778455472021
 20
269.5099117166265
 30
0.0
  0
VERTEX
  5
272C3
  8
0
 10
569.32098211845073
 20
269.54442839525291
 30
0.0
  0
VERTEX
  5
272C4
  8
0
 10
568.87739324007737
 20
269.54874366468351
 30
0.0
  0
VERTEX
  5
272C5
  8
0
 10
568.43380436170423
 20
269.54442839525291
 30
0.0
  0
VERTEX
  5
272C6
  8
0
 10
567.54700192543464
 20
269.5099117166265
 30
0.0
  0
VERTEX
  5
272C7
  8
0
 10
566.66132513303785
 20
269.4409075639287
 30
0.0
  0
VERTEX
  5
272C8
  8
0
 10
566.21914308627379
 20
269.39348979127323
 30
0.0
  0
VERTEX
  5
272C9
  8
0
 10
565.77752335550178
 20
269.33747432156269
 30
0.0
  0
VERTEX
  5
272CA
  8
0
 10
564.89634437736595
 20
269.1996995043782
 30
0.0
  0
VERTEX
  5
272CB
  8
0
 10
564.018533764018
 20
269.02769968362372
 30
0.0
  0
VERTEX
  5
272CC
  8
0
 10
563.14483423087404
 20
268.82162038832121
 30
0.0
  0
VERTEX
  5
272CD
  8
0
 10
562.27598501496527
 20
268.58163598212832
 30
0.0
  0
VERTEX
  5
272CE
  8
0
 10
561.41272124947068
 20
268.30794951580992
 30
0.0
  0
VERTEX
  5
272CF
  8
0
 10
560.98341236445071
 20
268.15853926581713
 30
0.0
  0
VERTEX
  5
272D0
  8
0
 10
560.55577334171994
 20
268.00079255544188
 30
0.0
  0
VERTEX
  5
272D1
  8
0
 10
559.70586635519726
 20
267.66042498647772
 30
0.0
  0
VERTEX
  5
272D2
  8
0
 10
558.86371939606374
 20
267.28713479386079
 30
0.0
  0
VERTEX
  5
272D3
  8
0
 10
558.03004500472366
 20
266.88123781836202
 30
0.0
  0
VERTEX
  5
272D4
  8
0
 10
557.20554855294222
 20
266.44307748934631
 30
0.0
  0
VERTEX
  5
272D5
  8
0
 10
556.39092764703139
 20
265.9730245341953
 30
0.0
  0
VERTEX
  5
272D6
  8
0
 10
555.98753625698623
 20
265.72616156170437
 30
0.0
  0
VERTEX
  5
272D7
  8
0
 10
555.58687153760661
 20
265.47147666463661
 30
0.0
  0
VERTEX
  5
272D8
  8
0
 10
554.79406053640901
 20
264.9388582402417
 30
0.0
  0
VERTEX
  5
272D9
  8
0
 10
554.01316544069664
 20
264.37561990937053
 30
0.0
  0
VERTEX
  5
272DA
  8
0
 10
553.24484696568175
 20
263.78223822788192
 30
0.0
  0
VERTEX
  5
272DB
  8
0
 10
552.48975518549935
 20
263.15921525592063
 30
0.0
  0
VERTEX
  5
272DC
  8
0
 10
551.74852898318079
 20
262.5070781331205
 30
0.0
  0
VERTEX
  5
272DD
  8
0
 10
551.3833119313706
 20
262.17026324463222
 30
0.0
  0
VERTEX
  5
272DE
  8
0
 10
551.02179551009431
 20
261.82637863259242
 30
0.0
  0
VERTEX
  5
272DF
  8
0
 10
550.31016965531137
 20
261.11769269407341
 30
0.0
  0
VERTEX
  5
272E0
  8
0
 10
549.61425352535139
 20
260.3816199366193
 30
0.0
  0
VERTEX
  5
272E1
  8
0
 10
548.93463593473689
 20
259.61878315126887
 30
0.0
  0
VERTEX
  5
272E2
  8
0
 10
548.27189190779995
 20
258.82982777410052
 30
0.0
  0
VERTEX
  5
272E3
  8
0
 10
547.62658219215245
 20
258.01542134012919
 30
0.0
  0
VERTEX
  5
272E4
  8
0
 10
547.31063641388766
 20
257.59888848559513
 30
0.0
  0
VERTEX
  5
272E5
  8
0
 10
546.99925278423905
 20
257.17625291850618
 30
0.0
  0
VERTEX
  5
272E6
  8
0
 10
546.39043446736855
 20
256.31303252949238
 30
0.0
  0
VERTEX
  5
272E7
  8
0
 10
545.8006423626191
 20
255.42649054371941
 30
0.0
  0
VERTEX
  5
272E8
  8
0
 10
545.23037549299283
 20
254.517377064215
 30
0.0
  0
VERTEX
  5
272E9
  8
0
 10
544.68011636119456
 20
253.586461291744
 30
0.0
  0
VERTEX
  5
272EA
  8
0
 10
544.15033054138587
 20
252.63453087398921
 30
0.0
  0
VERTEX
  5
272EB
  8
0
 10
543.89325588926317
 20
252.15093619341681
 30
0.0
  0
VERTEX
  5
272EC
  8
0
 10
543.64146628526134
 20
251.66239123912061
 30
0.0
  0
VERTEX
  5
272ED
  8
0
 10
543.15395414278441
 20
250.67086491432289
 30
0.0
  0
VERTEX
  5
272EE
  8
0
 10
542.68820659789856
 20
249.66079082985749
 30
0.0
  0
VERTEX
  5
272EF
  8
0
 10
542.46361842465205
 20
249.149064854264
 30
0.0
  0
VERTEX
  5
272F0
  8
0
 10
542.24461771952531
 20
248.6330236092399
 30
0.0
  0
VERTEX
  5
272F1
  8
0
 10
541.82356282814146
 20
247.5884328461471
 30
0.0
  0
VERTEX
  5
272F2
  8
0
 10
541.42539817822194
 20
246.52790236865161
 30
0.0
  0
VERTEX
  5
272F3
  8
0
 10
541.23500573545971
 20
245.99193964170081
 30
0.0
  0
VERTEX
  5
272F4
  8
0
 10
541.05046065681029
 20
245.452329491417
 30
0.0
  0
VERTEX
  5
272F5
  8
0
 10
540.69906749848326
 20
244.36262425647789
 30
0.0
  0
VERTEX
  5
272F6
  8
0
 10
540.37151601693336
 20
243.25970866325321
 30
0.0
  0
VERTEX
  5
272F7
  8
0
 10
540.06808335341543
 20
242.14451588844619
 30
0.0
  0
VERTEX
  5
272F8
  8
0
 10
539.78902624225645
 20
241.01798949647949
 30
0.0
  0
VERTEX
  5
272F9
  8
0
 10
539.53458079363213
 20
239.8810826411482
 30
0.0
  0
VERTEX
  5
272FA
  8
0
 10
539.41665553826101
 20
239.3090368240664
 30
0.0
  0
VERTEX
  5
272FB
  8
0
 10
539.30496229379492
 20
238.73475725915711
 30
0.0
  0
VERTEX
  5
272FC
  8
0
 10
539.1003650229195
 20
237.5799832562216
 30
0.0
  0
VERTEX
  5
272FD
  8
0
 10
538.92096209072338
 20
236.41773768643631
 30
0.0
  0
VERTEX
  5
272FE
  8
0
 10
538.76690528999745
 20
235.2490039255872
 30
0.0
  0
VERTEX
  5
272FF
  8
0
 10
538.63832496817622
 20
234.0747708391163
 30
0.0
  0
VERTEX
  5
27300
  8
0
 10
538.53532991704844
 20
232.89603194544631
 30
0.0
  0
VERTEX
  5
27301
  8
0
 10
538.49345494827935
 20
232.30528436091569
 30
0.0
  0
VERTEX
  5
27302
  8
0
 10
538.45800728071004
 20
231.71378457536051
 30
0.0
  0
VERTEX
  5
27303
  8
0
 10
538.40642248183065
 20
230.52902902816459
 30
0.0
  0
VERTEX
  5
27304
  8
0
 10
538.38061916630068
 20
229.3427677253321
 30
0.0
  0
VERTEX
  5
27305
  8
0
 10
538.37739324007737
 20
228.7493860438444
 30
0.0
  0
SEQEND
  5
27306
  8
0
  0
POLYLINE
  5
229F0
  8
0
 66
     1
 10
0.0
 20
0.0
 30
0.0
  0
VERTEX
  5
27307
  8
0
 10
538.37739324007737
 20
228.7493860438444
 30
0.0
  0
VERTEX
  5
27308
  8
0
 10
538.3838563332215
 20
227.9095092099997
 30
0.0
  0
VERTEX
  5
27309
  8
0
 10
538.4355446448169
 20
226.2311791821985
 30
0.0
  0
VERTEX
  5
2730A
  8
0
 10
538.53883365332536
 20
224.5571176609119
 30
0.0
  0
VERTEX
  5
2730B
  8
0
 10
538.6097771156991
 20
223.7225747642533
 30
0.0
  0
VERTEX
  5
2730C
  8
0
 10
538.69354827789334
 20
222.89016227739921
 30
0.0
  0
VERTEX
  5
2730D
  8
0
 10
538.89942626826974
 20
221.23313861760471
 30
0.0
  0
VERTEX
  5
2730E
  8
0
 10
539.15611864933385
 20
219.5888554326248
 30
0.0
  0
VERTEX
  5
2730F
  8
0
 10
539.46319031262919
 20
217.96009987771589
 30
0.0
  0
VERTEX
  5
27310
  8
0
 10
539.82012075389719
 20
216.3496327878984
 30
0.0
  0
VERTEX
  5
27311
  8
0
 10
540.22630495536282
 20
214.76018399818619
 30
0.0
  0
VERTEX
  5
27312
  8
0
 10
540.44765528841845
 20
213.97418492281119
 30
0.0
  0
VERTEX
  5
27313
  8
0
 10
540.68105441127341
 20
213.19444771635881
 30
0.0
  0
VERTEX
  5
27314
  8
0
 10
541.18359829495671
 20
211.65507795611759
 30
0.0
  0
VERTEX
  5
27315
  8
0
 10
541.73308476541695
 20
210.14468403838509
 30
0.0
  0
VERTEX
  5
27316
  8
0
 10
542.32858241125405
 20
208.6658261683524
 30
0.0
  0
VERTEX
  5
27317
  8
0
 10
542.96908182946004
 20
207.2210110957794
 30
0.0
  0
VERTEX
  5
27318
  8
0
 10
543.65349733641608
 20
205.81268786591681
 30
0.0
  0
VERTEX
  5
27319
  8
0
 10
544.01181393934814
 20
205.12295921634089
 30
0.0
  0
VERTEX
  5
2731A
  8
0
 10
544.3806688081886
 20
204.44324366822369
 30
0.0
  0
VERTEX
  5
2731B
  8
0
 10
545.14936364700668
 20
203.1149997899511
 30
0.0
  0
VERTEX
  5
2731C
  8
0
 10
545.95827887058715
 20
201.83020768141799
 30
0.0
  0
VERTEX
  5
2731D
  8
0
 10
546.37739324007748
 20
201.2047895812857
 30
0.0
  0
SEQEND
  5
2731E
  8
0
  0
POLYLINE
  5
229F2
  8
0
 66
     1
 10
0.0
 20
0.0
 30
0.0
  0
VERTEX
  5
2731F
  8
0
 10
593.87739324007737
 20
199.9347939371637
 30
0.0
  0
VERTEX
  5
27320
  8
0
 10
594.29803790367464
 20
200.6010457618558
 30
0.0
  0
VERTEX
  5
27321
  8
0
 10
595.10940381313037
 20
201.96624187886479
 30
0.0
  0
VERTEX
  5
27322
  8
0
 10
595.87982293147661
 20
203.37324507758061
 30
0.0
  0
VERTEX
  5
27323
  8
0
 10
596.24929908781439
 20
204.0917404580168
 30
0.0
  0
VERTEX
  5
27324
  8
0
 10
596.60809267492266
 20
204.81985909989001
 30
0.0
  0
VERTEX
  5
27325
  8
0
 10
597.29307625263914
 20
206.30382585726329
 30
0.0
  0
VERTEX
  5
27326
  8
0
 10
597.93370444122843
 20
207.82282895551359
 30
0.0
  0
VERTEX
  5
27327
  8
0
 10
598.52897725372645
 20
209.37449731056219
 30
0.0
  0
VERTEX
  5
27328
  8
0
 10
599.07796550052956
 20
210.95640884958451
 30
0.0
  0
VERTEX
  5
27329
  8
0
 10
599.57981223981096
 20
212.5660942917302
 30
0.0
  0
VERTEX
  5
2732A
  8
0
 10
599.81280983659349
 20
213.38056861489801
 30
0.0
  0
VERTEX
  5
2732B
  8
0
 10
600.03373411516145
 20
214.201041002545
 30
0.0
  0
VERTEX
  5
2732C
  8
0
 10
600.43902257836839
 20
215.85869691606331
 30
0.0
  0
VERTEX
  5
2732D
  8
0
 10
600.79504499542145
 20
217.53647451844341
 30
0.0
  0
VERTEX
  5
2732E
  8
0
 10
601.10124563402189
 20
219.231754886945
 30
0.0
  0
VERTEX
  5
2732F
  8
0
 10
601.35714653105094
 20
220.94189177792941
 30
0.0
  0
VERTEX
  5
27330
  8
0
 10
601.56234823864543
 20
222.66421575750519
 30
0.0
  0
VERTEX
  5
27331
  8
0
 10
601.64583369393563
 20
223.52910839113699
 30
0.0
  0
VERTEX
  5
27332
  8
0
 10
601.71653044771381
 20
224.39603836837699
 30
0.0
  0
VERTEX
  5
27333
  8
0
 10
601.81945248792454
 20
226.1346563263842
 30
0.0
  0
VERTEX
  5
27334
  8
0
 10
601.87095370337624
 20
227.87735574018549
 30
0.0
  0
VERTEX
  5
27335
  8
0
 10
601.87739324007737
 20
228.7493860438444
 30
0.0
  0
SEQEND
  5
27336
  8
0
  0
POLYLINE
  5
229F3
  8
0
 66
     1
 10
0.0
 20
0.0
 30
0.0
  0
VERTEX
  5
27337
  8
0
 10
601.87739324007737
 20
228.7493860438444
 30
0.0
  0
VERTEX
  5
27338
  8
0
 10
601.87390289367204
 20
229.39140556807709
 30
0.0
  0
VERTEX
  5
27339
  8
0
 10
601.84598455227876
 20
230.67490140392869
 30
0.0
  0
VERTEX
  5
2733A
  8
0
 10
601.79017149119625
 20
231.95676806155009
 30
0.0
  0
VERTEX
  5
2733B
  8
0
 10
601.75181827710503
 20
232.5967514360855
 30
0.0
  0
VERTEX
  5
2733C
  8
0
 10
601.70651093384663
 20
233.23592095377441
 30
0.0
  0
VERTEX
  5
2733D
  8
0
 10
601.59507366541334
 20
234.5112777895483
 30
0.0
  0
VERTEX
  5
2733E
  8
0
 10
601.45595397295074
 20
235.78175948966421
 30
0.0
  0
VERTEX
  5
2733F
  8
0
 10
601.28926956560815
 20
237.04629109976301
 30
0.0
  0
VERTEX
  5
27340
  8
0
 10
601.09516147503541
 20
238.3038026998583
 30
0.0
  0
VERTEX
  5
27341
  8
0
 10
600.87379393605534
 20
239.55323030959249
 30
0.0
  0
VERTEX
  5
27342
  8
0
 10
600.75294550761657
 20
240.17458196998629
 30
0.0
  0
VERTEX
  5
27343
  8
0
 10
600.62535424770681
 20
240.79351678846891
 30
0.0
  0
VERTEX
  5
27344
  8
0
 10
600.35005261476886
 20
242.0236127303024
 30
0.0
  0
VERTEX
  5
27345
  8
0
 10
600.04812196990827
 20
243.2424773511184
 30
0.0
  0
VERTEX
  5
27346
  8
0
 10
599.71981777659403
 20
244.4490793697623
 30
0.0
  0
VERTEX
  5
27347
  8
0
 10
599.36541781294989
 20
245.64239788046419
 30
0.0
  0
VERTEX
  5
27348
  8
0
 10
598.98522193672693
 20
246.82142321662829
 30
0.0
  0
VERTEX
  5
27349
  8
0
 10
598.78555021228681
 20
247.4052637070981
 30
0.0
  0
VERTEX
  5
2734A
  8
0
 10
598.57955183159345
 20
247.9851578051121
 30
0.0
  0
VERTEX
  5
2734B
  8
0
 10
598.14875073495875
 20
249.1326170102702
 30
0.0
  0
VERTEX
  5
2734C
  8
0
 10
597.69318314755992
 20
250.26282996705871
 30
0.0
  0
VERTEX
  5
2734D
  8
0
 10
597.4562315649639
 20
250.8211696747903
 30
0.0
  0
VERTEX
  5
2734E
  8
0
 10
597.21323452505771
 20
251.37484040248091
 30
0.0
  0
VERTEX
  5
2734F
  8
0
 10
596.70931095190258
 20
252.46770744468989
 30
0.0
  0
VERTEX
  5
27350
  8
0
 10
596.18183879774733
 20
253.54050641906181
 30
0.0
  0
VERTEX
  5
27351
  8
0
 10
595.90941070161421
 20
254.06909604174319
 30
0.0
  0
VERTEX
  5
27352
  8
0
 10
595.6312643566946
 20
254.59232963055911
 30
0.0
  0
VERTEX
  5
27353
  8
0
 10
595.05805346968816
 20
255.6222871317359
 30
0.0
  0
VERTEX
  5
27354
  8
0
 10
594.46269113036567
 20
256.62950747572091
 30
0.0
  0
VERTEX
  5
27355
  8
0
 10
593.84568107470466
 20
257.61313845354562
 30
0.0
  0
VERTEX
  5
27356
  8
0
 10
593.20754535481149
 20
258.57234781520128
 30
0.0
  0
VERTEX
  5
27357
  8
0
 10
592.54882389721411
 20
259.50632397380559
 30
0.0
  0
VERTEX
  5
27358
  8
0
 10
592.21191701923362
 20
259.96360180049209
 30
0.0
  0
VERTEX
  5
27359
  8
0
 10
591.87007404602889
 20
260.4142766922842
 30
0.0
  0
VERTEX
  5
2735A
  8
0
 10
591.17187009139434
 20
261.29543775198999
 30
0.0
  0
VERTEX
  5
2735B
  8
0
 10
590.45480278356081
 20
262.14906160269669
 30
0.0
  0
VERTEX
  5
2735C
  8
0
 10
589.71947883305984
 20
262.97442599340411
 30
0.0
  0
VERTEX
  5
2735D
  8
0
 10
588.96652039736523
 20
263.77083258343652
 30
0.0
  0
VERTEX
  5
2735E
  8
0
 10
588.19656455448546
 20
264.53760753330971
 30
0.0
  0
VERTEX
  5
2735F
  8
0
 10
587.80541563966187
 20
264.9096794086318
 30
0.0
  0
VERTEX
  5
27360
  8
0
 10
587.41026276393256
 20
265.27410207486452
 30
0.0
  0
VERTEX
  5
27361
  8
0
 10
586.60828031552273
 20
265.97969306018967
 30
0.0
  0
VERTEX
  5
27362
  8
0
 10
585.79129576647301
 20
266.65378348886861
 30
0.0
  0
VERTEX
  5
27363
  8
0
 10
584.96000036727639
 20
267.29580301310131
 30
0.0
  0
VERTEX
  5
27364
  8
0
 10
584.11509747683363
 20
267.90520842027399
 30
0.0
  0
VERTEX
  5
27365
  8
0
 10
583.25730196734105
 20
268.4814840925701
 30
0.0
  0
VERTEX
  5
27366
  8
0
 10
582.82379587752052
 20
268.75704480087279
 30
0.0
  0
VERTEX
  5
27367
  8
0
 10
582.38733961943854
 20
269.02414244323973
 30
0.0
  0
VERTEX
  5
27368
  8
0
 10
581.50594650812536
 20
269.53272432914127
 30
0.0
  0
VERTEX
  5
27369
  8
0
 10
580.61386837996838
 20
270.00679943922478
 30
0.0
  0
VERTEX
  5
2736A
  8
0
 10
579.71186002212494
 20
270.44596665861633
 30
0.0
  0
VERTEX
  5
2736B
  8
0
 10
578.80068462371855
 20
270.84985440800477
 30
0.0
  0
VERTEX
  5
2736C
  8
0
 10
577.88111313010381
 20
271.21812095803222
 30
0.0
  0
VERTEX
  5
2736D
  8
0
 10
577.41842172846077
 20
271.38879772663398
 30
0.0
  0
VERTEX
  5
2736E
  8
0
 10
576.95392359057018
 20
271.5504547184301
 30
0.0
  0
VERTEX
  5
2736F
  8
0
 10
576.01990050003485
 20
271.84657450165918
 30
0.0
  0
VERTEX
  5
27370
  8
0
 10
575.07983413528109
 20
272.10622976081959
 30
0.0
  0
VERTEX
  5
27371
  8
0
 10
574.13451988630572
 20
272.32920080163882
 30
0.0
  0
VERTEX
  5
27372
  8
0
 10
573.18475758333909
 20
272.51529896835558
 30
0.0
  0
VERTEX
  5
27373
  8
0
 10
572.2313508201097
 20
272.664366803343
 30
0.0
  0
VERTEX
  5
27374
  8
0
 10
571.75353275074997
 20
272.7249737049969
 30
0.0
  0
VERTEX
  5
27375
  8
0
 10
571.2751062739236
 20
272.77627818032943
 30
0.0
  0
VERTEX
  5
27376
  8
0
 10
570.31683302313354
 20
272.85093841111672
 30
0.0
  0
VERTEX
  5
27377
  8
0
 10
569.35734186257957
 20
272.88828432569608
 30
0.0
  0
VERTEX
  5
27378
  8
0
 10
568.87739324007737
 20
272.89295330573623
 30
0.0
  0
VERTEX
  5
27379
  8
0
 10
568.39744461757516
 20
272.88828432569608
 30
0.0
  0
VERTEX
  5
2737A
  8
0
 10
567.43795345702131
 20
272.85093841111672
 30
0.0
  0
VERTEX
  5
2737B
  8
0
 10
566.47968020623125
 20
272.77627818032943
 30
0.0
  0
VERTEX
  5
2737C
  8
0
 10
566.00125372940488
 20
272.7249737049969
 30
0.0
  0
VERTEX
  5
2737D
  8
0
 10
565.52343566004515
 20
272.664366803343
 30
0.0
  0
VERTEX
  5
2737E
  8
0
 10
564.57002889681576
 20
272.51529896835558
 30
0.0
  0
VERTEX
  5
2737F
  8
0
 10
563.62026659384924
 20
272.32920080163882
 30
0.0
  0
VERTEX
  5
27380
  8
0
 10
562.67495234487365
 20
272.10622976081959
 30
0.0
  0
VERTEX
  5
27381
  8
0
 10
561.73488598012023
 20
271.84657450165918
 30
0.0
  0
VERTEX
  5
27382
  8
0
 10
560.80086288958478
 20
271.5504547184301
 30
0.0
  0
VERTEX
  5
27383
  8
0
 10
560.33636475169419
 20
271.38879772663398
 30
0.0
  0
VERTEX
  5
27384
  8
0
 10
559.87367335005115
 20
271.21812095803222
 30
0.0
  0
VERTEX
  5
27385
  8
0
 10
558.9541018564363
 20
270.84985440800477
 30
0.0
  0
VERTEX
  5
27386
  8
0
 10
558.04292645803002
 20
270.44596665861633
 30
0.0
  0
VERTEX
  5
27387
  8
0
 10
557.14091810018647
 20
270.00679943922478
 30
0.0
  0
VERTEX
  5
27388
  8
0
 10
556.24883997202926
 20
269.53272432914127
 30
0.0
  0
VERTEX
  5
27389
  8
0
 10
555.36744686071643
 20
269.02414244323973
 30
0.0
  0
VERTEX
  5
2738A
  8
0
 10
554.93099060263444
 20
268.75704480087279
 30
0.0
  0
VERTEX
  5
2738B
  8
0
 10
554.49748451281368
 20
268.4814840925701
 30
0.0
  0
VERTEX
  5
2738C
  8
0
 10
553.63968900332134
 20
267.90520842027399
 30
0.0
  0
VERTEX
  5
2738D
  8
0
 10
552.79478611287846
 20
267.29580301310131
 30
0.0
  0
VERTEX
  5
2738E
  8
0
 10
551.96349071368195
 20
266.65378348886861
 30
0.0
  0
VERTEX
  5
2738F
  8
0
 10
551.14650616463223
 20
265.97969306018967
 30
0.0
  0
VERTEX
  5
27390
  8
0
 10
550.34452371622228
 20
265.27410207486452
 30
0.0
  0
VERTEX
  5
27391
  8
0
 10
549.94937084049286
 20
264.9096794086318
 30
0.0
  0
VERTEX
  5
27392
  8
0
 10
549.55822192566939
 20
264.53760753330971
 30
0.0
  0
VERTEX
  5
27393
  8
0
 10
548.78826608278973
 20
263.77083258343743
 30
0.0
  0
VERTEX
  5
27394
  8
0
 10
548.03530764709512
 20
262.97442599340411
 30
0.0
  0
VERTEX
  5
27395
  8
0
 10
547.29998369659415
 20
262.14906160269669
 30
0.0
  0
VERTEX
  5
27396
  8
0
 10
546.58291638876051
 20
261.29543775198999
 30
0.0
  0
VERTEX
  5
27397
  8
0
 10
545.88471243412573
 20
260.4142766922842
 30
0.0
  0
VERTEX
  5
27398
  8
0
 10
545.54286946092145
 20
259.96360180049209
 30
0.0
  0
VERTEX
  5
27399
  8
0
 10
545.20596258294086
 20
259.50632397380559
 30
0.0
  0
VERTEX
  5
2739A
  8
0
 10
544.54724112534325
 20
258.57234781520128
 30
0.0
  0
VERTEX
  5
2739B
  8
0
 10
543.90910540545008
 20
257.61313845354562
 30
0.0
  0
VERTEX
  5
2739C
  8
0
 10
543.29209534978907
 20
256.62950747572091
 30
0.0
  0
VERTEX
  5
2739D
  8
0
 10
542.69673301046657
 20
255.6222871317359
 30
0.0
  0
VERTEX
  5
2739E
  8
0
 10
542.12352212346025
 20
254.59232963055911
 30
0.0
  0
VERTEX
  5
2739F
  8
0
 10
541.84537577854076
 20
254.06909604174319
 30
0.0
  0
VERTEX
  5
273A0
  8
0
 10
541.57294768240763
 20
253.54050641906181
 30
0.0
  0
VERTEX
  5
273A1
  8
0
 10
541.04547552825238
 20
252.46770744468989
 30
0.0
  0
VERTEX
  5
273A2
  8
0
 10
540.54155195509725
 20
251.37484040248091
 30
0.0
  0
VERTEX
  5
273A3
  8
0
 10
540.29855491519095
 20
250.8211696747903
 30
0.0
  0
VERTEX
  5
273A4
  8
0
 10
540.06160333259504
 20
250.26282996705871
 30
0.0
  0
VERTEX
  5
273A5
  8
0
 10
539.60603574519632
 20
249.1326170102702
 30
0.0
  0
VERTEX
  5
273A6
  8
0
 10
539.17523464856163
 20
247.9851578051121
 30
0.0
  0
VERTEX
  5
273A7
  8
0
 10
538.96923626786815
 20
247.4052637070981
 30
0.0
  0
VERTEX
  5
273A8
  8
0
 10
538.76956454342803
 20
246.82142321662829
 30
0.0
  0
VERTEX
  5
273A9
  8
0
 10
538.38936866720485
 20
245.64239788046419
 30
0.0
  0
VERTEX
  5
273AA
  8
0
 10
538.03496870356093
 20
244.4490793697623
 30
0.0
  0
VERTEX
  5
273AB
  8
0
 10
537.70666451024647
 20
243.2424773511184
 30
0.0
  0
VERTEX
  5
273AC
  8
0
 10
537.40473386538611
 20
242.0236127303024
 30
0.0
  0
VERTEX
  5
273AD
  8
0
 10
537.12943223244815
 20
240.79351678846891
 30
0.0
  0
VERTEX
  5
273AE
  8
0
 10
537.00184097253816
 20
240.17458196998629
 30
0.0
  0
VERTEX
  5
273AF
  8
0
 10
536.88099254409963
 20
239.55323030959249
 30
0.0
  0
VERTEX
  5
273B0
  8
0
 10
536.65962500511955
 20
238.3038026998583
 30
0.0
  0
VERTEX
  5
273B1
  8
0
 10
536.4655169145467
 20
237.04629109976301
 30
0.0
  0
VERTEX
  5
273B2
  8
0
 10
536.298832507204
 20
235.78175948966421
 30
0.0
  0
VERTEX
  5
273B3
  8
0
 10
536.15971281474151
 20
234.5112777895483
 30
0.0
  0
VERTEX
  5
273B4
  8
0
 10
536.04827554630833
 20
233.23592095377441
 30
0.0
  0
VERTEX
  5
273B5
  8
0
 10
536.00296820304993
 20
232.5967514360855
 30
0.0
  0
VERTEX
  5
273B6
  8
0
 10
535.96461498895849
 20
231.95676806155009
 30
0.0
  0
VERTEX
  5
273B7
  8
0
 10
535.90880192787631
 20
230.67490140392869
 30
0.0
  0
VERTEX
  5
273B8
  8
0
 10
535.88088358648292
 20
229.39140556807709
 30
0.0
  0
VERTEX
  5
273B9
  8
0
 10
535.87739324007737
 20
228.7493860438444
 30
0.0
  0
SEQEND
  5
273BA
  8
0
  0
POLYLINE
  5
229F4
  8
0
 66
     1
 10
0.0
 20
0.0
 30
0.0
  0
VERTEX
  5
273BB
  8
0
 10
535.87739324007737
 20
228.7493860438444
 30
0.0
  0
VERTEX
  5
273BC
  8
0
 10
535.88383277677872
 20
227.87735574018549
 30
0.0
  0
VERTEX
  5
273BD
  8
0
 10
535.93533399223065
 20
226.1346563263842
 30
0.0
  0
VERTEX
  5
273BE
  8
0
 10
536.03825603244104
 20
224.39603836837699
 30
0.0
  0
VERTEX
  5
273BF
  8
0
 10
536.10895278621933
 20
223.52910839113699
 30
0.0
  0
VERTEX
  5
273C0
  8
0
 10
536.19243824150954
 20
222.66421575750519
 30
0.0
  0
VERTEX
  5
273C1
  8
0
 10
536.39763994910356
 20
220.94189177792941
 30
0.0
  0
VERTEX
  5
273C2
  8
0
 10
536.65354084613296
 20
219.231754886945
 30
0.0
  0
VERTEX
  5
273C3
  8
0
 10
536.9597414847334
 20
217.53647451844341
 30
0.0
  0
VERTEX
  5
273C4
  8
0
 10
537.31576390178657
 20
215.85869691606331
 30
0.0
  0
VERTEX
  5
273C5
  8
0
 10
537.7210523649934
 20
214.201041002545
 30
0.0
  0
VERTEX
  5
273C6
  8
0
 10
537.94197664356136
 20
213.38056861489801
 30
0.0
  0
VERTEX
  5
273C7
  8
0
 10
538.174974240344
 20
212.5660942917302
 30
0.0
  0
VERTEX
  5
273C8
  8
0
 10
538.67682097962529
 20
210.95640884958451
 30
0.0
  0
VERTEX
  5
273C9
  8
0
 10
539.22580922642851
 20
209.37449731056219
 30
0.0
  0
VERTEX
  5
273CA
  8
0
 10
539.82108203892653
 20
207.8228289555127
 30
0.0
  0
VERTEX
  5
273CB
  8
0
 10
540.46171022751582
 20
206.30382585726329
 30
0.0
  0
VERTEX
  5
273CC
  8
0
 10
541.14669380523242
 20
204.81985909989001
 30
0.0
  0
VERTEX
  5
273CD
  8
0
 10
541.50548739234046
 20
204.0917404580168
 30
0.0
  0
VERTEX
  5
273CE
  8
0
 10
541.87496354867812
 20
203.37324507758061
 30
0.0
  0
VERTEX
  5
273CF
  8
0
 10
542.64538266702436
 20
201.96624187886479
 30
0.0
  0
VERTEX
  5
273D0
  8
0
 10
543.45674857648021
 20
200.6010457618558
 30
0.0
  0
VERTEX
  5
273D1
  8
0
 10
543.87739324007737
 20
199.9347939371637
 30
0.0
  0
SEQEND
  5
273D2
  8
0
  0
LINE
  5
229F5
  8
0
 10
546.37739324007748
 20
256.29388739787191
 30
0.0
 11
546.37739324007748
 21
192.2436887314197
 31
0.0
  0
LINE
  5
229F6
  8
0
 10
591.37739324007748
 20
192.2436887314197
 30
0.0
 11
591.37739324007748
 21
256.29388739787191
 31
0.0
  0
LINE
  5
229F7
  8
0
 10
557.00181250476521
 20
266.32887416569702
 30
0.0
 11
580.74715693601718
 21
266.32887416569702
 31
0.0
  0
LINE
  5
229F8
  8
1
 10
355.90231598404762
 20
311.7085891019542
 30
0.0
 11
355.90231598404762
 21
241.9761887314198
 31
0.0
  0
LINE
  5
229F9
  8
0
 10
390.70231598404757
 20
292.44368873142048
 30
0.0
 11
390.70231598404757
 21
293.24368873141981
 31
0.0
  0
LINE
  5
229FA
  8
0
 10
321.10231598404772
 20
293.24368873141981
 30
0.0
 11
321.10231598404772
 21
292.44368873142048
 31
0.0
  0
LINE
  5
229FB
  8
0
 10
390.40353664802569
 20
283.94368873142048
 30
0.0
 11
391.90231598404762
 21
292.44368873142048
 31
0.0
  0
LINE
  5
229FC
  8
0
 10
319.90231598404762
 20
292.44368873142048
 30
0.0
 11
321.40109532006949
 21
283.94368873142048
 31
0.0
  0
LINE
  5
229FD
  8
0
 10
388.90231598404762
 20
272.89295330573623
 30
0.0
 11
388.90231598404762
 21
283.94368873142048
 31
0.0
  0
LINE
  5
229FE
  8
0
 10
322.90231598404762
 20
283.94368873142048
 30
0.0
 11
322.90231598404762
 21
281.94368873142048
 31
0.0
  0
LINE
  5
229FF
  8
0
 10
405.90231598404762
 20
295.74368873141981
 30
0.0
 11
405.90231598404762
 21
293.24368873141981
 31
0.0
  0
LINE
  5
22A00
  8
0
 10
305.90231598404762
 20
295.74368873141981
 30
0.0
 11
305.90231598404762
 21
293.24368873141981
 31
0.0
  0
LINE
  5
22A01
  8
0
 10
305.90231598404762
 20
295.74368873141981
 30
0.0
 11
405.90231598404762
 21
295.74368873141981
 31
0.0
  0
LINE
  5
22A02
  8
0
 10
305.90231598404762
 20
293.24368873141981
 30
0.0
 11
405.90231598404762
 21
293.24368873141981
 31
0.0
  0
LINE
  5
22A03
  8
0
 10
319.90231598404762
 20
292.44368873142048
 30
0.0
 11
391.90231598404762
 21
292.44368873142048
 31
0.0
  0
LINE
  5
22A04
  8
0
 10
321.40109532006949
 20
283.94368873142048
 30
0.0
 11
390.40353664802569
 21
283.94368873142048
 31
0.0
  0
LINE
  5
22A05
  8
0
 10
334.36165675550961
 20
281.94368873142048
 30
0.0
 11
310.90231598404762
 21
281.94368873142048
 31
0.0
  0
LINE
  5
22A06
  8
0
 10
334.36165675550961
 20
281.94368873142048
 30
0.0
 11
334.36165675550961
 21
199.9347939371637
 31
0.0
  0
LINE
  5
22A07
  8
0
 10
310.90231598404762
 20
281.94368873142048
 30
0.0
 11
310.90231598404762
 21
278.2436887314197
 31
0.0
  0
ARC
  5
22A08
  8
0
 10
323.60231598404772
 20
202.24368873141981
 30
0.0
 40
9.9999999999999698
 50
270.0
 51
323.21965126063219
  0
LINE
  5
22A09
  8
0
 10
314.20231598404757
 20
192.2436887314197
 30
0.0
 11
323.60231598404772
 21
192.2436887314197
 31
0.0
  0
LINE
  5
22A0A
  8
0
 10
331.61168374887598
 20
196.25619944059599
 30
0.0
 11
388.90231598404762
 21
272.89295330573623
 31
0.0
  0
ARC
  5
22A0B
  8
0
 10
314.20231598404757
 20
202.24368873141981
 30
0.0
 40
10.000000000000011
 50
174.93259717393971
 51
270.0
  0
LINE
  5
22A0C
  8
0
 10
310.90231598404762
 20
278.2436887314197
 30
0.0
 11
304.24140119739968
 21
203.12696479989421
 31
0.0
  0
LINE
  5
22A1A
  8
1
 10
244.67390457680861
 20
434.77251748446179
 30
0.0
 11
418.28683183535082
 21
434.77251748445991
 31
0.0
  0
CIRCLE
  5
22A1B
  8
0
 10
355.90231598404762
 20
434.77251748445991
 30
0.0
 40
31.174999999999962
  0
CIRCLE
  5
22A1C
  8
0
 10
355.90231598404762
 20
434.77251748445991
 30
0.0
 40
25.649999999999999
  0
CIRCLE
  5
22A1D
  8
0
 10
355.90231598404762
 20
434.77251748445991
 30
0.0
 40
20.149999999999999
  0
CIRCLE
  5
22A1E
  8
0
 10
355.90231598404762
 20
434.77251748445991
 30
0.0
 40
23.802288713680579
  0
CIRCLE
  5
22A1F
  8
0
 10
355.90231598404762
 20
434.77251748445991
 30
0.0
 40
13.5
  0
CIRCLE
  5
22A20
  8
0
 10
355.90231598404762
 20
434.77251748445991
 30
0.0
 40
9.0
  0
LINE
  5
22A21
  8
1
 10
355.90231598404762
 20
489.657033335763
 30
0.0
 11
355.90231598404762
 21
379.88800163315682
 31
0.0
  0
CIRCLE
  5
22A22
  8
0
 10
355.90231598404762
 20
434.77251748445991
 30
0.0
 40
27.174999999999962
  0
LINE
  5
22A23
  8
1
 10
318.90231598404762
 20
386.1819169267946
 30
0.0
 11
318.90231598404762
 21
483.36311804212522
 31
0.0
  0
LINE
  5
22A2F
  8
0
 10
565.87739324007794
 20
264.74368873141981
 30
0.0
 11
571.87739324007794
 21
264.74368873141981
 31
0.0
  0
LINE
  5
22A30
  8
0
 10
571.87739324007794
 20
139.7436887314197
 30
0.0
 11
565.87739324007794
 21
139.7436887314197
 31
0.0
  0
ARC
  5
22A31
  8
0
 10
565.87739324007794
 20
140.04368873141991
 30
0.0
 40
0.3000000000000185
 50
180.0
 51
270.0
  0
ARC
  5
22A32
  8
0
 10
565.87739324007794
 20
264.44368873141963
 30
0.0
 40
0.300000000000014
 50
90.0
 51
180.0
  0
LINE
  5
22A33
  8
0
 10
563.17739324007778
 20
264.44368873141963
 30
0.0
 11
565.57739324007787
 21
264.44368873141963
 31
0.0
  0
LINE
  5
22A34
  8
0
 10
565.57739324007787
 20
140.04368873141991
 30
0.0
 11
563.17739324007778
 21
140.04368873141991
 31
0.0
  0
ARC
  5
22A35
  8
0
 10
562.87739324007794
 20
140.04368873141991
 30
0.0
 40
0.2999999999999998
 50
270.0
 51
0.0
  0
ARC
  5
22A36
  8
0
 10
562.87739324007794
 20
264.44368873141963
 30
0.0
 40
0.2999999999999971
 50
0.0
 51
90.0
  0
LINE
  5
22A37
  8
0
 10
559.44887664021644
 20
264.74368873141981
 30
0.0
 11
562.87739324007794
 21
264.74368873141981
 31
0.0
  0
LINE
  5
22A38
  8
0
 10
562.87739324007794
 20
139.7436887314197
 30
0.0
 11
559.44887664021644
 21
139.7436887314197
 31
0.0
  0
ARC
  5
22A39
  8
0
 10
559.44887664021644
 20
140.7436887314197
 30
0.0
 40
1.0000000000000211
 50
198.99999999998761
 51
270.0
  0
ARC
  5
22A3A
  8
0
 10
559.44887664021644
 20
263.74368873141981
 30
0.0
 40
1.0000000000000211
 50
90.0
 51
161.00000000001231
  0
LINE
  5
22A3B
  8
0
 10
557.09493267940059
 20
259.9788925617367
 30
0.0
 11
558.50335806461726
 21
264.06925688587671
 31
0.0
  0
LINE
  5
22A3C
  8
0
 10
558.50335806461726
 20
140.41812057696279
 30
0.0
 11
557.09493267940059
 21
144.50848490110269
 31
0.0
  0
ARC
  5
22A3D
  8
0
 10
559.93148840619858
 20
145.48518936447451
 30
0.0
 40
2.999999999999917
 50
179.99999914622629
 51
198.99999999998761
  0
ARC
  5
22A3E
  8
0
 10
559.93148840619858
 20
259.00218809836502
 30
0.0
 40
2.9999999999999591
 50
161.00000000001231
 51
180.0
  0
ARC
  5
22A3F
  8
0
 10
556.30648840619858
 20
146.798293335778
 30
0.0
 40
0.625
 50
180.0
 51
0.0
  0
ARC
  5
22A40
  8
0
 10
556.30648840619858
 20
257.68908412706151
 30
0.0
 40
0.625
 50
0.0
 51
180.0
  0
ARC
  5
22A41
  8
0
 10
555.05648840619858
 20
150.4285569328722
 30
0.0
 40
0.625
 50
180.0
 51
0.0
  0
ARC
  5
22A42
  8
0
 10
555.05648840619858
 20
254.05882052996731
 30
0.0
 40
0.625
 50
0.0
 51
180.0
  0
LINE
  5
22A43
  8
0
 10
550.29083751327994
 20
240.21836536754651
 30
0.0
 11
554.4314884061987
 21
252.24368873141981
 31
0.0
  0
LINE
  5
22A44
  8
0
 10
554.4314884061987
 20
152.2436887314197
 30
0.0
 11
550.29083751327994
 21
164.269012095292
 31
0.0
  0
ARC
  5
22A45
  8
0
 10
553.12739324007816
 20
165.24571655866379
 30
0.0
 40
3.0000000000001941
 50
179.99999914622629
 51
198.99999999998761
  0
ARC
  5
22A46
  8
0
 10
553.12739324007816
 20
239.2416609041756
 30
0.0
 40
3.000000000000191
 50
161.00000000001231
 51
179.99999914622629
  0
ARC
  5
22A47
  8
0
 10
584.62739324007839
 20
165.24571655866379
 30
0.0
 40
2.9999999999995999
 50
341.00000000001239
 51
0.0000008537736463
  0
ARC
  5
22A48
  8
0
 10
584.62739324007839
 20
239.2416609041756
 30
0.0
 40
2.999999999999599
 50
0.0000008537736463
 51
18.999999999987629
  0
LINE
  5
22A49
  8
0
 10
583.32329807395706
 20
252.24368873141981
 30
0.0
 11
587.46394896687593
 21
240.21836536754651
 31
0.0
  0
LINE
  5
22A4A
  8
0
 10
587.46394896687593
 20
164.269012095292
 30
0.0
 11
583.32329807395706
 21
152.2436887314197
 31
0.0
  0
ARC
  5
22A4B
  8
0
 10
582.69829807395706
 20
150.4285569328722
 30
0.0
 40
0.625
 50
180.0
 51
0.0
  0
ARC
  5
22A4C
  8
0
 10
582.69829807395706
 20
254.05882052996731
 30
0.0
 40
0.625
 50
0.0
 51
180.0
  0
ARC
  5
22A4D
  8
0
 10
581.44829807395718
 20
146.798293335778
 30
0.0
 40
0.625
 50
180.0
 51
0.0
  0
ARC
  5
22A4E
  8
0
 10
581.44829807395718
 20
257.68908412706151
 30
0.0
 40
0.625
 50
0.0
 51
180.0
  0
ARC
  5
22A4F
  8
0
 10
577.82329807395718
 20
145.48518936447451
 30
0.0
 40
2.9999999999999338
 50
341.00000000001239
 51
0.0
  0
ARC
  5
22A50
  8
0
 10
577.82329807395718
 20
259.00218809836502
 30
0.0
 40
2.9999999999999369
 50
0.0
 51
18.999999999987629
  0
LINE
  5
22A51
  8
0
 10
579.25142841553861
 20
264.06925688587671
 30
0.0
 11
580.65985380075506
 21
259.9788925617367
 31
0.0
  0
LINE
  5
22A52
  8
0
 10
580.65985380075506
 20
144.50848490110269
 30
0.0
 11
579.25142841553861
 21
140.41812057696279
 31
0.0
  0
ARC
  5
22A53
  8
0
 10
578.30590983993943
 20
140.7436887314197
 30
0.0
 40
1.0000000000000211
 50
270.0
 51
341.00000000001239
  0
ARC
  5
22A54
  8
0
 10
578.30590983993943
 20
263.74368873141981
 30
0.0
 40
1.0000000000000211
 50
18.999999999987629
 51
90.0
  0
LINE
  5
22A55
  8
0
 10
574.87739324007794
 20
264.74368873141981
 30
0.0
 11
578.30590983993943
 21
264.74368873141981
 31
0.0
  0
LINE
  5
22A56
  8
0
 10
578.30590983993943
 20
139.7436887314197
 30
0.0
 11
574.87739324007794
 21
139.7436887314197
 31
0.0
  0
ARC
  5
22A57
  8
0
 10
574.87739324007794
 20
140.04368873141991
 30
0.0
 40
0.3000000000000185
 50
180.0
 51
270.0
  0
ARC
  5
22A58
  8
0
 10
574.87739324007794
 20
264.44368873141963
 30
0.0
 40
0.300000000000014
 50
90.0
 51
180.0
  0
LINE
  5
22A59
  8
0
 10
572.17739324007778
 20
264.44368873141963
 30
0.0
 11
574.57739324007787
 21
264.44368873141963
 31
0.0
  0
LINE
  5
22A5A
  8
0
 10
574.57739324007787
 20
140.04368873141991
 30
0.0
 11
572.17739324007778
 21
140.04368873141991
 31
0.0
  0
ARC
  5
22A5B
  8
0
 10
571.87739324007794
 20
140.04368873141991
 30
0.0
 40
0.3000000000000003
 50
270.0
 51
0.0
  0
ARC
  5
22A5C
  8
0
 10
571.87739324007794
 20
264.44368873141963
 30
0.0
 40
0.3000000000000043
 50
0.0
 51
90.0
  0
LINE
  5
22A5D
  8
0
 10
565.57739324007787
 20
140.04368873141991
 30
0.0
 11
565.57739324007787
 21
264.44368873141963
 31
0.0
  0
LINE
  5
22A5E
  8
0
 10
563.17739324007778
 20
140.04368873141991
 30
0.0
 11
563.17739324007778
 21
264.44368873141963
 31
0.0
  0
LINE
  5
22A5F
  8
0
 10
556.9314884061987
 20
145.48518936447451
 30
0.0
 11
556.9314884061987
 21
259.00218809836502
 31
0.0
  0
LINE
  5
22A60
  8
0
 10
555.6814884061987
 20
146.798293335778
 30
0.0
 11
555.6814884061987
 21
257.68908412706151
 31
0.0
  0
LINE
  5
22A61
  8
0
 10
554.4314884061987
 20
150.4285569328722
 30
0.0
 11
554.4314884061987
 21
254.05882052996731
 31
0.0
  0
LINE
  5
22A62
  8
0
 10
550.12739324007794
 20
165.24571655866379
 30
0.0
 11
550.12739324007794
 21
239.2416609041756
 31
0.0
  0
LINE
  5
22A63
  8
0
 10
583.32329807395706
 20
150.4285569328722
 30
0.0
 11
583.32329807395706
 21
254.05882052996731
 31
0.0
  0
LINE
  5
22A64
  8
0
 10
582.07329807395706
 20
146.798293335778
 30
0.0
 11
582.07329807395706
 21
257.68908412706151
 31
0.0
  0
LINE
  5
22A65
  8
0
 10
580.82329807395706
 20
145.48518936447451
 30
0.0
 11
580.82329807395706
 21
259.00218809836502
 31
0.0
  0
LINE
  5
22A66
  8
0
 10
574.57739324007787
 20
140.04368873141991
 30
0.0
 11
574.57739324007787
 21
264.44368873141963
 31
0.0
  0
LINE
  5
22A67
  8
0
 10
572.17739324007778
 20
140.04368873141991
 30
0.0
 11
572.17739324007778
 21
264.44368873141963
 31
0.0
  0
LINE
  5
22A68
  8
0
 10
587.62739324007794
 20
165.24571655866379
 30
0.0
 11
587.62739324007794
 21
239.2416609041756
 31
0.0
  0
LINE
  5
22A69
  8
3
 10
603.87739324007748
 20
205.4766887314199
 30
0.0
 11
601.87739324007737
 21
205.4766887314199
 31
0.0
  0
LINE
  5
22A6A
  8
3
 10
603.87739324007748
 20
199.01068873141961
 30
0.0
 11
601.87739324007737
 21
199.01068873141961
 31
0.0
  0
LINE
  5
22A6B
  8
0
 10
325.16064931738077
 20
205.8569391660985
 30
0.0
 11
325.16064931738077
 21
198.630438296741
 31
0.0
  0
LINE
  5
22A6C
  8
0
 10
312.64398265071441
 20
205.8569391660985
 30
0.0
 11
312.64398265071441
 21
198.630438296741
 31
0.0
  0
LINE
  5
22A6D
  8
0
 10
325.16064931738077
 20
198.630438296741
 30
0.0
 11
318.90231598404762
 21
195.01718786206311
 31
0.0
  0
LINE
  5
22A6E
  8
0
 10
312.64398265071441
 20
198.630438296741
 30
0.0
 11
318.90231598404762
 21
195.01718786206311
 31
0.0
  0
LINE
  5
22A6F
  8
0
 10
325.16064931738077
 20
205.8569391660985
 30
0.0
 11
318.90231598404762
 21
209.4701896007773
 31
0.0
  0
LINE
  5
22A70
  8
0
 10
312.64398265071441
 20
205.8569391660985
 30
0.0
 11
318.90231598404762
 21
209.4701896007773
 31
0.0
  0
CIRCLE
  5
22A71
  8
0
 10
318.90231598404807
 20
202.24368873141981
 30
0.0
 40
6.2583333333333311
  0
LINE
  5
22A72
  8
1
 10
244.67390457680861
 20
202.24368873141981
 30
0.0
 11
393.1307273912866
 21
202.24368873141981
 31
0.0
  0
LINE
  5
22A73
  8
1
 10
318.90231598404762
 20
128.01527732418069
 30
0.0
 11
318.90231598404762
 21
269.95159163403878
 31
0.0
  0
ARC
  5
22A74
  8
0
 10
318.90231598404762
 20
202.24368873141981
 30
0.0
 40
52.44013179854737
 50
101.19097298621961
 51
38.002477578744319
  0
ARC
  5
22A75
  8
0
 10
318.90231598404762
 20
202.24368873141981
 30
0.0
 40
56.070395395642208
 50
100.112033347896
 51
39.009193966275582
  0
ARC
  5
22A76
  8
0
 10
318.90231598404739
 20
202.5608121312562
 30
0.0
 40
37.810238368129291
 50
107.7351656284898
 51
31.028527517692691
  0
ARC
  5
22A77
  8
0
 10
318.90231598404762
 20
202.24368873141981
 30
0.0
 40
49.999999999999957
 50
102.008157300134
 51
37.240470051827877
  0
ARC
  5
22A78
  8
0
 10
318.90231598404762
 20
202.24368873141981
 30
0.0
 40
62.5
 50
98.518683704574201
 51
40.497082732280369
  0
ARC
  5
22A79
  8
0
 10
318.90231598404762
 20
202.24368873141981
 30
0.0
 40
31.210913055372199
 50
112.99289592298381
 51
27.051150670576011
  0
LINE
  5
22A7C
  8
1
 10
568.87739324007805
 20
311.7085891019542
 30
0.0
 11
568.87739324007794
 21
128.01527732418069
 31
0.0
  0
LINE
  5
22A7D
  8
1
 10
610.48642783259584
 20
202.24368873141981
 30
0.0
 11
527.26835864756004
 21
202.24368873141981
 31
0.0
  0
LINE
  5
22DF9
  8
0
 10
93.880400343976135
 20
194.74368521474571
 30
0.0
 11
90.130400194964523
 21
194.74368521474571
 31
0.0
  0
LINE
  5
22DFA
  8
0
 10
90.130400194964523
 20
209.74368581079219
 30
0.0
 11
93.880400343976135
 21
209.74368581079219
 31
0.0
  0
LINE
  5
22DFB
  8
0
 10
135.13040198310381
 20
194.74368521474571
 30
0.0
 11
131.3804020669229
 21
194.74368521474571
 31
0.0
  0
LINE
  5
22DFC
  8
0
 10
131.3804020669229
 20
209.74368581079219
 30
0.0
 11
135.13040198310381
 21
209.74368581079219
 31
0.0
  0
LINE
  5
22DFD
  8
0
 10
82.130402608952636
 20
196.42868617080421
 30
0.0
 11
79.630401267848129
 21
196.42868617080421
 31
0.0
  0
LINE
  5
22DFE
  8
0
 10
79.630401267848129
 20
208.05869230531431
 30
0.0
 11
82.130402608952636
 21
208.05869230531431
 31
0.0
  0
LINE
  5
22DFF
  8
0
 10
138.2304020721383
 20
196.42868617080421
 30
0.0
 11
137.63040192722451
 21
196.42868617080421
 31
0.0
  0
LINE
  5
22E00
  8
0
 10
137.63040192722451
 20
208.05869230531431
 30
0.0
 11
138.2304020721383
 21
208.05869230531431
 31
0.0
  0
LINE
  5
22E01
  8
0
 10
79.630401267848129
 20
198.24369230769841
 30
0.0
 11
78.397400959572906
 21
198.24369230769841
 31
0.0
  0
LINE
  5
22E02
  8
0
 10
78.397400959572906
 20
206.24368616842
 30
0.0
 11
79.630401267848129
 21
206.24368616842
 31
0.0
  0
LINE
  5
22E03
  8
0
 10
78.397400959572906
 20
198.24369230769841
 30
0.0
 11
77.630400940022582
 21
199.01069232724871
 31
0.0
  0
LINE
  5
22E04
  8
0
 10
77.630400940022582
 20
205.4766861488697
 30
0.0
 11
78.397400959572906
 21
206.24368616842
 31
0.0
  0
LINE
  5
22E05
  8
0
 10
82.130402608952636
 20
208.50202420257301
 30
0.0
 11
82.389820649466628
 21
209.47018989824031
 31
0.0
  0
LINE
  5
22E06
  8
0
 10
82.389820649466628
 20
195.01718857787819
 30
0.0
 11
82.130402608952636
 21
195.9853542735454
 31
0.0
  0
LINE
  5
22E07
  8
0
 10
87.630402579150314
 20
195.9853542735454
 30
0.0
 11
87.370980813346023
 21
195.01718857787819
 31
0.0
  0
LINE
  5
22E08
  8
0
 10
87.370980813346023
 20
209.47018989824031
 30
0.0
 11
87.630402579150314
 21
208.50202420257301
 31
0.0
  0
LINE
  5
22E09
  8
0
 10
138.2304020721383
 20
208.50202420257301
 30
0.0
 11
138.4898217424668
 21
209.47018989824031
 31
0.0
  0
LINE
  5
22E0A
  8
0
 10
138.4898217424668
 20
195.01718857787819
 30
0.0
 11
138.2304020721383
 21
195.9853542735454
 31
0.0
  0
LINE
  5
22E0B
  8
0
 10
142.93040177150729
 20
195.9853542735454
 30
0.0
 11
142.67098233400949
 21
195.01718857787819
 31
0.0
  0
LINE
  5
22E0C
  8
0
 10
142.67098233400949
 20
209.47018989824031
 30
0.0
 11
142.93040177150729
 21
208.50202420257301
 31
0.0
  0
LINE
  5
22E0D
  8
0
 10
148.6304023332811
 20
292.4436887493012
 30
0.0
 11
147.13162305130729
 21
283.94368828736521
 31
0.0
  0
LINE
  5
22E0E
  8
0
 10
78.129180058083648
 20
283.94368828736521
 30
0.0
 11
76.630402638754958
 21
292.4436887493012
 31
0.0
  0
LINE
  5
22E0F
  8
0
 10
147.43040157779231
 20
293.24368878729911
 30
0.0
 11
147.43040157779231
 21
292.4436887493012
 31
0.0
  0
LINE
  5
22E10
  8
0
 10
77.830400600276107
 20
292.4436887493012
 30
0.0
 11
77.830400600276107
 21
293.24368878729911
 31
0.0
  0
LINE
  5
22E11
  8
0
 10
145.63040184154281
 20
283.94368828736521
 30
0.0
 11
145.63040184154281
 21
228.7493867566464
 31
0.0
  0
LINE
  5
22E12
  8
0
 10
79.630401267848129
 20
228.7493867566464
 30
0.0
 11
79.630401267848129
 21
283.94368828736521
 31
0.0
  0
LINE
  5
22E1B
  8
0
 10
90.130400194964523
 20
192.2436875989315
 30
0.0
 11
87.630402579150314
 21
192.2436875989315
 31
0.0
  0
LINE
  5
22E1C
  8
0
 10
137.63040192722451
 20
192.2436875989315
 30
0.0
 11
135.13040198310381
 21
192.2436875989315
 31
0.0
  0
LINE
  5
22E1D
  8
0
 10
90.130400194964636
 20
278.24368889086333
 30
0.0
 11
90.130400194964295
 21
192.2436875989315
 31
0.0
  0
LINE
  5
22E1E
  8
0
 10
137.63040192722451
 20
192.2436875989315
 30
0.0
 11
137.63040192722451
 21
281.94368889086218
 31
0.0
  0
LINE
  5
22E1F
  8
0
 10
135.13040198310361
 20
192.2436875989315
 30
0.0
 11
135.13040198310389
 21
278.24368889086333
 31
0.0
  0
LINE
  5
22E20
  8
0
 10
70.130404367289657
 20
293.24368878729911
 30
0.0
 11
70.130404367289657
 21
295.74368873141981
 31
0.0
  0
LINE
  5
22E21
  8
0
 10
155.130401536069
 20
293.24368878729911
 30
0.0
 11
155.130401536069
 21
295.74368873141981
 31
0.0
  0
LINE
  5
22E22
  8
0
 10
155.130401536069
 20
295.74368873141981
 30
0.0
 11
70.130404367289884
 21
295.74368873141981
 31
0.0
  0
LINE
  5
22E23
  8
0
 10
155.130401536069
 20
293.24368878729911
 30
0.0
 11
70.130404367289884
 21
293.24368878729911
 31
0.0
  0
LINE
  5
22E24
  8
0
 10
87.630402579150314
 20
281.94368889086218
 30
0.0
 11
137.63040192722451
 21
281.94368889086218
 31
0.0
  0
POLYLINE
  5
22E25
  8
0
 66
     1
 10
0.0
 20
0.0
 30
0.0
 70
   128
  0
VERTEX
  5
273D3
  8
0
 10
87.370980813346023
 20
198.6304370453235
 30
0.0
  0
VERTEX
  5
273D4
  8
0
 10
87.479748114190215
 20
199.5319349458095
 30
0.0
  0
VERTEX
  5
273D5
  8
0
 10
87.630402579150314
 20
202.24368551276891
 30
0.0
  0
SEQEND
  5
273D6
  8
0
  0
LINE
  5
22E26
  8
0
 10
87.630402579150314
 20
196.8238128116009
 30
0.0
 11
87.370980813346023
 21
198.6304370453235
 31
0.0
  0
LINE
  5
22E27
  8
0
 10
87.370980813346023
 20
205.8569414307949
 30
0.0
 11
87.630402579150314
 21
207.66356566451759
 31
0.0
  0
LINE
  5
22E28
  8
0
 10
87.630402579150314
 20
202.24368551276891
 30
0.0
 11
87.370980813346023
 21
205.8569414307949
 31
0.0
  0
LINE
  5
22E29
  8
0
 10
82.389820649466628
 20
205.8569414307949
 30
0.0
 11
82.130402608952636
 21
202.24368551276891
 31
0.0
  0
LINE
  5
22E2A
  8
0
 10
82.130402608952636
 20
207.66356566451759
 30
0.0
 11
82.389820649466628
 21
205.8569414307949
 31
0.0
  0
LINE
  5
22E2B
  8
0
 10
82.130402608952636
 20
202.24368551276891
 30
0.0
 11
82.130402608952636
 21
207.66356566451759
 31
0.0
  0
LINE
  5
22E2C
  8
0
 10
87.630402579150314
 20
207.66356566451759
 30
0.0
 11
87.370980813346023
 21
209.47018989824031
 31
0.0
  0
LINE
  5
22E2D
  8
0
 10
82.389820649466628
 20
209.47018989824031
 30
0.0
 11
87.370980813346023
 21
209.47018989824031
 31
0.0
  0
LINE
  5
22E2E
  8
0
 10
82.389820649466628
 20
209.47018989824031
 30
0.0
 11
82.130402608952636
 21
207.66356566451759
 31
0.0
  0
LINE
  5
22E2F
  8
0
 10
82.389820649466628
 20
205.8569414307949
 30
0.0
 11
87.370980813346023
 21
205.8569414307949
 31
0.0
  0
POLYLINE
  5
22E30
  8
0
 66
     1
 10
0.0
 20
0.0
 30
0.0
 70
   128
  0
VERTEX
  5
273D7
  8
0
 10
82.130402608952636
 20
202.24368551276891
 30
0.0
  0
VERTEX
  5
273D8
  8
0
 10
82.281057073912734
 20
199.5319349458095
 30
0.0
  0
VERTEX
  5
273D9
  8
0
 10
82.389820649466628
 20
198.6304370453235
 30
0.0
  0
SEQEND
  5
273DA
  8
0
  0
LINE
  5
22E31
  8
0
 10
82.389820649466628
 20
198.6304370453235
 30
0.0
 11
87.370980813346023
 21
198.6304370453235
 31
0.0
  0
LINE
  5
22E32
  8
0
 10
82.130402608952636
 20
196.8238128116009
 30
0.0
 11
82.130402608952636
 21
202.24368551276891
 31
0.0
  0
LINE
  5
22E33
  8
0
 10
82.389820649466628
 20
198.6304370453235
 30
0.0
 11
82.130402608952636
 21
196.8238128116009
 31
0.0
  0
LINE
  5
22E34
  8
0
 10
87.370980813346023
 20
195.01718857787819
 30
0.0
 11
87.630402579150314
 21
196.8238128116009
 31
0.0
  0
LINE
  5
22E35
  8
0
 10
82.130402608952636
 20
196.8238128116009
 30
0.0
 11
82.389820649466628
 21
195.01718857787819
 31
0.0
  0
LINE
  5
22E36
  8
0
 10
82.389820649466628
 20
195.01718857787819
 30
0.0
 11
87.370980813346023
 21
195.01718857787819
 31
0.0
  0
LINE
  5
22E37
  8
0
 10
138.4898217424668
 20
198.6304370453235
 30
0.0
 11
142.67098233400949
 21
198.6304370453235
 31
0.0
  0
LINE
  5
22E38
  8
0
 10
138.2304020721383
 20
196.8238128116009
 30
0.0
 11
138.4898217424668
 21
198.6304370453235
 31
0.0
  0
LINE
  5
22E39
  8
0
 10
138.4898217424668
 20
195.01718857787819
 30
0.0
 11
138.2304020721383
 21
196.8238128116009
 31
0.0
  0
LINE
  5
22E3A
  8
0
 10
138.4898217424668
 20
195.01718857787819
 30
0.0
 11
142.67098233400949
 21
195.01718857787819
 31
0.0
  0
LINE
  5
22E3B
  8
0
 10
142.93040177150729
 20
196.8238128116009
 30
0.0
 11
142.67098233400949
 21
195.01718857787819
 31
0.0
  0
LINE
  5
22E3C
  8
0
 10
142.67098233400949
 20
198.6304370453235
 30
0.0
 11
142.93040177150729
 21
196.8238128116009
 31
0.0
  0
LINE
  5
22E3D
  8
0
 10
138.4898217424668
 20
209.47018989824031
 30
0.0
 11
142.67098233400949
 21
209.47018989824031
 31
0.0
  0
LINE
  5
22E3E
  8
0
 10
138.2304020721383
 20
207.66356566451759
 30
0.0
 11
138.4898217424668
 21
209.47018989824031
 31
0.0
  0
LINE
  5
22E3F
  8
0
 10
138.4898217424668
 20
205.8569414307949
 30
0.0
 11
138.2304020721383
 21
207.66356566451759
 31
0.0
  0
LINE
  5
22E40
  8
0
 10
138.4898217424668
 20
205.8569414307949
 30
0.0
 11
142.67098233400949
 21
205.8569414307949
 31
0.0
  0
LINE
  5
22E41
  8
0
 10
142.93040177150729
 20
207.66356566451759
 30
0.0
 11
142.67098233400949
 21
205.8569414307949
 31
0.0
  0
LINE
  5
22E42
  8
0
 10
142.67098233400949
 20
209.47018989824031
 30
0.0
 11
142.93040177150729
 21
207.66356566451759
 31
0.0
  0
LINE
  5
22E43
  8
0
 10
138.2304020721383
 20
202.24368551276891
 30
0.0
 11
138.4898217424668
 21
205.8569414307949
 31
0.0
  0
POLYLINE
  5
22E44
  8
0
 66
     1
 10
0.0
 20
0.0
 30
0.0
 70
   128
  0
VERTEX
  5
273DB
  8
0
 10
138.4898217424668
 20
198.6304370453235
 30
0.0
  0
VERTEX
  5
273DC
  8
0
 10
138.38105607143709
 20
199.5319349458095
 30
0.0
  0
VERTEX
  5
273DD
  8
0
 10
138.2304020721383
 20
202.24368551276891
 30
0.0
  0
SEQEND
  5
273DE
  8
0
  0
POLYLINE
  5
22E45
  8
0
 66
     1
 10
0.0
 20
0.0
 30
0.0
 70
   128
  0
VERTEX
  5
273DF
  8
0
 10
142.93040177150729
 20
202.24368551276891
 30
0.0
  0
VERTEX
  5
273E0
  8
0
 10
142.77974777220851
 20
199.5319349458095
 30
0.0
  0
VERTEX
  5
273E1
  8
0
 10
142.67098233400949
 20
198.6304370453235
 30
0.0
  0
SEQEND
  5
273E2
  8
0
  0
LINE
  5
22E46
  8
0
 10
142.67098233400949
 20
205.8569414307949
 30
0.0
 11
142.93040177150729
 21
202.24368551276891
 31
0.0
  0
LINE
  5
22E47
  8
0
 10
79.630401267848129
 20
196.42868617080421
 30
0.0
 11
79.630401267848129
 21
208.05869230531329
 31
0.0
  0
LINE
  5
22E48
  8
0
 10
78.397400959572906
 20
198.24369230769841
 30
0.0
 11
78.397400959572906
 21
206.24368616842
 31
0.0
  0
LINE
  5
22E49
  8
0
 10
77.630400940022582
 20
199.01069232724871
 30
0.0
 11
77.630400940022582
 21
205.4766861488697
 31
0.0
  0
LINE
  5
22E4A
  8
0
 10
82.130402608952636
 20
207.66356566451759
 30
0.0
 11
82.130402608952636
 21
208.50202420257301
 31
0.0
  0
LINE
  5
22E4B
  8
0
 10
82.130402608952636
 20
195.9853542735454
 30
0.0
 11
82.130402608952636
 21
196.8238128116009
 31
0.0
  0
LINE
  5
22E4C
  8
0
 10
147.13162305130729
 20
283.94368828736521
 30
0.0
 11
78.129180058083648
 21
283.94368828736521
 31
0.0
  0
LINE
  5
22E4D
  8
0
 10
148.6304023332811
 20
292.4436887493012
 30
0.0
 11
76.630402638754958
 21
292.4436887493012
 31
0.0
  0
POLYLINE
  5
22E4E
  8
0
 10
145.63040198310389
 20
228.74938604384354
 30
0.0
 66
     1
 70
     8
  0
VERTEX
  8
0
  5
2742F
 10
145.630
 20
228.749
 30
0.000000
  70
    32
  0
VERTEX
  8
0
  5
27430
 10
145.630
 20
228.594
 30
0.000000
  70
    32
  0
VERTEX
  8
0
  5
27431
 10
145.630
 20
228.438
 30
0.000000
  70
    32
  0
VERTEX
  8
0
  5
27432
 10
145.629
 20
228.282
 30
0.000000
  70
    32
  0
VERTEX
  8
0
  5
27433
 10
145.627
 20
228.126
 30
0.000000
  70
    32
  0
VERTEX
  8
0
  5
27434
 10
145.625
 20
227.970
 30
0.000000
  70
    32
  0
VERTEX
  8
0
  5
27435
 10
145.623
 20
227.814
 30
0.000000
  70
    32
  0
VERTEX
  8
0
  5
27436
 10
145.620
 20
227.658
 30
0.000000
  70
    32
  0
VERTEX
  8
0
  5
27437
 10
145.617
 20
227.503
 30
0.000000
  70
    32
  0
VERTEX
  8
0
  5
27438
 10
145.614
 20
227.347
 30
0.000000
  70
    32
  0
VERTEX
  8
0
  5
27439
 10
145.610
 20
227.191
 30
0.000000
  70
    32
  0
VERTEX
  8
0
  5
2743A
 10
145.606
 20
227.035
 30
0.000000
  70
    32
  0
VERTEX
  8
0
  5
2743B
 10
145.601
 20
226.879
 30
0.000000
  70
    32
  0
VERTEX
  8
0
  5
2743C
 10
145.596
 20
226.724
 30
0.000000
  70
    32
  0
VERTEX
  8
0
  5
2743D
 10
145.590
 20
226.568
 30
0.000000
  70
    32
  0
VERTEX
  8
0
  5
2743E
 10
145.584
 20
226.412
 30
0.000000
  70
    32
  0
VERTEX
  8
0
  5
2743F
 10
145.578
 20
226.257
 30
0.000000
  70
    32
  0
VERTEX
  8
0
  5
27440
 10
145.571
 20
226.101
 30
0.000000
  70
    32
  0
VERTEX
  8
0
  5
27441
 10
145.564
 20
225.946
 30
0.000000
  70
    32
  0
VERTEX
  8
0
  5
27442
 10
145.556
 20
225.790
 30
0.000000
  70
    32
  0
VERTEX
  8
0
  5
27443
 10
145.548
 20
225.635
 30
0.000000
  70
    32
  0
VERTEX
  8
0
  5
27444
 10
145.540
 20
225.479
 30
0.000000
  70
    32
  0
VERTEX
  8
0
  5
27445
 10
145.531
 20
225.324
 30
0.000000
  70
    32
  0
VERTEX
  8
0
  5
27446
 10
145.522
 20
225.168
 30
0.000000
  70
    32
  0
VERTEX
  8
0
  5
27447
 10
145.512
 20
225.013
 30
0.000000
  70
    32
  0
VERTEX
  8
0
  5
27448
 10
145.502
 20
224.858
 30
0.000000
  70
    32
  0
VERTEX
  8
0
  5
27449
 10
145.491
 20
224.702
 30
0.000000
  70
    32
  0
VERTEX
  8
0
  5
2744A
 10
145.481
 20
224.547
 30
0.000000
  70
    32
  0
VERTEX
  8
0
  5
2744B
 10
145.469
 20
224.392
 30
0.000000
  70
    32
  0
VERTEX
  8
0
  5
2744C
 10
145.458
 20
224.237
 30
0.000000
  70
    32
  0
VERTEX
  8
0
  5
2744D
 10
145.445
 20
224.082
 30
0.000000
  70
    32
  0
VERTEX
  8
0
  5
2744E
 10
145.433
 20
223.927
 30
0.000000
  70
    32
  0
VERTEX
  8
0
  5
2744F
 10
145.420
 20
223.772
 30
0.000000
  70
    32
  0
VERTEX
  8
0
  5
27450
 10
145.407
 20
223.617
 30
0.000000
  70
    32
  0
VERTEX
  8
0
  5
27451
 10
145.393
 20
223.462
 30
0.000000
  70
    32
  0
VERTEX
  8
0
  5
27452
 10
145.379
 20
223.308
 30
0.000000
  70
    32
  0
VERTEX
  8
0
  5
27453
 10
145.364
 20
223.153
 30
0.000000
  70
    32
  0
VERTEX
  8
0
  5
27454
 10
145.349
 20
222.999
 30
0.000000
  70
    32
  0
VERTEX
  8
0
  5
27455
 10
145.334
 20
222.844
 30
0.000000
  70
    32
  0
VERTEX
  8
0
  5
27456
 10
145.318
 20
222.690
 30
0.000000
  70
    32
  0
VERTEX
  8
0
  5
27457
 10
145.302
 20
222.535
 30
0.000000
  70
    32
  0
VERTEX
  8
0
  5
27458
 10
145.285
 20
222.381
 30
0.000000
  70
    32
  0
VERTEX
  8
0
  5
27459
 10
145.268
 20
222.227
 30
0.000000
  70
    32
  0
VERTEX
  8
0
  5
2745A
 10
145.251
 20
222.073
 30
0.000000
  70
    32
  0
VERTEX
  8
0
  5
2745B
 10
145.233
 20
221.919
 30
0.000000
  70
    32
  0
VERTEX
  8
0
  5
2745C
 10
145.215
 20
221.765
 30
0.000000
  70
    32
  0
VERTEX
  8
0
  5
2745D
 10
145.196
 20
221.611
 30
0.000000
  70
    32
  0
VERTEX
  8
0
  5
2745E
 10
145.177
 20
221.457
 30
0.000000
  70
    32
  0
VERTEX
  8
0
  5
2745F
 10
145.158
 20
221.303
 30
0.000000
  70
    32
  0
VERTEX
  8
0
  5
27460
 10
145.138
 20
221.150
 30
0.000000
  70
    32
  0
VERTEX
  8
0
  5
27461
 10
145.117
 20
220.996
 30
0.000000
  70
    32
  0
VERTEX
  8
0
  5
27462
 10
145.097
 20
220.843
 30
0.000000
  70
    32
  0
VERTEX
  8
0
  5
27463
 10
145.076
 20
220.690
 30
0.000000
  70
    32
  0
VERTEX
  8
0
  5
27464
 10
145.054
 20
220.536
 30
0.000000
  70
    32
  0
VERTEX
  8
0
  5
27465
 10
145.032
 20
220.383
 30
0.000000
  70
    32
  0
VERTEX
  8
0
  5
27466
 10
145.010
 20
220.230
 30
0.000000
  70
    32
  0
VERTEX
  8
0
  5
27467
 10
144.987
 20
220.077
 30
0.000000
  70
    32
  0
VERTEX
  8
0
  5
27468
 10
144.964
 20
219.925
 30
0.000000
  70
    32
  0
VERTEX
  8
0
  5
27469
 10
144.941
 20
219.772
 30
0.000000
  70
    32
  0
VERTEX
  8
0
  5
2746A
 10
144.917
 20
219.619
 30
0.000000
  70
    32
  0
VERTEX
  8
0
  5
2746B
 10
144.893
 20
219.467
 30
0.000000
  70
    32
  0
VERTEX
  8
0
  5
2746C
 10
144.868
 20
219.315
 30
0.000000
  70
    32
  0
VERTEX
  8
0
  5
2746D
 10
144.843
 20
219.162
 30
0.000000
  70
    32
  0
VERTEX
  8
0
  5
2746E
 10
144.817
 20
219.010
 30
0.000000
  70
    32
  0
VERTEX
  8
0
  5
2746F
 10
144.791
 20
218.858
 30
0.000000
  70
    32
  0
VERTEX
  8
0
  5
27470
 10
144.765
 20
218.706
 30
0.000000
  70
    32
  0
VERTEX
  8
0
  5
27471
 10
144.738
 20
218.555
 30
0.000000
  70
    32
  0
VERTEX
  8
0
  5
27472
 10
144.711
 20
218.403
 30
0.000000
  70
    32
  0
VERTEX
  8
0
  5
27473
 10
144.684
 20
218.252
 30
0.000000
  70
    32
  0
VERTEX
  8
0
  5
27474
 10
144.656
 20
218.100
 30
0.000000
  70
    32
  0
VERTEX
  8
0
  5
27475
 10
144.627
 20
217.949
 30
0.000000
  70
    32
  0
VERTEX
  8
0
  5
27476
 10
144.599
 20
217.798
 30
0.000000
  70
    32
  0
VERTEX
  8
0
  5
27477
 10
144.570
 20
217.647
 30
0.000000
  70
    32
  0
VERTEX
  8
0
  5
27478
 10
144.540
 20
217.496
 30
0.000000
  70
    32
  0
VERTEX
  8
0
  5
27479
 10
144.510
 20
217.346
 30
0.000000
  70
    32
  0
VERTEX
  8
0
  5
2747A
 10
144.480
 20
217.195
 30
0.000000
  70
    32
  0
VERTEX
  8
0
  5
2747B
 10
144.449
 20
217.045
 30
0.000000
  70
    32
  0
VERTEX
  8
0
  5
2747C
 10
144.418
 20
216.895
 30
0.000000
  70
    32
  0
VERTEX
  8
0
  5
2747D
 10
144.387
 20
216.745
 30
0.000000
  70
    32
  0
VERTEX
  8
0
  5
2747E
 10
144.355
 20
216.595
 30
0.000000
  70
    32
  0
VERTEX
  8
0
  5
2747F
 10
144.323
 20
216.445
 30
0.000000
  70
    32
  0
VERTEX
  8
0
  5
27480
 10
144.290
 20
216.295
 30
0.000000
  70
    32
  0
VERTEX
  8
0
  5
27481
 10
144.257
 20
216.146
 30
0.000000
  70
    32
  0
VERTEX
  8
0
  5
27482
 10
144.223
 20
215.996
 30
0.000000
  70
    32
  0
VERTEX
  8
0
  5
27483
 10
144.189
 20
215.847
 30
0.000000
  70
    32
  0
VERTEX
  8
0
  5
27484
 10
144.155
 20
215.698
 30
0.000000
  70
    32
  0
VERTEX
  8
0
  5
27485
 10
144.121
 20
215.550
 30
0.000000
  70
    32
  0
VERTEX
  8
0
  5
27486
 10
144.085
 20
215.401
 30
0.000000
  70
    32
  0
VERTEX
  8
0
  5
27487
 10
144.050
 20
215.252
 30
0.000000
  70
    32
  0
VERTEX
  8
0
  5
27488
 10
144.014
 20
215.104
 30
0.000000
  70
    32
  0
VERTEX
  8
0
  5
27489
 10
143.978
 20
214.956
 30
0.000000
  70
    32
  0
VERTEX
  8
0
  5
2748A
 10
143.941
 20
214.808
 30
0.000000
  70
    32
  0
VERTEX
  8
0
  5
2748B
 10
143.904
 20
214.660
 30
0.000000
  70
    32
  0
VERTEX
  8
0
  5
2748C
 10
143.867
 20
214.512
 30
0.000000
  70
    32
  0
VERTEX
  8
0
  5
2748D
 10
143.829
 20
214.365
 30
0.000000
  70
    32
  0
VERTEX
  8
0
  5
2748E
 10
143.791
 20
214.218
 30
0.000000
  70
    32
  0
VERTEX
  8
0
  5
2748F
 10
143.753
 20
214.071
 30
0.000000
  70
    32
  0
VERTEX
  8
0
  5
27490
 10
143.714
 20
213.924
 30
0.000000
  70
    32
  0
VERTEX
  8
0
  5
27491
 10
143.674
 20
213.777
 30
0.000000
  70
    32
  0
VERTEX
  8
0
  5
27492
 10
143.635
 20
213.630
 30
0.000000
  70
    32
  0
VERTEX
  8
0
  5
27493
 10
143.594
 20
213.484
 30
0.000000
  70
    32
  0
VERTEX
  8
0
  5
27494
 10
143.554
 20
213.338
 30
0.000000
  70
    32
  0
VERTEX
  8
0
  5
27495
 10
143.513
 20
213.192
 30
0.000000
  70
    32
  0
VERTEX
  8
0
  5
27496
 10
143.472
 20
213.046
 30
0.000000
  70
    32
  0
VERTEX
  8
0
  5
27497
 10
143.430
 20
212.901
 30
0.000000
  70
    32
  0
VERTEX
  8
0
  5
27498
 10
143.388
 20
212.755
 30
0.000000
  70
    32
  0
VERTEX
  8
0
  5
27499
 10
143.346
 20
212.610
 30
0.000000
  70
    32
  0
VERTEX
  8
0
  5
2749A
 10
143.303
 20
212.465
 30
0.000000
  70
    32
  0
VERTEX
  8
0
  5
2749B
 10
143.260
 20
212.320
 30
0.000000
  70
    32
  0
VERTEX
  8
0
  5
2749C
 10
143.216
 20
212.176
 30
0.000000
  70
    32
  0
VERTEX
  8
0
  5
2749D
 10
143.172
 20
212.031
 30
0.000000
  70
    32
  0
VERTEX
  8
0
  5
2749E
 10
143.128
 20
211.887
 30
0.000000
  70
    32
  0
VERTEX
  8
0
  5
2749F
 10
143.083
 20
211.743
 30
0.000000
  70
    32
  0
VERTEX
  8
0
  5
274A0
 10
143.038
 20
211.600
 30
0.000000
  70
    32
  0
VERTEX
  8
0
  5
274A1
 10
142.993
 20
211.456
 30
0.000000
  70
    32
  0
VERTEX
  8
0
  5
274A2
 10
142.947
 20
211.313
 30
0.000000
  70
    32
  0
VERTEX
  8
0
  5
274A3
 10
142.901
 20
211.170
 30
0.000000
  70
    32
  0
VERTEX
  8
0
  5
274A4
 10
142.854
 20
211.027
 30
0.000000
  70
    32
  0
VERTEX
  8
0
  5
274A5
 10
142.807
 20
210.884
 30
0.000000
  70
    32
  0
VERTEX
  8
0
  5
274A6
 10
142.760
 20
210.742
 30
0.000000
  70
    32
  0
VERTEX
  8
0
  5
274A7
 10
142.712
 20
210.599
 30
0.000000
  70
    32
  0
VERTEX
  8
0
  5
274A8
 10
142.664
 20
210.458
 30
0.000000
  70
    32
  0
VERTEX
  8
0
  5
274A9
 10
142.615
 20
210.316
 30
0.000000
  70
    32
  0
VERTEX
  8
0
  5
274AA
 10
142.567
 20
210.174
 30
0.000000
  70
    32
  0
VERTEX
  8
0
  5
274AB
 10
142.517
 20
210.033
 30
0.000000
  70
    32
  0
VERTEX
  8
0
  5
274AC
 10
142.468
 20
209.892
 30
0.000000
  70
    32
  0
VERTEX
  8
0
  5
274AD
 10
142.418
 20
209.751
 30
0.000000
  70
    32
  0
VERTEX
  8
0
  5
274AE
 10
142.368
 20
209.611
 30
0.000000
  70
    32
  0
VERTEX
  8
0
  5
274AF
 10
142.317
 20
209.470
 30
0.000000
  70
    32
  0
SEQEND
  8
0
  5
274B0
  0
POLYLINE
  5
22E4F
  8
0
 10
82.943981635912607
 20
209.47018960077634
 30
0.0
 66
     1
 70
     8
  0
VERTEX
  8
0
  5
274B1
 10
82.9440
 20
209.470
 30
0.000000
  70
    32
  0
VERTEX
  8
0
  5
274B2
 10
82.8933
 20
209.611
 30
0.000000
  70
    32
  0
VERTEX
  8
0
  5
274B3
 10
82.8429
 20
209.751
 30
0.000000
  70
    32
  0
VERTEX
  8
0
  5
274B4
 10
82.7930
 20
209.892
 30
0.000000
  70
    32
  0
VERTEX
  8
0
  5
274B5
 10
82.7434
 20
210.033
 30
0.000000
  70
    32
  0
VERTEX
  8
0
  5
274B6
 10
82.6942
 20
210.174
 30
0.000000
  70
    32
  0
VERTEX
  8
0
  5
274B7
 10
82.6453
 20
210.316
 30
0.000000
  70
    32
  0
VERTEX
  8
0
  5
274B8
 10
82.5969
 20
210.458
 30
0.000000
  70
    32
  0
VERTEX
  8
0
  5
274B9
 10
82.5488
 20
210.599
 30
0.000000
  70
    32
  0
VERTEX
  8
0
  5
274BA
 10
82.5010
 20
210.742
 30
0.000000
  70
    32
  0
VERTEX
  8
0
  5
274BB
 10
82.4537
 20
210.884
 30
0.000000
  70
    32
  0
VERTEX
  8
0
  5
274BC
 10
82.4067
 20
211.027
 30
0.000000
  70
    32
  0
VERTEX
  8
0
  5
274BD
 10
82.3601
 20
211.170
 30
0.000000
  70
    32
  0
VERTEX
  8
0
  5
274BE
 10
82.3139
 20
211.313
 30
0.000000
  70
    32
  0
VERTEX
  8
0
  5
274BF
 10
82.2681
 20
211.456
 30
0.000000
  70
    32
  0
VERTEX
  8
0
  5
274C0
 10
82.2226
 20
211.600
 30
0.000000
  70
    32
  0
VERTEX
  8
0
  5
274C1
 10
82.1775
 20
211.743
 30
0.000000
  70
    32
  0
VERTEX
  8
0
  5
274C2
 10
82.1328
 20
211.887
 30
0.000000
  70
    32
  0
VERTEX
  8
0
  5
274C3
 10
82.0885
 20
212.031
 30
0.000000
  70
    32
  0
VERTEX
  8
0
  5
274C4
 10
82.0446
 20
212.176
 30
0.000000
  70
    32
  0
VERTEX
  8
0
  5
274C5
 10
82.0010
 20
212.320
 30
0.000000
  70
    32
  0
VERTEX
  8
0
  5
274C6
 10
81.9578
 20
212.465
 30
0.000000
  70
    32
  0
VERTEX
  8
0
  5
274C7
 10
81.9150
 20
212.610
 30
0.000000
  70
    32
  0
VERTEX
  8
0
  5
274C8
 10
81.8726
 20
212.755
 30
0.000000
  70
    32
  0
VERTEX
  8
0
  5
274C9
 10
81.8306
 20
212.901
 30
0.000000
  70
    32
  0
VERTEX
  8
0
  5
274CA
 10
81.7890
 20
213.046
 30
0.000000
  70
    32
  0
VERTEX
  8
0
  5
274CB
 10
81.7477
 20
213.192
 30
0.000000
  70
    32
  0
VERTEX
  8
0
  5
274CC
 10
81.7068
 20
213.338
 30
0.000000
  70
    32
  0
VERTEX
  8
0
  5
274CD
 10
81.6663
 20
213.484
 30
0.000000
  70
    32
  0
VERTEX
  8
0
  5
274CE
 10
81.6262
 20
213.630
 30
0.000000
  70
    32
  0
VERTEX
  8
0
  5
274CF
 10
81.5865
 20
213.777
 30
0.000000
  70
    32
  0
VERTEX
  8
0
  5
274D0
 10
81.5472
 20
213.924
 30
0.000000
  70
    32
  0
VERTEX
  8
0
  5
274D1
 10
81.5083
 20
214.071
 30
0.000000
  70
    32
  0
VERTEX
  8
0
  5
274D2
 10
81.4697
 20
214.218
 30
0.000000
  70
    32
  0
VERTEX
  8
0
  5
274D3
 10
81.4315
 20
214.365
 30
0.000000
  70
    32
  0
VERTEX
  8
0
  5
274D4
 10
81.3938
 20
214.512
 30
0.000000
  70
    32
  0
VERTEX
  8
0
  5
274D5
 10
81.3564
 20
214.660
 30
0.000000
  70
    32
  0
VERTEX
  8
0
  5
274D6
 10
81.3194
 20
214.808
 30
0.000000
  70
    32
  0
VERTEX
  8
0
  5
274D7
 10
81.2828
 20
214.956
 30
0.000000
  70
    32
  0
VERTEX
  8
0
  5
274D8
 10
81.2466
 20
215.104
 30
0.000000
  70
    32
  0
VERTEX
  8
0
  5
274D9
 10
81.2107
 20
215.252
 30
0.000000
  70
    32
  0
VERTEX
  8
0
  5
274DA
 10
81.1753
 20
215.401
 30
0.000000
  70
    32
  0
VERTEX
  8
0
  5
274DB
 10
81.1403
 20
215.550
 30
0.000000
  70
    32
  0
VERTEX
  8
0
  5
274DC
 10
81.1056
 20
215.698
 30
0.000000
  70
    32
  0
VERTEX
  8
0
  5
274DD
 10
81.0714
 20
215.847
 30
0.000000
  70
    32
  0
VERTEX
  8
0
  5
274DE
 10
81.0375
 20
215.996
 30
0.000000
  70
    32
  0
VERTEX
  8
0
  5
274DF
 10
81.0040
 20
216.146
 30
0.000000
  70
    32
  0
VERTEX
  8
0
  5
274E0
 10
80.9710
 20
216.295
 30
0.000000
  70
    32
  0
VERTEX
  8
0
  5
274E1
 10
80.9383
 20
216.445
 30
0.000000
  70
    32
  0
VERTEX
  8
0
  5
274E2
 10
80.9060
 20
216.595
 30
0.000000
  70
    32
  0
VERTEX
  8
0
  5
274E3
 10
80.8741
 20
216.745
 30
0.000000
  70
    32
  0
VERTEX
  8
0
  5
274E4
 10
80.8426
 20
216.895
 30
0.000000
  70
    32
  0
VERTEX
  8
0
  5
274E5
 10
80.8115
 20
217.045
 30
0.000000
  70
    32
  0
VERTEX
  8
0
  5
274E6
 10
80.7808
 20
217.195
 30
0.000000
  70
    32
  0
VERTEX
  8
0
  5
274E7
 10
80.7505
 20
217.346
 30
0.000000
  70
    32
  0
VERTEX
  8
0
  5
274E8
 10
80.7206
 20
217.496
 30
0.000000
  70
    32
  0
VERTEX
  8
0
  5
274E9
 10
80.6911
 20
217.647
 30
0.000000
  70
    32
  0
VERTEX
  8
0
  5
274EA
 10
80.6620
 20
217.798
 30
0.000000
  70
    32
  0
VERTEX
  8
0
  5
274EB
 10
80.6333
 20
217.949
 30
0.000000
  70
    32
  0
VERTEX
  8
0
  5
274EC
 10
80.6050
 20
218.100
 30
0.000000
  70
    32
  0
VERTEX
  8
0
  5
274ED
 10
80.5771
 20
218.252
 30
0.000000
  70
    32
  0
VERTEX
  8
0
  5
274EE
 10
80.5496
 20
218.403
 30
0.000000
  70
    32
  0
VERTEX
  8
0
  5
274EF
 10
80.5225
 20
218.555
 30
0.000000
  70
    32
  0
VERTEX
  8
0
  5
274F0
 10
80.4958
 20
218.706
 30
0.000000
  70
    32
  0
VERTEX
  8
0
  5
274F1
 10
80.4695
 20
218.858
 30
0.000000
  70
    32
  0
VERTEX
  8
0
  5
274F2
 10
80.4436
 20
219.010
 30
0.000000
  70
    32
  0
VERTEX
  8
0
  5
274F3
 10
80.4180
 20
219.162
 30
0.000000
  70
    32
  0
VERTEX
  8
0
  5
274F4
 10
80.3929
 20
219.315
 30
0.000000
  70
    32
  0
VERTEX
  8
0
  5
274F5
 10
80.3682
 20
219.467
 30
0.000000
  70
    32
  0
VERTEX
  8
0
  5
274F6
 10
80.3439
 20
219.619
 30
0.000000
  70
    32
  0
VERTEX
  8
0
  5
274F7
 10
80.3200
 20
219.772
 30
0.000000
  70
    32
  0
VERTEX
  8
0
  5
274F8
 10
80.2965
 20
219.925
 30
0.000000
  70
    32
  0
VERTEX
  8
0
  5
274F9
 10
80.2735
 20
220.077
 30
0.000000
  70
    32
  0
VERTEX
  8
0
  5
274FA
 10
80.2508
 20
220.230
 30
0.000000
  70
    32
  0
VERTEX
  8
0
  5
274FB
 10
80.2285
 20
220.383
 30
0.000000
  70
    32
  0
VERTEX
  8
0
  5
274FC
 10
80.2066
 20
220.536
 30
0.000000
  70
    32
  0
VERTEX
  8
0
  5
274FD
 10
80.1851
 20
220.690
 30
0.000000
  70
    32
  0
VERTEX
  8
0
  5
274FE
 10
80.1640
 20
220.843
 30
0.000000
  70
    32
  0
VERTEX
  8
0
  5
274FF
 10
80.1434
 20
220.996
 30
0.000000
  70
    32
  0
VERTEX
  8
0
  5
27500
 10
80.1231
 20
221.150
 30
0.000000
  70
    32
  0
VERTEX
  8
0
  5
27501
 10
80.1033
 20
221.303
 30
0.000000
  70
    32
  0
VERTEX
  8
0
  5
27502
 10
80.0838
 20
221.457
 30
0.000000
  70
    32
  0
VERTEX
  8
0
  5
27503
 10
80.0648
 20
221.611
 30
0.000000
  70
    32
  0
VERTEX
  8
0
  5
27504
 10
80.0461
 20
221.765
 30
0.000000
  70
    32
  0
VERTEX
  8
0
  5
27505
 10
80.0279
 20
221.919
 30
0.000000
  70
    32
  0
VERTEX
  8
0
  5
27506
 10
80.0101
 20
222.073
 30
0.000000
  70
    32
  0
VERTEX
  8
0
  5
27507
 10
79.9926
 20
222.227
 30
0.000000
  70
    32
  0
VERTEX
  8
0
  5
27508
 10
79.9756
 20
222.381
 30
0.000000
  70
    32
  0
VERTEX
  8
0
  5
27509
 10
79.9590
 20
222.535
 30
0.000000
  70
    32
  0
VERTEX
  8
0
  5
2750A
 10
79.9428
 20
222.690
 30
0.000000
  70
    32
  0
VERTEX
  8
0
  5
2750B
 10
79.9270
 20
222.844
 30
0.000000
  70
    32
  0
VERTEX
  8
0
  5
2750C
 10
79.9116
 20
222.999
 30
0.000000
  70
    32
  0
VERTEX
  8
0
  5
2750D
 10
79.8967
 20
223.153
 30
0.000000
  70
    32
  0
VERTEX
  8
0
  5
2750E
 10
79.8821
 20
223.308
 30
0.000000
  70
    32
  0
VERTEX
  8
0
  5
2750F
 10
79.8679
 20
223.462
 30
0.000000
  70
    32
  0
VERTEX
  8
0
  5
27510
 10
79.8542
 20
223.617
 30
0.000000
  70
    32
  0
VERTEX
  8
0
  5
27511
 10
79.8408
 20
223.772
 30
0.000000
  70
    32
  0
VERTEX
  8
0
  5
27512
 10
79.8279
 20
223.927
 30
0.000000
  70
    32
  0
VERTEX
  8
0
  5
27513
 10
79.8154
 20
224.082
 30
0.000000
  70
    32
  0
VERTEX
  8
0
  5
27514
 10
79.8033
 20
224.237
 30
0.000000
  70
    32
  0
VERTEX
  8
0
  5
27515
 10
79.7916
 20
224.392
 30
0.000000
  70
    32
  0
VERTEX
  8
0
  5
27516
 10
79.7803
 20
224.547
 30
0.000000
  70
    32
  0
VERTEX
  8
0
  5
27517
 10
79.7694
 20
224.702
 30
0.000000
  70
    32
  0
VERTEX
  8
0
  5
27518
 10
79.7589
 20
224.858
 30
0.000000
  70
    32
  0
VERTEX
  8
0
  5
27519
 10
79.7488
 20
225.013
 30
0.000000
  70
    32
  0
VERTEX
  8
0
  5
2751A
 10
79.7392
 20
225.168
 30
0.000000
  70
    32
  0
VERTEX
  8
0
  5
2751B
 10
79.7299
 20
225.324
 30
0.000000
  70
    32
  0
VERTEX
  8
0
  5
2751C
 10
79.7211
 20
225.479
 30
0.000000
  70
    32
  0
VERTEX
  8
0
  5
2751D
 10
79.7127
 20
225.635
 30
0.000000
  70
    32
  0
VERTEX
  8
0
  5
2751E
 10
79.7046
 20
225.790
 30
0.000000
  70
    32
  0
VERTEX
  8
0
  5
2751F
 10
79.6970
 20
225.946
 30
0.000000
  70
    32
  0
VERTEX
  8
0
  5
27520
 10
79.6898
 20
226.101
 30
0.000000
  70
    32
  0
VERTEX
  8
0
  5
27521
 10
79.6831
 20
226.257
 30
0.000000
  70
    32
  0
VERTEX
  8
0
  5
27522
 10
79.6767
 20
226.412
 30
0.000000
  70
    32
  0
VERTEX
  8
0
  5
27523
 10
79.6707
 20
226.568
 30
0.000000
  70
    32
  0
VERTEX
  8
0
  5
27524
 10
79.6652
 20
226.724
 30
0.000000
  70
    32
  0
VERTEX
  8
0
  5
27525
 10
79.6600
 20
226.879
 30
0.000000
  70
    32
  0
VERTEX
  8
0
  5
27526
 10
79.6553
 20
227.035
 30
0.000000
  70
    32
  0
VERTEX
  8
0
  5
27527
 10
79.6510
 20
227.191
 30
0.000000
  70
    32
  0
VERTEX
  8
0
  5
27528
 10
79.6471
 20
227.347
 30
0.000000
  70
    32
  0
VERTEX
  8
0
  5
27529
 10
79.6436
 20
227.503
 30
0.000000
  70
    32
  0
VERTEX
  8
0
  5
2752A
 10
79.6405
 20
227.658
 30
0.000000
  70
    32
  0
VERTEX
  8
0
  5
2752B
 10
79.6378
 20
227.814
 30
0.000000
  70
    32
  0
VERTEX
  8
0
  5
2752C
 10
79.6355
 20
227.970
 30
0.000000
  70
    32
  0
VERTEX
  8
0
  5
2752D
 10
79.6337
 20
228.126
 30
0.000000
  70
    32
  0
VERTEX
  8
0
  5
2752E
 10
79.6323
 20
228.282
 30
0.000000
  70
    32
  0
VERTEX
  8
0
  5
2752F
 10
79.6312
 20
228.438
 30
0.000000
  70
    32
  0
VERTEX
  8
0
  5
27530
 10
79.6306
 20
228.594
 30
0.000000
  70
    32
  0
VERTEX
  8
0
  5
27531
 10
79.6304
 20
228.749
 30
0.000000
  70
    32
  0
SEQEND
  8
0
  5
27532
  0
LINE
  5
22E52
  8
0
 10
109.6304029516796
 20
139.7436887314197
 30
0.0
 11
115.6304029516795
 21
139.7436887314197
 31
0.0
  0
ARC
  5
22E53
  8
0
 10
115.6304029516795
 20
140.04368873141991
 30
0.0
 40
0.3000000000000185
 50
270.0
 51
0.0
  0
LINE
  5
22E54
  8
0
 10
115.9304029516795
 20
140.04368873141991
 30
0.0
 11
118.3304029516796
 21
140.04368873141991
 31
0.0
  0
ARC
  5
22E55
  8
0
 10
118.6304029516795
 20
140.04368873141991
 30
0.0
 40
0.2999999999999998
 50
180.0
 51
270.0
  0
LINE
  5
22E56
  8
0
 10
118.6304029516795
 20
139.7436887314197
 30
0.0
 11
122.058919551541
 21
139.7436887314197
 31
0.0
  0
ARC
  5
22E57
  8
0
 10
122.058919551541
 20
140.7436887314197
 30
0.0
 40
1.0000000000000211
 50
270.0
 51
341.00000000001017
  0
LINE
  5
22E58
  8
0
 10
124.41286351235679
 20
259.9788925617367
 30
0.0
 11
123.2241743053744
 21
263.43109668682979
 31
0.0
  0
LINE
  5
22E59
  8
0
 10
123.0044381271402
 20
140.41812057696279
 30
0.0
 11
124.41286351235679
 21
144.50848490110269
 31
0.0
  0
ARC
  5
22E5A
  8
0
 10
121.5763077855588
 20
145.48518936447451
 30
0.0
 40
2.999999999999917
 50
341.00000000001017
 51
0.0000008537736463
  0
ARC
  5
22E5B
  8
0
 10
121.5763077855588
 20
259.00218809836502
 30
0.0
 40
2.9999999999999591
 50
0.0
 51
18.99999999998975
  0
ARC
  5
22E5C
  8
0
 10
125.2013077855588
 20
146.798293335778
 30
0.0
 40
0.625
 50
180.0
 51
0.0
  0
ARC
  5
22E5D
  8
0
 10
125.2013077855588
 20
257.68908412706151
 30
0.0
 40
0.625
 50
0.0
 51
180.0
  0
ARC
  5
22E5E
  8
0
 10
126.4513077855588
 20
150.4285569328722
 30
0.0
 40
0.625
 50
180.0
 51
0.0
  0
ARC
  5
22E5F
  8
0
 10
126.4513077855588
 20
254.05882052996731
 30
0.0
 40
0.625
 50
0.0
 51
180.0
  0
LINE
  5
22E60
  8
0
 10
131.2169586784776
 20
240.21836536754651
 30
0.0
 11
127.0763077855588
 21
252.24368873141981
 31
0.0
  0
LINE
  5
22E61
  8
0
 10
127.0763077855588
 20
152.2436887314197
 30
0.0
 11
131.2169586784776
 21
164.269012095292
 31
0.0
  0
ARC
  5
22E62
  8
0
 10
128.38040295167929
 20
165.24571655866379
 30
0.0
 40
3.0000000000001941
 50
341.00000000001017
 51
0.0000008537736463
  0
ARC
  5
22E63
  8
0
 10
128.38040295167929
 20
239.2416609041756
 30
0.0
 40
3.000000000000191
 50
0.0000008537736463
 51
18.99999999998975
  0
ARC
  5
22E64
  8
0
 10
96.880402951679116
 20
165.24571655866379
 30
0.0
 40
2.9999999999995999
 50
179.99999914622629
 51
198.99999999998971
  0
ARC
  5
22E65
  8
0
 10
96.880402951679116
 20
239.2416609041756
 30
0.0
 40
2.999999999999599
 50
161.0000000000102
 51
179.99999914622629
  0
LINE
  5
22E66
  8
0
 10
98.184498117800345
 20
252.24368873141981
 30
0.0
 11
94.043847224881574
 21
240.21836536754651
 31
0.0
  0
LINE
  5
22E67
  8
0
 10
94.043847224881574
 20
164.269012095292
 30
0.0
 11
98.184498117800345
 21
152.2436887314197
 31
0.0
  0
ARC
  5
22E68
  8
0
 10
98.809498117800345
 20
150.4285569328722
 30
0.0
 40
0.625
 50
180.0
 51
0.0
  0
ARC
  5
22E69
  8
0
 10
98.809498117800345
 20
254.05882052996731
 30
0.0
 40
0.625
 50
0.0
 51
180.0
  0
ARC
  5
22E6A
  8
0
 10
100.0594981178003
 20
146.798293335778
 30
0.0
 40
0.625
 50
180.0
 51
0.0
  0
ARC
  5
22E6B
  8
0
 10
100.0594981178003
 20
257.68908412706151
 30
0.0
 40
0.625
 50
0.0
 51
180.0
  0
ARC
  5
22E6C
  8
0
 10
103.6844981178003
 20
145.48518936447451
 30
0.0
 40
2.9999999999999338
 50
180.0
 51
198.99999999998971
  0
ARC
  5
22E6D
  8
0
 10
103.6844981178003
 20
259.00218809836502
 30
0.0
 40
2.9999999999999369
 50
161.0000000000102
 51
180.0
  0
LINE
  5
22E6E
  8
0
 10
102.03663159798469
 20
263.43109668682979
 30
0.0
 11
100.84794239100231
 21
259.9788925617367
 31
0.0
  0
LINE
  5
22E6F
  8
0
 10
100.84794239100231
 20
144.50848490110269
 30
0.0
 11
102.25636777621889
 21
140.41812057696279
 31
0.0
  0
ARC
  5
22E70
  8
0
 10
103.2018863518181
 20
140.7436887314197
 30
0.0
 40
1.0000000000000211
 50
198.99999999998971
 51
270.0
  0
LINE
  5
22E71
  8
0
 10
103.2018863518181
 20
139.7436887314197
 30
0.0
 11
106.6304029516796
 21
139.7436887314197
 31
0.0
  0
ARC
  5
22E72
  8
0
 10
106.6304029516796
 20
140.04368873141991
 30
0.0
 40
0.3000000000000185
 50
270.0
 51
0.0
  0
LINE
  5
22E73
  8
0
 10
106.9304029516795
 20
140.04368873141991
 30
0.0
 11
109.3304029516796
 21
140.04368873141991
 31
0.0
  0
ARC
  5
22E74
  8
0
 10
109.6304029516796
 20
140.04368873141991
 30
0.0
 40
0.3000000000000003
 50
180.0
 51
270.0
  0
LINE
  5
22E75
  8
0
 10
115.9304029516795
 20
140.04368873141991
 30
0.0
 11
115.9304029516795
 21
264.44368873141963
 31
0.0
  0
LINE
  5
22E76
  8
0
 10
118.3304029516796
 20
140.04368873141991
 30
0.0
 11
118.3304029516798
 21
264.44368873141963
 31
0.0
  0
LINE
  5
22E77
  8
0
 10
124.5763077855588
 20
145.48518936447451
 30
0.0
 11
124.5763077855588
 21
259.00218809836502
 31
0.0
  0
LINE
  5
22E78
  8
0
 10
125.8263077855588
 20
146.798293335778
 30
0.0
 11
125.8263077855588
 21
257.68908412706151
 31
0.0
  0
LINE
  5
22E79
  8
0
 10
127.0763077855588
 20
150.4285569328722
 30
0.0
 11
127.0763077855588
 21
254.05882052996731
 31
0.0
  0
LINE
  5
22E7A
  8
0
 10
131.38040295167951
 20
165.24571655866379
 30
0.0
 11
131.38040295167951
 21
239.2416609041756
 31
0.0
  0
LINE
  5
22E7B
  8
0
 10
98.184498117800345
 20
150.4285569328722
 30
0.0
 11
98.184498117800345
 21
254.05882052996731
 31
0.0
  0
LINE
  5
22E7C
  8
0
 10
99.434498117800345
 20
146.798293335778
 30
0.0
 11
99.434498117800345
 21
257.68908412706151
 31
0.0
  0
LINE
  5
22E7D
  8
0
 10
100.6844981178003
 20
145.48518936447451
 30
0.0
 11
100.6844981178003
 21
259.00218809836502
 31
0.0
  0
LINE
  5
22E7E
  8
0
 10
106.9304029516795
 20
140.04368873141991
 30
0.0
 11
106.9304029516795
 21
264.44368873141963
 31
0.0
  0
LINE
  5
22E7F
  8
0
 10
109.3304029516796
 20
140.04368873141991
 30
0.0
 11
109.3304029516796
 21
264.44368873141963
 31
0.0
  0
LINE
  5
22E80
  8
0
 10
93.880402951679571
 20
165.24571655866379
 30
0.0
 11
93.880402951679571
 21
239.2416609041756
 31
0.0
  0
LINE
  5
22E83
  8
0
 10
87.630402579150314
 20
281.94368889086218
 30
0.0
 11
87.630402579150314
 21
192.2436875989315
 31
0.0
  0
LINE
  5
22E84
  8
0
 10
138.2304020721383
 20
208.50202420257301
 30
0.0
 11
138.2304020721383
 21
195.9853542735454
 31
0.0
  0
LINE
  5
22E85
  8
0
 10
142.93040177150729
 20
208.50202420257301
 30
0.0
 11
142.93040177150729
 21
195.9853542735454
 31
0.0
  0
LINE
  5
22E86
  8
1
 10
112.6304029516793
 20
311.7085891019542
 30
0.0
 11
112.6304029516795
 21
128.01527732418069
 31
0.0
  0
LINE
  5
22E87
  8
1
 10
71.02136835916167
 20
202.24368873141981
 30
0.0
 11
154.23943754419739
 21
202.24368873141981
 31
0.0
  0
LINE
  5
22E88
  8
3
 10
77.630400940022582
 20
205.4766861488697
 30
0.0
 11
79.630401267848129
 21
205.4766861488697
 31
0.0
  0
LINE
  5
22E89
  8
3
 10
77.630400940022582
 20
199.01069232724871
 30
0.0
 11
79.630401267848129
 21
199.01069232724871
 31
0.0
  0
LINE
  5
22F15
  8
0
 10
109.6304029516796
 20
264.74368873141981
 30
0.0
 11
115.6304029516795
 21
264.74368873141981
 31
0.0
  0
ARC
  5
22F16
  8
0
 10
115.6304029516795
 20
264.44368873141963
 30
0.0
 40
0.3000000000000185
 50
0.0
 51
90.0
  0
LINE
  5
22F17
  8
0
 10
115.9304029516795
 20
264.44368873141963
 30
0.0
 11
118.3304029516796
 21
264.44368873141963
 31
0.0
  0
ARC
  5
22F18
  8
0
 10
118.6304029516795
 20
264.44368873141963
 30
0.0
 40
0.2999999999999998
 50
90.0
 51
180.0
  0
LINE
  5
22F19
  8
0
 10
118.6304029516795
 20
264.74368873141981
 30
0.0
 11
122.058919551541
 21
264.74368873141981
 31
0.0
  0
ARC
  5
22F1A
  8
0
 10
122.058919551541
 20
263.74368873141981
 30
0.0
 40
1.0000000000000211
 50
19.000000000043261
 51
90.0
  0
ARC
  5
22F1B
  8
0
 10
103.2018863518181
 20
263.74368873141981
 30
0.0
 40
1.0000000000000211
 50
90.0
 51
160.99999999995671
  0
LINE
  5
22F1C
  8
0
 10
103.2018863518181
 20
264.74368873141981
 30
0.0
 11
106.6304029516796
 21
264.74368873141981
 31
0.0
  0
ARC
  5
22F1D
  8
0
 10
106.6304029516796
 20
264.44368873141963
 30
0.0
 40
0.3000000000000185
 50
0.0
 51
90.0
  0
LINE
  5
22F1E
  8
0
 10
106.9304029516795
 20
264.44368873141963
 30
0.0
 11
109.3304029516796
 21
264.44368873141963
 31
0.0
  0
ARC
  5
22F1F
  8
0
 10
109.6304029516796
 20
264.44368873141963
 30
0.0
 40
0.3000000000000003
 50
90.0
 51
180.0
  0
LINE
  5
22F20
  8
0
 10
123.00443812714011
 20
264.06925688587762
 30
0.0
 11
123.2241743053744
 21
263.43109668682979
 31
0.0
  0
LINE
  5
22F21
  8
0
 10
102.25636777621899
 20
264.06925688587762
 30
0.0
 11
102.03663159798469
 21
263.43109668682979
 31
0.0
  0
LINE
  5
22F22
  8
0
 10
90.130400194964636
 20
278.24368889086242
 30
0.0
 11
135.13040198310381
 21
278.24368889086242
 31
0.0
  0
POLYLINE
  5
22F23
  8
0
 66
     1
 10
0.0
 20
0.0
 30
0.0
  0
VERTEX
  5
273E3
  8
0
 10
135.1304019831037
 20
256.29343115340822
 30
0.0
  0
VERTEX
  5
273E4
  8
0
 10
135.1173617243881
 20
256.31303252949238
 30
0.0
  0
VERTEX
  5
273E5
  8
0
 10
134.50854340751781
 20
257.17625291850618
 30
0.0
  0
VERTEX
  5
273E6
  8
0
 10
134.1971597778691
 20
257.59888848559513
 30
0.0
  0
VERTEX
  5
273E7
  8
0
 10
133.88121399960451
 20
258.01542134012919
 30
0.0
  0
VERTEX
  5
273E8
  8
0
 10
133.23590428395701
 20
258.82982777410052
 30
0.0
  0
VERTEX
  5
273E9
  8
0
 10
132.57316025701999
 20
259.61878315126887
 30
0.0
  0
VERTEX
  5
273EA
  8
0
 10
131.89354266640549
 20
260.3816199366193
 30
0.0
  0
VERTEX
  5
273EB
  8
0
 10
131.1976265364454
 20
261.11769269407341
 30
0.0
  0
VERTEX
  5
273EC
  8
0
 10
130.4860006816626
 20
261.82637863259242
 30
0.0
  0
VERTEX
  5
273ED
  8
0
 10
130.12448426038631
 20
262.17026324463222
 30
0.0
  0
VERTEX
  5
273EE
  8
0
 10
129.75926720857601
 20
262.5070781331205
 30
0.0
  0
VERTEX
  5
273EF
  8
0
 10
129.0180410062575
 20
263.15921525592063
 30
0.0
  0
VERTEX
  5
273F0
  8
0
 10
128.26294922607539
 20
263.78223822788192
 30
0.0
  0
VERTEX
  5
273F1
  8
0
 10
127.4946307510603
 20
264.37561990937053
 30
0.0
  0
VERTEX
  5
273F2
  8
0
 10
126.7137356553479
 20
264.9388582402417
 30
0.0
  0
VERTEX
  5
273F3
  8
0
 10
125.9209246541503
 20
265.47147666463661
 30
0.0
  0
VERTEX
  5
273F4
  8
0
 10
125.52025993477071
 20
265.72616156170437
 30
0.0
  0
VERTEX
  5
273F5
  8
0
 10
125.11686854472519
 20
265.9730245341953
 30
0.0
  0
VERTEX
  5
273F6
  8
0
 10
124.30224763881471
 20
266.44307748934631
 30
0.0
  0
VERTEX
  5
273F7
  8
0
 10
123.47775118703331
 20
266.88123781836202
 30
0.0
  0
VERTEX
  5
273F8
  8
0
 10
122.644076795693
 20
267.28713479386079
 30
0.0
  0
VERTEX
  5
273F9
  8
0
 10
121.80192983655969
 20
267.66042498647772
 30
0.0
  0
VERTEX
  5
273FA
  8
0
 10
120.952022850037
 20
268.00079255544188
 30
0.0
  0
VERTEX
  5
273FB
  8
0
 10
120.5243838273062
 20
268.15853926581713
 30
0.0
  0
VERTEX
  5
273FC
  8
0
 10
120.0950749422862
 20
268.30794951580992
 30
0.0
  0
VERTEX
  5
273FD
  8
0
 10
119.2318111767916
 20
268.58163598212832
 30
0.0
  0
VERTEX
  5
273FE
  8
0
 10
118.3629619608829
 20
268.82162038832121
 30
0.0
  0
VERTEX
  5
273FF
  8
0
 10
117.48926242773889
 20
269.02769968362372
 30
0.0
  0
VERTEX
  5
27400
  8
0
 10
116.611451814391
 20
269.1996995043782
 30
0.0
  0
VERTEX
  5
27401
  8
0
 10
115.730272836255
 20
269.33747432156269
 30
0.0
  0
VERTEX
  5
27402
  8
0
 10
115.28865310548311
 20
269.39348979127323
 30
0.0
  0
VERTEX
  5
27403
  8
0
 10
114.8464710587189
 20
269.4409075639287
 30
0.0
  0
VERTEX
  5
27404
  8
0
 10
113.9607942663223
 20
269.5099117166265
 30
0.0
  0
VERTEX
  5
27405
  8
0
 10
113.07399183005271
 20
269.54442839525291
 30
0.0
  0
VERTEX
  5
27406
  8
0
 10
112.6304029516794
 20
269.54874366468351
 30
0.0
  0
VERTEX
  5
27407
  8
0
 10
112.18681407330619
 20
269.54442839525291
 30
0.0
  0
VERTEX
  5
27408
  8
0
 10
111.3000116370366
 20
269.5099117166265
 30
0.0
  0
VERTEX
  5
27409
  8
0
 10
110.4143348446399
 20
269.4409075639287
 30
0.0
  0
VERTEX
  5
2740A
  8
0
 10
109.97215279787579
 20
269.39348979127323
 30
0.0
  0
VERTEX
  5
2740B
  8
0
 10
109.5305330671038
 20
269.33747432156269
 30
0.0
  0
VERTEX
  5
2740C
  8
0
 10
108.6493540889679
 20
269.1996995043782
 30
0.0
  0
VERTEX
  5
2740D
  8
0
 10
107.77154347562001
 20
269.02769968362372
 30
0.0
  0
VERTEX
  5
2740E
  8
0
 10
106.897843942476
 20
268.82162038832121
 30
0.0
  0
VERTEX
  5
2740F
  8
0
 10
106.02899472656721
 20
268.58163598212832
 30
0.0
  0
VERTEX
  5
27410
  8
0
 10
105.1657309610726
 20
268.30794951580992
 30
0.0
  0
VERTEX
  5
27411
  8
0
 10
104.7364220760527
 20
268.15853926581713
 30
0.0
  0
VERTEX
  5
27412
  8
0
 10
104.3087830533219
 20
268.00079255544188
 30
0.0
  0
VERTEX
  5
27413
  8
0
 10
103.45887606679921
 20
267.66042498647772
 30
0.0
  0
VERTEX
  5
27414
  8
0
 10
102.61672910766571
 20
267.28713479386079
 30
0.0
  0
VERTEX
  5
27415
  8
0
 10
101.78305471632559
 20
266.88123781836202
 30
0.0
  0
VERTEX
  5
27416
  8
0
 10
100.95855826454419
 20
266.44307748934631
 30
0.0
  0
VERTEX
  5
27417
  8
0
 10
100.14393735863339
 20
265.9730245341953
 30
0.0
  0
VERTEX
  5
27418
  8
0
 10
99.740545968588194
 20
265.72616156170437
 30
0.0
  0
VERTEX
  5
27419
  8
0
 10
99.339881249208574
 20
265.47147666463661
 30
0.0
  0
VERTEX
  5
2741A
  8
0
 10
98.547070248010996
 20
264.9388582402417
 30
0.0
  0
VERTEX
  5
2741B
  8
0
 10
97.766175152298615
 20
264.37561990937053
 30
0.0
  0
VERTEX
  5
2741C
  8
0
 10
96.997856677283721
 20
263.78223822788192
 30
0.0
  0
VERTEX
  5
2741D
  8
0
 10
96.242764897101438
 20
263.15921525592063
 30
0.0
  0
VERTEX
  5
2741E
  8
0
 10
95.50153869478288
 20
262.5070781331205
 30
0.0
  0
VERTEX
  5
2741F
  8
0
 10
95.136321642972575
 20
262.17026324463222
 30
0.0
  0
VERTEX
  5
27420
  8
0
 10
94.774805221696283
 20
261.82637863259242
 30
0.0
  0
VERTEX
  5
27421
  8
0
 10
94.063179366913459
 20
261.11769269407341
 30
0.0
  0
VERTEX
  5
27422
  8
0
 10
93.367263236953349
 20
260.3816199366193
 30
0.0
  0
VERTEX
  5
27423
  8
0
 10
92.687645646338865
 20
259.61878315126887
 30
0.0
  0
VERTEX
  5
27424
  8
0
 10
92.02490161940193
 20
258.82982777410052
 30
0.0
  0
VERTEX
  5
27425
  8
0
 10
91.379591903754431
 20
258.01542134012919
 30
0.0
  0
VERTEX
  5
27426
  8
0
 10
91.063646125489754
 20
257.59888848559513
 30
0.0
  0
VERTEX
  5
27427
  8
0
 10
90.752262495841137
 20
257.17625291850618
 30
0.0
  0
VERTEX
  5
27428
  8
0
 10
90.143444178970526
 20
256.31303252949238
 30
0.0
  0
VERTEX
  5
27429
  8
0
 10
90.130400194964409
 20
256.29342555376297
 30
0.0
  0
SEQEND
  5
2742A
  8
0
  0
LINE
  5
2303A
  8
0
 10
256.40231598404768
 20
437.77251748446082
 30
0.0
 11
256.40231598404768
 21
431.77251748446088
 31
0.0
  0
ARC
  5
2303B
  8
0
 10
256.70231598404791
 20
431.77251748446088
 30
0.0
 40
0.3000000000000185
 50
180.0
 51
270.0
  0
LINE
  5
2303C
  8
0
 10
256.70231598404791
 20
431.4725174844607
 30
0.0
 11
256.70231598404791
 21
429.072517484461
 31
0.0
  0
ARC
  5
2303D
  8
0
 10
256.70231598404791
 20
428.77251748446088
 30
0.0
 40
0.2999999999999998
 50
90.0
 51
180.0
  0
LINE
  5
2303E
  8
0
 10
256.40231598404768
 20
428.77251748446088
 30
0.0
 11
256.40231598404768
 21
425.3440008845991
 31
0.0
  0
ARC
  5
2303F
  8
0
 10
257.40231598404768
 20
425.3440008845991
 30
0.0
 40
1.0000000000000211
 50
180.0
 51
251.00000000002279
  0
LINE
  5
23040
  8
0
 10
257.07674782959077
 20
424.39848230900043
 30
0.0
 11
261.16711215373073
 21
422.99005692378341
 31
0.0
  0
ARC
  5
23041
  8
0
 10
262.14381661710252
 20
425.82661265058141
 30
0.0
 40
2.999999999999917
 50
251.00000000002279
 51
270.0000008537736
  0
ARC
  5
23042
  8
0
 10
263.45692058840598
 20
422.2016126505813
 30
0.0
 40
0.625
 50
90.0
 51
270.0
  0
ARC
  5
23043
  8
0
 10
267.08718418550018
 20
420.95161265058141
 30
0.0
 40
0.625
 50
90.0
 51
270.0
  0
LINE
  5
23044
  8
0
 10
268.90231598404768
 20
420.3266126505813
 30
0.0
 11
280.92763934791998
 21
416.18596175766282
 31
0.0
  0
ARC
  5
23045
  8
0
 10
281.90434381129182
 20
419.02251748446082
 30
0.0
 40
3.0000000000001941
 50
251.00000000002279
 51
270.0000008537736
  0
ARC
  5
23046
  8
0
 10
281.90434381129182
 20
450.52251748446179
 30
0.0
 40
2.9999999999995999
 50
89.999999146226358
 51
108.99999999997721
  0
LINE
  5
23047
  8
0
 10
280.92763934791998
 20
453.35907321125882
 30
0.0
 11
268.90231598404768
 21
449.21842231834029
 31
0.0
  0
ARC
  5
23048
  8
0
 10
267.08718418550018
 20
448.59342231834029
 30
0.0
 40
0.625
 50
90.0
 51
270.0
  0
ARC
  5
23049
  8
0
 10
263.45692058840598
 20
447.34342231834029
 30
0.0
 40
0.625
 50
90.0
 51
270.0
  0
ARC
  5
2304A
  8
0
 10
262.14381661710252
 20
443.71842231834029
 30
0.0
 40
2.9999999999999338
 50
90.0
 51
108.99999999997721
  0
LINE
  5
2304B
  8
0
 10
261.16711215373073
 20
446.55497804513828
 30
0.0
 11
257.07674782959077
 21
445.14655265992133
 31
0.0
  0
ARC
  5
2304C
  8
0
 10
257.40231598404768
 20
444.2010340843226
 30
0.0
 40
1.0000000000000211
 50
108.99999999997721
 51
180.0
  0
LINE
  5
2304D
  8
0
 10
256.40231598404768
 20
444.2010340843226
 30
0.0
 11
256.40231598404768
 21
440.77251748446088
 31
0.0
  0
ARC
  5
2304E
  8
0
 10
256.70231598404791
 20
440.77251748446088
 30
0.0
 40
0.3000000000000185
 50
180.0
 51
270.0
  0
LINE
  5
2304F
  8
0
 10
256.70231598404791
 20
440.4725174844607
 30
0.0
 11
256.70231598404791
 21
438.072517484461
 31
0.0
  0
ARC
  5
23050
  8
0
 10
256.70231598404791
 20
437.77251748446082
 30
0.0
 40
0.3000000000000003
 50
90.0
 51
180.0
  0
LINE
  5
23051
  8
0
 10
256.70231598404791
 20
431.4725174844607
 30
0.0
 11
305.90231598404762
 21
431.4725174844607
 31
0.0
  0
LINE
  5
23052
  8
0
 10
256.70231598404791
 20
429.072517484461
 30
0.0
 11
305.90231598404762
 21
429.072517484461
 31
0.0
  0
LINE
  5
23053
  8
0
 10
262.14381661710252
 20
422.82661265058141
 30
0.0
 11
305.90231598404762
 21
422.82661265058141
 31
0.0
  0
LINE
  5
23054
  8
0
 10
263.45692058840598
 20
421.57661265058141
 30
0.0
 11
305.90231598404762
 21
421.57661265058141
 31
0.0
  0
LINE
  5
23055
  8
0
 10
267.08718418550018
 20
420.3266126505813
 30
0.0
 11
305.90231598404762
 21
420.3266126505813
 31
0.0
  0
LINE
  5
23056
  8
0
 10
281.90434381129182
 20
416.02251748446082
 30
0.0
 11
305.90231598404762
 21
416.02251748446082
 31
0.0
  0
LINE
  5
23057
  8
0
 10
267.08718418550018
 20
449.21842231834029
 30
0.0
 11
305.90231598404762
 21
449.21842231834029
 31
0.0
  0
LINE
  5
23058
  8
0
 10
263.45692058840598
 20
447.96842231834029
 30
0.0
 11
305.90231598404762
 21
447.96842231834029
 31
0.0
  0
LINE
  5
23059
  8
0
 10
262.14381661710252
 20
446.71842231834029
 30
0.0
 11
305.90231598404762
 21
446.71842231834029
 31
0.0
  0
LINE
  5
2305A
  8
0
 10
256.70231598404791
 20
440.4725174844607
 30
0.0
 11
305.90231598404762
 21
440.4725174844607
 31
0.0
  0
LINE
  5
2305B
  8
0
 10
256.70231598404791
 20
438.072517484461
 30
0.0
 11
305.90231598404762
 21
438.072517484461
 31
0.0
  0
LINE
  5
2305C
  8
0
 10
281.90434381129182
 20
453.52251748446082
 30
0.0
 11
305.90231598404762
 21
453.52251748446082
 31
0.0
  0
LINE
  5
2305D
  8
0
 10
305.90231598404762
 20
457.27251754033932
 30
0.0
 11
304.20231598404757
 21
457.27251754033932
 31
0.0
  0
LINE
  5
23060
  8
0
 10
304.20231598404757
 20
412.27251742858061
 30
0.0
 11
305.90231598404762
 21
412.27251742858061
 31
0.0
  0
TEXT
  5
27156
  8
0
 62
     3
 10
0.0
 20
0.0
 30
0.0
 40
10.0
  1
CAE2-125SBL
  7
STANDARD1
  0
ENDSEC
  0
EOF
