  0
SECTION
  2
HEADER
  9
$ACADVER
  1
AC1009
  9
$INSBASE
 10
0.0
 20
0.0
 30
0.0
  9
$EXTMIN
 10
0.0
 20
-2.960436562073669
 30
0.0
  9
$EXTMAX
 10
846.24800916803974
 20
688.75962516842355
 30
0.0
  9
$LIMMIN
 10
0.0
 20
0.0
  9
$LIMMAX
 10
375.0
 20
270.0
  9
$ORTHOMODE
 70
     0
  9
$REGENMODE
 70
     1
  9
$FILLMODE
 70
     1
  9
$QTEXTMODE
 70
     0
  9
$MIRRTEXT
 70
     1
  9
$DRAGMODE
 70
     2
  9
$LTSCALE
 40
10.0
  9
$OSMODE
 70
  3071
  9
$ATTMODE
 70
     1
  9
$TEXTSIZE
 40
5.0
  9
$TRACEWID
 40
0.05
  9
$TEXTSTYLE
  7
STANDARD
  9
$CLAYER
  8
0
  9
$CELTYPE
  6
BYLAYER
  9
$CECOLOR
 62
   256
  9
$DIMSCALE
 40
2.0
  9
$DIMASZ
 40
3.0
  9
$DIMEXO
 40
2.0
  9
$DIMDLI
 40
0.38
  9
$DIMRND
 40
0.0
  9
$DIMDLE
 40
0.0
  9
$DIMEXE
 40
2.0
  9
$DIMTP
 40
0.0
  9
$DIMTM
 40
0.0
  9
$DIMTXT
 40
3.2000000000000002
  9
$DIMCEN
 40
0.0
  9
$DIMTSZ
 40
0.0
  9
$DIMTOL
 70
     0
  9
$DIMLIM
 70
     0
  9
$DIMTIH
 70
     0
  9
$DIMTOH
 70
     0
  9
$DIMSE1
 70
     0
  9
$DIMSE2
 70
     0
  9
$DIMTAD
 70
     1
  9
$DIMZIN
 70
     8
  9
$DIMBLK
  1

  9
$DIMASO
 70
     0
  9
$DIMSHO
 70
     0
  9
$DIMPOST
  1

  9
$DIMAPOST
  1

  9
$DIMALT
 70
     0
  9
$DIMALTD
 70
     2
  9
$DIMALTF
 40
25.399999999999999
  9
$DIMLFAC
 40
1.0
  9
$DIMTOFL
 70
     0
  9
$DIMTVP
 40
1.6000000000000001
  9
$DIMTIX
 70
     1
  9
$DIMSOXD
 70
     0
  9
$DIMSAH
 70
     0
  9
$DIMBLK1
  1

  9
$DIMBLK2
  1

  9
$DIMSTYLE
  2
STANDARD
  9
$DIMCLRD
 70
     0
  9
$DIMCLRE
 70
     0
  9
$DIMCLRT
 70
     0
  9
$DIMTFAC
 40
1.0
  9
$DIMGAP
 40
1.1999999999999991
  9
$LUNITS
 70
     2
  9
$LUPREC
 70
     4
  9
$SKETCHINC
 40
0.1
  9
$FILLETRAD
 40
0.0
  9
$AUNITS
 70
     0
  9
$AUPREC
 70
     4
  9
$MENU
  1
ACAD
  9
$ELEVATION
 40
0.0
  9
$PELEVATION
 40
0.0
  9
$THICKNESS
 40
0.0
  9
$LIMCHECK
 70
     0
  9
$BLIPMODE
 70
     0
  9
$CHAMFERA
 40
0.0
  9
$CHAMFERB
 40
0.0
  9
$SKPOLY
 70
     0
  9
$TDCREATE
 40
2448055.7149187499
  9
$TDUPDATE
 40
2456598.5586831369
  9
$TDINDWG
 40
2.9164731366000001
  9
$TDUSRTIMER
 40
2.9164731366000001
  9
$USRTIMER
 70
     1
  9
$ANGBASE
 50
0.0
  9
$ANGDIR
 70
     0
  9
$PDMODE
 70
     0
  9
$PDSIZE
 40
0.0
  9
$PLINEWID
 40
0.0
  9
$COORDS
 70
     1
  9
$SPLFRAME
 70
     0
  9
$SPLINETYPE
 70
     6
  9
$SPLINESEGS
 70
     8
  9
$ATTDIA
 70
     0
  9
$ATTREQ
 70
     1
  9
$HANDLING
 70
     1
  9
$HANDSEED
  5
29228
  9
$SURFTAB1
 70
     6
  9
$SURFTAB2
 70
     6
  9
$SURFTYPE
 70
     6
  9
$SURFU
 70
     6
  9
$SURFV
 70
     6
  9
$UCSNAME
  2

  9
$UCSORG
 10
0.0
 20
0.0
 30
0.0
  9
$UCSXDIR
 10
1.0
 20
0.0
 30
0.0
  9
$UCSYDIR
 10
0.0
 20
1.0
 30
0.0
  9
$PUCSNAME
  2

  9
$PUCSORG
 10
0.0
 20
0.0
 30
0.0
  9
$PUCSXDIR
 10
1.0
 20
0.0
 30
0.0
  9
$PUCSYDIR
 10
0.0
 20
1.0
 30
0.0
  9
$USERI1
 70
     0
  9
$USERI2
 70
     0
  9
$USERI3
 70
     0
  9
$USERI4
 70
     0
  9
$USERI5
 70
     0
  9
$USERR1
 40
0.0
  9
$USERR2
 40
0.0
  9
$USERR3
 40
0.0
  9
$USERR4
 40
0.0
  9
$USERR5
 40
0.0
  9
$WORLDVIEW
 70
     1
  9
$SHADEDGE
 70
     3
  9
$SHADEDIF
 70
    70
  9
$TILEMODE
 70
     1
  9
$MAXACTVP
 70
    16
  9
$PLIMCHECK
 70
     0
  9
$PEXTMIN
 10
1.0000000000000000E+020
 20
1.0000000000000000E+020
 30
1.0000000000000000E+020
  9
$PEXTMAX
 10
-1.0000000000000000E+020
 20
-1.0000000000000000E+020
 30
-1.0000000000000000E+020
  9
$PLIMMIN
 10
0.0
 20
0.0
  9
$PLIMMAX
 10
12.0
 20
9.0
  9
$UNITMODE
 70
     0
  9
$VISRETAIN
 70
     0
  9
$PLINEGEN
 70
     1
  9
$PSLTSCALE
 70
     0
  0
ENDSEC
  0
SECTION
  2
TABLES
  0
TABLE
  2
VPORT
 70
     1
  0
VPORT
  2
*ACTIVE
 70
     0
 10
0.0
 20
0.0
 11
1.0
 21
1.0
 12
442.29149584342719
 22
342.90846488921272
 13
0.0
 23
0.0
 14
5.0
 24
5.0
 15
10.0
 25
10.0
 16
0.0
 26
0.0
 36
1.0
 17
0.0
 27
0.0
 37
0.0
 40
697.94834762935955
 41
1.831871345029239
 42
50.0
 43
0.0
 44
0.0
 50
0.0
 51
0.0
 71
     0
 72
   500
 73
     1
 74
     1
 75
     0
 76
     0
 77
     0
 78
     2
  0
ENDTAB
  0
TABLE
  2
LTYPE
 70
     4
  0
LTYPE
  2
CONTINUOUS
 70
     0
  3
実線
 72
    65
 73
     0
 40
0.0
  0
LTYPE
  2
CENTER
 70
     0
  3
____ _ ____ _ ____ _ ____ _ ____ _ ____ _ ____
 72
    65
 73
     4
 40
2.0
 49
1.25
 49
-0.25
 49
0.25
 49
-0.25
  0
LTYPE
  2
HIDDEN
 70
     0
  3
_ _ _ _ _ _ _ _ _ _ _ _ _ _ _ _ _ _ _ _ _ _ _
 72
    65
 73
     2
 40
0.375
 49
0.25
 49
-0.125
  0
LTYPE
  2
PHANTOM2
 70
     0
  3
___ _ _ ___ _ _ ___ _ _ ___ _ _
 72
    65
 73
     6
 40
1.25
 49
0.625
 49
-0.125
 49
0.125
 49
-0.125
 49
0.125
 49
-0.125
  0
ENDTAB
  0
TABLE
  2
LAYER
 70
     5
  0
LAYER
  2
0
 70
     0
 62
     7
  6
CONTINUOUS
  0
LAYER
  2
1
 70
     0
 62
     1
  6
CENTER
  0
LAYER
  2
2
 70
     0
 62
     2
  6
HIDDEN
  0
LAYER
  2
DEFPOINTS
 70
     0
 62
     7
  6
CONTINUOUS
  0
LAYER
  2
3
 70
     0
 62
     3
  6
CONTINUOUS
  0
ENDTAB
  0
TABLE
  2
STYLE
 70
     3
  0
STYLE
  2
STANDARD
 70
     0
 40
0.0
 41
1.0
 50
0.0
 71
     0
 42
5.0
  3
simplex.shx
  4
bigfont.shx
  0
STYLE
  2
07500
 70
     0
 40
0.0
 41
0.75
 50
0.0
 71
     0
 42
0.2
  3
simplex.shx
  4
bigfont.shx
  0
STYLE
  2
STANDARD1
 70
     0
 40
0.0
 41
1.0
 50
0.0
 71
     0
 42
3.0
  3
txt
  4

  0
ENDTAB
  0
TABLE
  2
VIEW
 70
     2
  0
VIEW
  2
ALL
 70
     0
 40
270.0
 10
220.99159663865549
 20
135.0
 41
0.0
 11
0.0
 21
0.0
 31
1.0
 12
0.0
 22
0.0
 32
0.0
 42
0.0
 43
0.0
 44
0.0
 50
0.0
 71
     0
  0
VIEW
  2
OLE1
 70
     0
 40
168.2487151179721
 10
2892.3009567448912
 20
702.51600084347126
 41
162.5749581879237
 11
0.0
 21
0.0
 31
1.0
 12
0.0
 22
0.0
 32
0.0
 42
50.0
 43
0.0
 44
0.0
 50
0.0
 71
     0
  0
ENDTAB
  0
TABLE
  2
UCS
 70
     0
  0
ENDTAB
  0
TABLE
  2
APPID
 70
    48
  0
APPID
  2
ACAD
 70
     0
  0
APPID
  2
DCO15
 70
     0
  0
APPID
  2
GENIUS_GENOREF_13
 70
     0
  0
APPID
  2
GENIUS_GENOENT_13
 70
     0
  0
APPID
  2
GENIUS_GENBH_13
 70
     0
  0
APPID
  2
GENIUS_GENOBJ_13
 70
     0
  0
APPID
  2
GENIUS_GENODEF_13
 70
     0
  0
APPID
  2
GENIUS_GENOLIS_13
 70
     0
  0
APPID
  2
GENIUS_GENOBJ-NBEHI-BHF_13
 70
     0
  0
APPID
  2
GENIUS_GENOBJ-NBEHI-BHB_13
 70
     0
  0
APPID
  2
GENIUS_GENOBJ-F-PART_13
 70
     0
  0
APPID
  2
GENIUS_GEFSTDP_13
 70
     0
  0
APPID
  2
GENIUS_GENOBJ-N-RSSYM_13
 70
     0
  0
APPID
  2
GENIUS_GENSYMENT_13
 70
     0
  0
APPID
  2
GENIUS_GENOBJ-N-TIT_13
 70
     0
  0
APPID
  2
GENIUS_GENTITLE_13
 70
     0
  0
APPID
  2
GENIUS_GENZVEED_13
 70
     0
  0
APPID
  2
GENIUS_GENOBJ-N-LEADER_13
 70
     0
  0
APPID
  2
GENIUS_GENOBJ-N-FIL_13
 70
     0
  0
APPID
  2
GENIUS_GENOBJ-N-SEC_13
 70
     0
  0
APPID
  2
GENIUS_GENOBJ-N-CRS_13
 70
     0
  0
APPID
  2
GENIUS_GENOBJ-N-ZOO_13
 70
     0
  0
APPID
  2
GENIUS_GENZOO_13
 70
     0
  0
APPID
  2
GENIUS_GENOBJ-F-TOL_13
 70
     0
  0
APPID
  2
GENIUS_GENFIL_13
 70
     0
  0
APPID
  2
GENIUS_GENOBJ-N-CHA_13
 70
     0
  0
APPID
  2
_CALL_MAC$
 70
     0
  0
APPID
  2
ASM_BASE
 70
     0
  0
APPID
  2
ASM_EXPLO_VER_2_00
 70
     0
  0
APPID
  2
ASM_CADM_VER_12_00
 70
     0
  0
APPID
  2
ASM_BASEFORO
 70
     0
  0
APPID
  2
ASM_BASETRAVI
 70
     0
  0
APPID
  2
ASM_BASETRAVI1
 70
     0
  0
APPID
  2
ASM_GRUPPI
 70
     0
  0
APPID
  2
ASM_CADM_ALBERO
 70
     0
  0
APPID
  2
ASM_GOLE
 70
     0
  0
APPID
  2
ACAD_MLEADERVER
 70
     0
  0
APPID
  2
ACAD_DSTYLE_DIMJAG
 70
     0
  0
APPID
  2
ACAD_DSTYLE_DIMTALN
 70
     0
  0
APPID
  2
ACAD_EXEMPT_FROM_CAD_STANDARDS
 70
     0
  0
APPID
  2
ACAD_DSTYLE_DIMRADIAL_EXTENSION
 70
     0
  0
APPID
  2
ACAD_PSEXT
 70
     0
  0
APPID
  2
ACAD_DSTYLE_DIMBREAK
 70
     0
  0
APPID
  2
ACAECLAYERSTANDARD
 70
     0
  0
APPID
  2
ACCMTRANSPARENCY
 70
     0
  0
APPID
  2
GRADIENTCOLOR1ACI
 70
     0
  0
APPID
  2
GRADIENTCOLOR2ACI
 70
     0
  0
APPID
  2
ACAD_NAV_VCDISPLAY
 70
     0
  0
ENDTAB
  0
TABLE
  2
DIMSTYLE
 70
     1
  0
DIMSTYLE
  2
STANDARD
 70
     0
  3

  4

  5

  6

  7

 40
1.0
 41
0.18
 42
0.0625
 43
0.38
 44
0.18
 45
0.0
 46
0.0
 47
0.0
 48
0.0
140
0.18
141
0.09
142
0.0
143
25.399999999999999
144
1.0
145
0.0
146
1.0
147
0.09
 71
     0
 72
     0
 73
     1
 74
     1
 75
     0
 76
     0
 77
     0
 78
     0
170
     0
171
     2
172
     0
173
     0
174
     0
175
     0
176
     0
177
     0
178
     0
  0
ENDTAB
  0
ENDSEC
  0
SECTION
  2
BLOCKS
  0
BLOCK
  8
0
  2
$MODEL_SPACE
 70
     0
 10
0.0
 20
0.0
 30
0.0
  3
$MODEL_SPACE
  1

  0
ENDBLK
  5
36
  8
0
  0
BLOCK
 67
     1
  8
0
  2
$PAPER_SPACE
 70
     0
 10
0.0
 20
0.0
 30
0.0
  3
$PAPER_SPACE
  1

  0
ENDBLK
  5
34
 67
     1
  8
0
  0
ENDSEC
  0
SECTION
  2
ENTITIES
  0
ARC
  5
28753
  8
0
 10
495.0303925707546
 20
398.68149017268058
 30
0.0
 40
3.999999999986982
 50
90.0
 51
180.0
  0
ARC
  5
28754
  8
0
 10
589.03039257078103
 20
398.68149017268058
 30
0.0
 40
3.999999999986982
 50
0.0
 51
90.0
  0
LINE
  5
28755
  8
0
 10
491.03039245900868
 20
398.6814868348078
 30
0.0
 11
491.03039245900868
 21
393.18149058990042
 31
0.0
  0
LINE
  5
28756
  8
0
 10
593.03039334562766
 20
393.18149058990042
 30
0.0
 11
593.03039334562766
 21
398.6814868348078
 31
0.0
  0
LINE
  5
28757
  8
0
 10
494.53039303270339
 20
393.18149058990042
 30
0.0
 11
494.53039303270339
 21
384.8814916508631
 31
0.0
  0
LINE
  5
28758
  8
0
 10
589.53039370325564
 20
385.6814902918772
 30
0.0
 11
589.53039370325564
 21
393.18149058990042
 31
0.0
  0
ARC
  5
28759
  8
0
 10
508.03039257076819
 20
398.55649017266791
 30
0.0
 40
8.1250000000001421
 50
90.0
 51
149.4897625938838
  0
ARC
  5
2875A
  8
0
 10
576.03039257076728
 20
398.55649017266791
 30
0.0
 40
8.1250000000001421
 50
30.510237406116168
 51
90.0
  0
LINE
  5
2875B
  8
0
 10
576.03039614704596
 20
406.68148814610993
 30
0.0
 11
508.0303924515581
 21
406.68148814610993
 31
0.0
  0
CIRCLE
  5
28761
  8
0
 10
486.03039257076739
 20
282.68149017266802
 30
0.0
 40
9.0000000000000568
  0
LINE
  5
28768
  8
0
 10
495.02576032906421
 20
402.68148749045878
 30
0.0
 11
589.03039268997668
 21
402.68148749045878
 31
0.0
  0
LINE
  5
2876A
  8
0
 10
491.03039245900868
 20
393.18149058990048
 30
0.0
 11
593.03039334562766
 21
393.18149058990042
 31
0.0
  0
LINE
  5
2876C
  8
0
 10
508.05966950801371
 20
384.8814916508631
 30
0.0
 11
508.05966950801371
 21
281.81461465455459
 31
0.0
  0
POLYLINE
  5
2876D
  8
0
 66
     1
 10
0.0
 20
0.0
 30
0.0
 70
   128
  0
VERTEX
  5
28EE5
  8
0
 10
589.53039370325564
 20
385.6814902918772
 30
0.0
  0
VERTEX
  5
28EE6
  8
0
 10
589.46465723064898
 20
385.597686161323
 30
0.0
  0
VERTEX
  5
28EE7
  8
0
 10
589.26764152792452
 20
385.3465121882395
 30
0.0
  0
VERTEX
  5
28EE8
  8
0
 10
588.93989048746585
 20
384.92866127662222
 30
0.0
  0
VERTEX
  5
28EE9
  8
0
 10
588.48230562952506
 20
384.34528826646368
 30
0.0
  0
VERTEX
  5
28EEA
  8
0
 10
587.89616100338446
 20
383.59800993375342
 30
0.0
  0
VERTEX
  5
28EEB
  8
0
 10
587.183065934453
 20
382.68889008931683
 30
0.0
  0
VERTEX
  5
28EEC
  8
0
 10
586.34500972774981
 20
381.6204544799761
 30
0.0
  0
VERTEX
  5
28EED
  8
0
 10
585.38430206325995
 20
380.3956460850672
 30
0.0
  0
VERTEX
  5
28EEE
  8
0
 10
584.30361024883734
 20
379.01786981992291
 30
0.0
  0
VERTEX
  5
28EEF
  8
0
 10
583.10590706614005
 20
377.49093293122809
 30
0.0
  0
VERTEX
  5
28EF0
  8
0
 10
581.7945303752756
 20
375.81905244760082
 30
0.0
  0
VERTEX
  5
28EF1
  8
0
 10
580.37309370783316
 20
374.00687008075278
 30
0.0
  0
VERTEX
  5
28EF2
  8
0
 10
578.84553842094886
 20
372.0593926208453
 30
0.0
  0
VERTEX
  5
28EF3
  8
0
 10
577.21609644440173
 20
369.9820142882304
 30
0.0
  0
VERTEX
  5
28EF4
  8
0
 10
575.4892604782915
 20
367.78047948054831
 30
0.0
  0
VERTEX
  5
28EF5
  8
0
 10
573.6698286965227
 20
365.46088277272742
 30
0.0
  0
VERTEX
  5
28EF6
  8
0
 10
571.76283024099826
 20
363.02965401582281
 30
0.0
  0
VERTEX
  5
28EF7
  8
0
 10
569.77353267220019
 20
360.49350618295227
 30
0.0
  0
VERTEX
  5
28EF8
  8
0
 10
567.70745687035082
 20
357.85947262219952
 30
0.0
  0
VERTEX
  5
28EF9
  8
0
 10
565.570317430768
 20
355.1348325508074
 30
0.0
  0
VERTEX
  5
28EFA
  8
0
 10
563.36802266386496
 20
352.32713340692089
 30
0.0
  0
VERTEX
  5
28EFB
  8
0
 10
561.10667459515093
 20
349.44414614610241
 30
0.0
  0
VERTEX
  5
28EFC
  8
0
 10
558.79252426174639
 20
346.49384288959072
 30
0.0
  0
VERTEX
  5
28EFD
  8
0
 10
556.4319866135454
 20
343.48439692430071
 30
0.0
  0
VERTEX
  5
28EFE
  8
0
 10
554.03158835915076
 20
340.42413427404932
 30
0.0
  0
VERTEX
  5
28EFF
  8
0
 10
551.59797541645526
 20
337.32152252368502
 30
0.0
  0
VERTEX
  5
28F00
  8
0
 10
549.13788311031806
 20
334.18515591792629
 30
0.0
  0
VERTEX
  5
28F01
  8
0
 10
546.65812127140521
 20
331.02370693258808
 30
0.0
  0
VERTEX
  5
28F02
  8
0
 10
544.16554815915583
 20
327.84593372516201
 30
0.0
  0
VERTEX
  5
28F03
  8
0
 10
541.6670667364931
 20
324.66062425546221
 30
0.0
  0
VERTEX
  5
28F04
  8
0
 10
539.16959114221095
 20
321.47659628562502
 30
0.0
  0
VERTEX
  5
28F05
  8
0
 10
536.68003178981303
 20
318.30266012720631
 30
0.0
  0
VERTEX
  5
28F06
  8
0
 10
534.2052804663515
 20
315.14760746531061
 30
0.0
  0
VERTEX
  5
28F07
  8
0
 10
531.75218798068522
 20
312.02016292981671
 30
0.0
  0
VERTEX
  5
28F08
  8
0
 10
529.327541811738
 20
308.92898409537838
 30
0.0
  0
VERTEX
  5
28F09
  8
0
 10
526.93805120733725
 20
305.8826298164563
 30
0.0
  0
VERTEX
  5
28F0A
  8
0
 10
524.59033600834368
 20
302.88952856235068
 30
0.0
  0
VERTEX
  5
28F0B
  8
0
 10
522.29088567045676
 20
299.95796537868551
 30
0.0
  0
VERTEX
  5
28F0C
  8
0
 10
520.04606671479701
 20
297.09605208508538
 30
0.0
  0
VERTEX
  5
28F0D
  8
0
 10
517.86209665087222
 20
294.31171144269268
 30
0.0
  0
VERTEX
  5
28F0E
  8
0
 10
515.74501603690135
 20
291.61264921448992
 30
0.0
  0
VERTEX
  5
28F0F
  8
0
 10
513.70068475452422
 20
289.00633507318662
 30
0.0
  0
VERTEX
  5
28F10
  8
0
 10
511.7347615197038
 20
286.49998281061522
 30
0.0
  0
VERTEX
  5
28F11
  8
0
 10
509.85268711892121
 20
284.10052891731129
 30
0.0
  0
VERTEX
  5
28F12
  8
0
 10
508.05966950801371
 20
281.81461465455459
 30
0.0
  0
SEQEND
  5
28F13
  8
0
  0
LINE
  5
2876E
  8
0
 10
424.7470537557935
 20
371.8814876573519
 30
0.0
 11
428.23039389995091
 21
358.88149111442129
 31
0.0
  0
LINE
  5
2876F
  8
0
 10
473.26371375319718
 20
384.8814916508631
 30
0.0
 11
424.7470537557935
 21
371.8814876573519
 31
0.0
  0
LINE
  5
28770
  8
0
 10
508.05966950801371
 20
384.8814916508631
 30
0.0
 11
473.26371375319718
 21
384.8814916508631
 31
0.0
  0
ARC
  5
28771
  8
0
 10
496.03039257076728
 20
282.68149017266342
 30
0.0
 40
9.9999999999978684
 50
269.99999999998698
 51
321.89020097522382
  0
LINE
  5
28772
  8
0
 10
478.5303927384054
 20
272.68149039618538
 30
0.0
 11
484.35090062056838
 21
272.68149039618538
 31
0.0
  0
LINE
  5
28773
  8
0
 10
487.7098845209664
 20
272.68149039618538
 30
0.0
 11
496.03039234724992
 21
272.68149039618538
 31
0.0
  0
LINE
  5
28774
  8
0
 10
428.23039389995091
 20
358.88149111442129
 30
0.0
 11
481.35123656911009
 21
358.88149111442129
 31
0.0
  0
ARC
  5
28775
  8
0
 10
478.53039257076728
 20
282.68149017267069
 30
0.0
 40
10.000000000000369
 50
170.34424714125689
 51
269.99999999998698
  0
LINE
  5
28776
  8
0
 10
481.35123656911009
 20
358.88149111442129
 30
0.0
 11
468.67205969837659
 21
284.3587712794901
 31
0.0
  0
LINE
  5
28777
  8
0
 10
503.89868788269519
 20
276.50978543706111
 30
0.0
 11
508.05966950801371
 21
281.81461465455459
 31
0.0
  0
LINE
  5
2877B
  8
0
 10
424.31432030943392
 20
373.49647550754111
 30
0.0
 11
421.41654364613049
 21
372.72002070121329
 31
0.0
  0
LINE
  5
2877E
  8
0
 10
421.41654364613049
 20
372.72002070121329
 30
0.0
 11
422.23079050454101
 21
369.6812030004823
 31
0.0
  0
LINE
  5
2877F
  8
0
 10
424.7470537557935
 20
371.8814876573519
 30
0.0
 11
424.31432030943392
 21
373.49647550754111
 31
0.0
  0
ARC
  5
28780
  8
0
 10
486.03039257076739
 20
282.68149017266802
 30
0.0
 40
13.294071859022431
 50
296.25587938207099
 51
311.21738768738862
  0
ARC
  5
28781
  8
0
 10
486.03039257076739
 20
282.68149017266802
 30
0.0
 40
13.825133763929781
 50
279.36638205883429
 51
296.63361794115821
  0
ARC
  5
28782
  8
0
 10
486.03039257076739
 20
282.68149017266802
 30
0.0
 40
13.29407185902242
 50
260.25587938205598
 51
279.74412061794391
  0
ARC
  5
28783
  8
0
 10
486.03039257076739
 20
282.68149017266802
 30
0.0
 40
13.825133763929831
 50
243.36638205884191
 51
260.6336179411656
  0
ARC
  5
28784
  8
0
 10
486.03039257076739
 20
282.68149017266802
 30
0.0
 40
13.294071859022431
 50
228.17363604461349
 51
243.74412061792901
  0
ARC
  5
28785
  8
0
 10
486.03039257076739
 20
282.68149017266802
 30
0.0
 40
45.000000000000007
 50
103.0828660914751
 51
123.13401601739881
  0
LINE
  5
28786
  8
0
 10
472.26215176132672
 20
305.45977770261328
 30
0.0
 11
461.4334276303386
 21
320.36423577837508
 31
0.0
  0
LINE
  5
28787
  8
0
 10
457.79285229590892
 20
317.71920143537091
 30
0.0
 11
471.2067462861275
 21
299.25656027071039
 31
0.0
  0
ARC
  5
28788
  8
0
 10
486.03039257076739
 20
282.68149017266802
 30
0.0
 40
44.999999999999957
 50
128.86598398259849
 51
159.13401601740449
  0
LINE
  5
28789
  8
0
 10
469.69238877144812
 20
290.3558196211593
 30
0.0
 11
443.98166633990758
 21
298.70973980896042
 31
0.0
  0
LINE
  5
2878A
  8
0
 10
442.59108997729771
 20
294.42998475305598
 30
0.0
 11
468.92953499999999
 21
285.87210538707541
 31
0.0
  0
ARC
  5
2878B
  8
0
 10
486.03039257076739
 20
282.68149017266802
 30
0.0
 40
44.999999999999943
 50
164.86598398260239
 51
195.13401601740421
  0
LINE
  5
2878C
  8
0
 10
469.04094353166579
 20
279.52707337125997
 30
0.0
 11
442.59108997729771
 21
270.93299559227989
 31
0.0
  0
LINE
  5
2878D
  8
0
 10
443.98166633990758
 20
266.65324053637551
 30
0.0
 11
471.48137748089789
 21
275.58843872420363
 31
0.0
  0
ARC
  5
2878E
  8
0
 10
486.03039257076739
 20
282.68149017266802
 30
0.0
 40
45.000000000000007
 50
200.86598398260301
 51
231.13401601740151
  0
LINE
  5
2878F
  8
0
 10
476.18625242111438
 20
272.96012162141369
 30
0.0
 11
457.79285229590892
 21
247.64377890996499
 31
0.0
  0
LINE
  5
28790
  8
0
 10
461.4334276303386
 20
244.9987445669608
 30
0.0
 11
480.14935128239148
 21
270.75900311492251
 31
0.0
  0
ARC
  5
28791
  8
0
 10
486.03039257076739
 20
282.68149017266802
 30
0.0
 40
45.000000000000043
 50
236.86598398260119
 51
267.13401601739719
  0
LINE
  5
28792
  8
0
 10
483.78039266762488
 20
269.57920647136729
 30
0.0
 11
483.78039266762488
 21
237.73777379564811
 31
0.0
  0
LINE
  5
28793
  8
0
 10
488.28039247390979
 20
237.73777379564811
 30
0.0
 11
488.28039247390979
 21
269.57920647136729
 31
0.0
  0
ARC
  5
28794
  8
0
 10
486.03039257076739
 20
282.68149017266802
 30
0.0
 40
45.000000000000099
 50
272.86598398260293
 51
303.13401601739878
  0
LINE
  5
28795
  8
0
 10
491.91143385914319
 20
270.75900311492251
 30
0.0
 11
510.62735751119612
 21
244.9987445669608
 31
0.0
  0
LINE
  5
28796
  8
0
 10
514.26793284562575
 20
247.64377890996499
 30
0.0
 11
496.07689235207789
 21
272.68159842960398
 31
0.0
  0
ARC
  5
28797
  8
0
 10
486.03039257076739
 20
282.68149017266802
 30
0.0
 40
45.000000000000071
 50
308.86598398259849
 51
339.13401601740452
  0
LINE
  5
28798
  8
0
 10
502.42112226632588
 20
274.99002904541658
 30
0.0
 11
528.07911880162715
 21
266.65324053637551
 31
0.0
  0
LINE
  5
28799
  8
0
 10
529.46969516423701
 20
270.93299559227989
 30
0.0
 11
505.60621566918849
 21
278.68671004570888
 31
0.0
  0
ARC
  5
2879A
  8
0
 10
486.03039257076739
 20
282.68149017266802
 30
0.0
 40
44.999999999999943
 50
344.86598398260242
 51
15.13401601739762
  0
LINE
  5
2879B
  8
0
 10
514.01647016254424
 20
289.40892766140269
 30
0.0
 11
529.46969516423701
 21
294.42998475305598
 31
0.0
  0
LINE
  5
2879C
  8
0
 10
528.07911880162715
 20
298.70973980896042
 30
0.0
 11
518.99719260481345
 21
295.7588432999687
 31
0.0
  0
ARC
  5
2879D
  8
0
 10
486.03039257076739
 20
282.68149017266802
 30
0.0
 40
45.000000000000071
 50
20.86598398259552
 51
28.494862724615722
  0
ARC
  5
2879E
  8
0
 10
486.03039257076739
 20
282.68149017266802
 30
0.0
 40
38.071796769723917
 50
345.38808977737523
 51
14.611910222624781
  0
ARC
  5
2879F
  8
0
 10
486.03039257076739
 20
282.68149017266802
 30
0.0
 40
38.071796769723981
 50
309.38808977737978
 51
338.61191022261909
  0
ARC
  5
287A0
  8
0
 10
486.03039257076739
 20
282.68149017266802
 30
0.0
 40
38.071796769724081
 50
273.38808977738933
 51
302.61191022261329
  0
ARC
  5
287A1
  8
0
 10
486.03039257076739
 20
282.68149017266802
 30
0.0
 40
38.071796769724081
 50
237.38808977738671
 51
266.61191022261062
  0
ARC
  5
287A2
  8
0
 10
486.03039257076739
 20
282.68149017266802
 30
0.0
 40
38.071796769724081
 50
201.3880897773808
 51
230.6119102226202
  0
ARC
  5
287A3
  8
0
 10
486.03039257076739
 20
282.68149017266802
 30
0.0
 40
38.071796769724052
 50
129.3880897773798
 51
158.6119102226192
  0
ARC
  5
287A4
  8
0
 10
486.03039257076739
 20
282.68149017266802
 30
0.0
 40
38.07179676972406
 50
165.3880897773752
 51
194.6119102226248
  0
ARC
  5
287A7
  8
0
 10
486.03039257076739
 20
282.68149017266802
 30
0.0
 40
35.473720558371021
 50
165.63655395830571
 51
194.3634460416942
  0
ARC
  5
287A8
  8
0
 10
486.03039257076739
 20
282.68149017266802
 30
0.0
 40
35.473720558371028
 50
309.63655395830972
 51
338.36344604169312
  0
ARC
  5
287A9
  8
0
 10
486.03039257076739
 20
282.68149017266802
 30
0.0
 40
35.473720558371021
 50
273.6365539583125
 51
302.36344604169591
  0
ARC
  5
287AA
  8
0
 10
486.03039257076739
 20
282.68149017266802
 30
0.0
 40
35.473720558370893
 50
345.63655395829909
 51
14.363446041694241
  0
ARC
  5
287AB
  8
0
 10
486.03039257076739
 20
282.68149017266802
 30
0.0
 40
35.47372055837107
 50
237.63655395830421
 51
266.36344604168738
  0
ARC
  5
287AC
  8
0
 10
486.03039257076739
 20
282.68149017266802
 30
0.0
 40
35.473720558371006
 50
129.63655395830961
 51
158.36344604169309
  0
ARC
  5
287AD
  8
0
 10
486.03039257076739
 20
282.68149017266802
 30
0.0
 40
35.473720558371042
 50
201.63655395830679
 51
230.36344604169039
  0
ARC
  5
287B2
  8
0
 10
486.03039257076739
 20
282.68149017266802
 30
0.0
 40
13.075393891298519
 50
229.5617895307164
 51
310.11121416251291
  0
ARC
  5
287B3
  8
0
 10
486.03039257076739
 20
282.68149017266802
 30
0.0
 40
11.57655314992606
 50
239.7476654144169
 51
300.25233458555408
  0
ARC
  5
287B5
  8
0
 10
486.03039257076739
 20
282.68149017266802
 30
0.0
 40
54.474676636127001
 50
98.964828127418656
 51
32.742103666310513
  0
LINE
  5
287B8
  8
0
 10
521.48024760035025
 20
296.56563593916462
 30
0.0
 11
520.83787344244479
 21
298.10552566222708
 31
0.0
  0
ARC
  5
287B9
  8
0
 10
486.03039257076739
 20
282.68149017266802
 30
0.0
 40
38.071796769723967
 50
107.5293755067557
 51
122.6119102226133
  0
ARC
  5
287C4
  8
0
 10
486.03039257076739
 20
282.68149017266802
 30
0.0
 40
35.47372055837107
 50
109.70637324779661
 51
122.36344604169579
  0
LINE
  5
287C7
  8
0
 10
150.3053479821171
 20
292.6814935254298
 30
0.0
 11
150.80534713275091
 21
292.6814935254298
 31
0.0
  0
LINE
  5
287C8
  8
0
 10
209.80534749037881
 20
292.6814935254298
 30
0.0
 11
210.3053466410127
 21
292.6814935254298
 31
0.0
  0
LINE
  5
287C9
  8
0
 10
220.47758148915429
 20
293.65114840589388
 30
0.0
 11
221.00534709102769
 21
291.68149336151708
 31
0.0
  0
LINE
  5
287CA
  8
0
 10
221.00534709102769
 20
273.68149413637741
 30
0.0
 11
220.47758148915429
 21
271.71183909200062
 31
0.0
  0
LINE
  5
287CB
  8
0
 10
146.57757850296159
 20
293.65114840589388
 30
0.0
 11
147.10534783012531
 21
291.68149336151708
 31
0.0
  0
LINE
  5
287CC
  8
0
 10
147.10534783012531
 20
273.68149413637741
 30
0.0
 11
146.57757850296159
 21
271.71183909200062
 31
0.0
  0
LINE
  5
287CD
  8
0
 10
137.6331155181613
 20
271.71183909200062
 30
0.0
 11
137.10534619099761
 21
273.68149413637741
 31
0.0
  0
LINE
  5
287CE
  8
0
 10
137.10534619099761
 20
291.68149336151708
 30
0.0
 11
137.6331155181613
 21
293.65114840589388
 31
0.0
  0
LINE
  5
287D1
  8
0
 10
231.30534635789061
 20
398.681490411087
 30
0.0
 11
231.30534635789061
 21
393.18149416617968
 31
0.0
  0
LINE
  5
287D2
  8
0
 10
129.30534826523919
 20
393.18149416617968
 30
0.0
 11
129.30534826523919
 21
398.681490411087
 31
0.0
  0
ARC
  5
287D3
  8
0
 10
227.30534731157761
 20
398.6814937489608
 30
0.0
 40
3.9999999999871241
 50
0.0
 51
90.0
  0
ARC
  5
287D4
  8
0
 10
133.30534731155211
 20
398.6814937489608
 30
0.0
 40
3.999999999986982
 50
90.0
 51
180.0
  0
LINE
  5
287D5
  8
0
 10
227.80534671551851
 20
393.18149416617968
 30
0.0
 11
227.80534671551851
 21
325.12383042745222
 31
0.0
  0
LINE
  5
287D6
  8
0
 10
132.80534790761129
 20
325.12383042745222
 30
0.0
 11
132.80534790761129
 21
393.18149416617968
 31
0.0
  0
ARC
  5
287D7
  8
0
 10
214.30534731156581
 20
398.5564937489471
 30
0.0
 40
8.1250000000000675
 50
30.510237406108541
 51
90.0
  0
ARC
  5
287D8
  8
0
 10
146.3053473115649
 20
398.5564937489471
 30
0.0
 40
8.125
 50
90.0
 51
149.4897625938915
  0
LINE
  5
287D9
  8
0
 10
146.30534546382091
 20
406.68149172238918
 30
0.0
 11
214.30534915930889
 21
406.68149172238918
 31
0.0
  0
ARC
  5
287DA
  8
0
 10
189.69626016523921
 20
193.6814937489477
 30
0.0
 40
1.000000000000085
 50
270.00000000005213
 51
341.00000000000477
  0
ARC
  5
287DB
  8
0
 10
186.3053473115649
 20
192.9814937489474
 30
0.0
 40
0.3000000000000114
 50
179.99999999998701
 51
270.0
  0
LINE
  5
287DC
  8
0
 10
189.69626026160381
 20
192.6814901726685
 30
0.0
 11
186.30534736371891
 21
192.6814901726685
 31
0.0
  0
ARC
  5
287DD
  8
0
 10
183.30534731156581
 20
192.9814937489474
 30
0.0
 40
0.2999999999999403
 50
270.0
 51
0.0000000000195413
  0
LINE
  5
287DE
  8
0
 10
183.3053473376419
 20
192.6814901726685
 30
0.0
 11
177.30534728548781
 21
192.6814901726685
 31
0.0
  0
ARC
  5
287DF
  8
0
 10
174.30534731156581
 20
192.9814937489474
 30
0.0
 40
0.2999999999999403
 50
270.0
 51
0.0000000000195413
  0
ARC
  5
287E0
  8
0
 10
177.3053473115649
 20
192.9814937489474
 30
0.0
 40
0.2999999999999403
 50
179.99999999998701
 51
270.00000000005213
  0
LINE
  5
287E1
  8
0
 10
174.30534725941081
 20
192.6814901726685
 30
0.0
 11
170.91443436152599
 21
192.6814901726685
 31
0.0
  0
ARC
  5
287E2
  8
0
 10
170.91443445789059
 20
193.6814937489477
 30
0.0
 40
1.000000000000085
 50
198.99999999998829
 51
270.0
  0
LINE
  5
287E3
  8
0
 10
186.00534740767739
 20
192.98149525098421
 30
0.0
 11
183.60534729368351
 21
192.98149525098421
 31
0.0
  0
LINE
  5
287E4
  8
0
 10
177.00534732944629
 20
192.98149525098421
 30
0.0
 11
174.60534721545241
 21
192.98149525098421
 31
0.0
  0
LINE
  5
287E5
  8
0
 10
192.5142872114202
 20
366.5688994424782
 30
0.0
 11
193.44400567866231
 21
363.86880158357241
 31
0.0
  0
LINE
  5
287E6
  8
0
 10
193.44400567866231
 20
201.494185914322
 30
0.0
 11
190.6417789862241
 21
193.35592417888259
 31
0.0
  0
LINE
  5
287E7
  8
0
 10
169.96891563690559
 20
193.35592417888259
 30
0.0
 11
167.1666889444675
 21
201.494185914322
 31
0.0
  0
LINE
  5
287E8
  8
0
 10
167.1666889444675
 20
363.86880158357241
 30
0.0
 11
168.09640741170961
 21
366.5688994424782
 31
0.0
  0
ARC
  5
287E9
  8
0
 10
190.6074502723647
 20
362.89209855473302
 30
0.0
 40
2.9999999999868621
 50
359.99999999997402
 51
19.000000000042849
  0
ARC
  5
287EA
  8
0
 10
190.6074502723647
 20
202.47088894316181
 30
0.0
 40
2.999999999986839
 50
340.99999999996379
 51
0.0000000000260551
  0
ARC
  5
287EB
  8
0
 10
170.0032443507659
 20
362.89209855473302
 30
0.0
 40
2.9999999999869971
 50
160.99999999996379
 51
180.00000000002601
  0
ARC
  5
287EC
  8
0
 10
170.0032443507659
 20
202.47088894316181
 30
0.0
 40
2.9999999999869731
 50
179.99999999997391
 51
199.00000000003621
  0
ARC
  5
287ED
  8
0
 10
194.35745027235109
 20
361.21596822371851
 30
0.0
 40
0.7500000000000285
 50
0.0
 51
180.0
  0
ARC
  5
287EE
  8
0
 10
194.35745027235109
 20
204.14701927417639
 30
0.0
 40
0.7500000000000285
 50
180.0
 51
0.0
  0
ARC
  5
287EF
  8
0
 10
166.25324435077869
 20
361.21596822371851
 30
0.0
 40
0.7500000000000285
 50
0.0
 51
180.0
  0
ARC
  5
287F0
  8
0
 10
166.25324435077869
 20
204.14701927417639
 30
0.0
 40
0.7500000000000285
 50
180.0
 51
0.0
  0
ARC
  5
287F1
  8
0
 10
195.85745027235109
 20
356.85965190720441
 30
0.0
 40
0.7500000000000285
 50
0.0
 51
180.0
  0
ARC
  5
287F2
  8
0
 10
195.85745027235109
 20
208.5033355906904
 30
0.0
 40
0.7500000000000285
 50
180.0
 51
0.0
  0
ARC
  5
287F3
  8
0
 10
164.75324435077869
 20
356.85965190720441
 30
0.0
 40
0.7500000000001706
 50
0.0
 51
180.0
  0
ARC
  5
287F4
  8
0
 10
164.75324435077869
 20
208.5033355906904
 30
0.0
 40
0.7500000000001706
 50
180.0
 51
0.0
  0
LINE
  5
287F5
  8
0
 10
196.60745048827789
 20
354.68149064950558
 30
0.0
 11
202.64190295643471
 21
337.15617163948639
 31
0.0
  0
LINE
  5
287F6
  8
0
 10
202.64190295643471
 20
228.20681585840811
 30
0.0
 11
196.60745048827789
 21
210.6814968483888
 31
0.0
  0
LINE
  5
287F7
  8
0
 10
164.00324413485191
 20
210.6814968483888
 30
0.0
 11
157.9687916666951
 21
228.20681585840811
 31
0.0
  0
LINE
  5
287F8
  8
0
 10
157.9687916666951
 20
337.15617163948639
 30
0.0
 11
164.00324413485191
 21
354.68149064950558
 31
0.0
  0
ARC
  5
287F9
  8
0
 10
199.80534731159031
 20
336.17946592170722
 30
0.0
 40
2.9999999999751021
 50
359.99999999996749
 51
19.000000000070909
  0
ARC
  5
287FA
  8
0
 10
199.80534731159031
 20
229.1835215761877
 30
0.0
 40
2.9999999999751021
 50
340.99999999992912
 51
0.0000000000455964
  0
ARC
  5
287FB
  8
0
 10
160.80534731154029
 20
336.17946592170722
 30
0.0
 40
2.999999999975016
 50
160.99999999992909
 51
180.00000000004559
  0
ARC
  5
287FC
  8
0
 10
160.80534731154029
 20
229.1835215761877
 30
0.0
 40
2.99999999997504
 50
179.99999999996089
 51
199.0000000000779
  0
LINE
  5
287FD
  8
0
 10
202.8053482056346
 20
295.97556563936098
 30
0.0
 11
208.36430834538601
 21
295.75688737355102
 31
0.0
  0
LINE
  5
287FE
  8
0
 10
208.36430834538601
 20
269.60610012434353
 30
0.0
 11
202.8053482056346
 21
269.38742185853351
 31
0.0
  0
LINE
  5
287FF
  8
0
 10
157.8053464174952
 20
269.38742185853351
 30
0.0
 11
152.2463862777438
 21
269.60610012434353
 31
0.0
  0
LINE
  5
28800
  8
0
 10
152.2463862777438
 20
295.75688737355102
 30
0.0
 11
157.8053464174952
 21
295.97556563936098
 31
0.0
  0
ARC
  5
28801
  8
0
 10
208.30534731156311
 20
294.25804689887372
 30
0.0
 40
1.500000000002244
 50
0.0
 51
87.747264808867754
  0
ARC
  5
28802
  8
0
 10
208.30534731156311
 20
271.10494059902129
 30
0.0
 40
1.500000000002188
 50
272.25273519113222
 51
0.0
  0
ARC
  5
28803
  8
0
 10
152.3053473115676
 20
294.25804689887372
 30
0.0
 40
1.500000000002188
 50
92.252735191132217
 51
180.0
  0
ARC
  5
28804
  8
0
 10
152.3053473115676
 20
271.10494059902129
 30
0.0
 40
1.500000000002188
 50
180.0
 51
267.7472648088937
  0
ARC
  5
28805
  8
0
 10
181.60611645419129
 20
282.68149374894722
 30
0.0
 40
39.256516972185871
 50
351.96849322514379
 51
8.0315067748562132
  0
LINE
  5
28806
  8
0
 10
213.50534679300449
 20
288.1663210774206
 30
0.0
 11
220.47758148915429
 21
288.1663210774206
 31
0.0
  0
LINE
  5
28807
  8
0
 10
213.50534679300449
 20
277.19666642047389
 30
0.0
 11
220.47758148915429
 21
277.19666642047389
 31
0.0
  0
LINE
  5
28808
  8
0
 10
221.00534709102769
 20
273.68149413637741
 30
0.0
 11
221.00534709102769
 21
291.68149336151708
 31
0.0
  0
ARC
  5
28809
  8
0
 10
210.8984878292338
 20
274.45425275623722
 30
0.0
 40
9.9639283443487265
 50
344.02402965597048
 51
15.97597034402953
  0
ARC
  5
2880A
  8
0
 10
211.01972151338191
 20
290.90873474165721
 30
0.0
 40
9.847433575663544
 50
343.82988471640863
 51
16.170115283591372
  0
LINE
  5
2880C
  8
0
 10
213.50534679300449
 20
271.71183909200062
 30
0.0
 11
220.47758148915429
 21
271.71183909200062
 31
0.0
  0
LINE
  5
2880D
  8
0
 10
213.50534679300449
 20
293.65114840589388
 30
0.0
 11
220.47758148915429
 21
293.65114840589388
 31
0.0
  0
ARC
  5
2880E
  8
0
 10
107.706744190931
 20
282.68149374894722
 30
0.0
 40
39.255892435869903
 50
351.96836460541289
 51
8.0316353945805616
  0
ARC
  5
2880F
  8
0
 10
136.9985321711699
 20
274.45425275623722
 30
0.0
 40
9.9638828441726819
 50
344.02395475012048
 51
15.976045249879499
  0
ARC
  5
28810
  8
0
 10
137.11976483259031
 20
290.90873474165721
 30
0.0
 40
9.8473891021560576
 50
343.82980968500641
 51
16.17019031499358
  0
LINE
  5
28811
  8
0
 10
137.6331155181613
 20
277.19666642047389
 30
0.0
 11
146.57757850296159
 21
277.19666642047389
 31
0.0
  0
ARC
  5
28812
  8
0
 10
147.2139634509638
 20
274.45425275623722
 30
0.0
 40
9.9656148740186392
 50
164.02680564695049
 51
195.97319435304939
  0
LINE
  5
28813
  8
0
 10
137.6331155181613
 20
271.71183909200062
 30
0.0
 11
146.57757850296159
 21
271.71183909200062
 31
0.0
  0
LINE
  5
28814
  8
0
 10
137.6331155181613
 20
288.1663210774206
 30
0.0
 11
146.57757850296159
 21
288.1663210774206
 31
0.0
  0
ARC
  5
28815
  8
0
 10
176.5097763651145
 20
282.68149374894722
 30
0.0
 40
39.261661827184227
 50
171.96955262175351
 51
188.03044737824649
  0
LINE
  5
28816
  8
0
 10
137.6331155181613
 20
293.65114840589388
 30
0.0
 11
146.57757850296159
 21
293.65114840589388
 31
0.0
  0
ARC
  5
28817
  8
0
 10
147.089778509029
 20
290.90873474165721
 30
0.0
 40
9.8462839502337403
 50
163.8279449525977
 51
196.1720550474023
  0
LINE
  5
28819
  8
0
 10
137.10534619099761
 20
273.68149413637741
 30
0.0
 11
137.10534619099761
 21
291.68149336151708
 31
0.0
  0
LINE
  5
28825
  8
0
 10
211.505346465179
 20
370.01547097138979
 30
0.0
 11
211.505346465179
 21
358.88149469070049
 31
0.0
  0
LINE
  5
28826
  8
0
 10
213.50534679300449
 20
358.88149469070049
 30
0.0
 11
210.3053466410127
 21
358.88149469070049
 31
0.0
  0
LINE
  5
28828
  8
0
 10
213.50534679300449
 20
371.8814912336311
 30
0.0
 11
199.3053473115649
 21
371.8814912336311
 31
0.0
  0
LINE
  5
28829
  8
0
 10
199.3053473115649
 20
370.0154709713899
 30
0.0
 11
211.505346465179
 21
370.01547097138979
 31
0.0
  0
LINE
  5
2882B
  8
0
 10
213.50534679300449
 20
384.8814952271423
 30
0.0
 11
147.10534783012531
 21
384.8814952271423
 31
0.0
  0
LINE
  5
2882D
  8
0
 10
161.3053473115649
 20
371.8814912336311
 30
0.0
 11
147.10534783012531
 21
371.8814912336311
 31
0.0
  0
LINE
  5
2882F
  8
0
 10
150.3053479821171
 20
358.88149469070049
 30
0.0
 11
147.10534783012531
 21
358.88149469070049
 31
0.0
  0
LINE
  5
28830
  8
0
 10
149.1053481579508
 20
370.01547097138979
 30
0.0
 11
149.1053481579508
 21
358.88149469070049
 31
0.0
  0
LINE
  5
28831
  8
0
 10
149.1053481579508
 20
370.01547097138979
 30
0.0
 11
161.3053473115649
 21
370.0154709713899
 31
0.0
  0
LINE
  5
28832
  8
0
 10
210.3053466410127
 20
284.35877485576941
 30
0.0
 11
213.50534679300449
 21
284.35877485576941
 31
0.0
  0
LINE
  5
28834
  8
0
 10
209.80534749037881
 20
272.68149397246469
 30
0.0
 11
213.50534679300449
 21
272.68149397246469
 31
0.0
  0
LINE
  5
28836
  8
0
 10
147.10534783012531
 20
272.68149397246469
 30
0.0
 11
150.80534713275091
 21
272.68149397246469
 31
0.0
  0
LINE
  5
28838
  8
0
 10
147.10534783012531
 20
284.35877485576941
 30
0.0
 11
150.3053479821171
 21
284.35877485576941
 31
0.0
  0
LINE
  5
2883B
  8
0
 10
210.3053466410127
 20
272.68149397246469
 30
0.0
 11
210.3053466410127
 21
370.01547097138979
 31
0.0
  0
LINE
  5
2883C
  8
0
 10
213.50534679300449
 20
384.8814952271423
 30
0.0
 11
213.50534679300449
 21
271.71183909200062
 31
0.0
  0
LINE
  5
2883E
  8
0
 10
150.3053479821171
 20
370.01547097138979
 30
0.0
 11
150.3053479821171
 21
272.68149397246469
 31
0.0
  0
LINE
  5
2883F
  8
0
 10
147.10534783012531
 20
384.8814952271423
 30
0.0
 11
147.10534783012531
 21
272.68149397246469
 31
0.0
  0
LINE
  5
28842
  8
0
 10
231.30534635789061
 20
393.18149416617968
 30
0.0
 11
129.30534826523919
 21
393.18149416617968
 31
0.0
  0
LINE
  5
28843
  8
0
 10
227.30534570223949
 20
402.68149106673809
 30
0.0
 11
133.30534892089031
 21
402.68149106673809
 31
0.0
  0
POLYLINE
  5
28844
  8
0
 10
227.80534731156473
 20
325.12383051449825
 30
0.0
 66
     1
 70
     8
  0
VERTEX
  8
0
  5
28F1C
 10
227.805
 20
325.124
 30
0.000000
  70
    32
  0
VERTEX
  8
0
  5
28F1D
 10
227.805
 20
324.860
 30
0.000000
  70
    32
  0
VERTEX
  8
0
  5
28F1E
 10
227.804
 20
324.597
 30
0.000000
  70
    32
  0
VERTEX
  8
0
  5
28F1F
 10
227.801
 20
324.333
 30
0.000000
  70
    32
  0
VERTEX
  8
0
  5
28F20
 10
227.798
 20
324.070
 30
0.000000
  70
    32
  0
VERTEX
  8
0
  5
28F21
 10
227.794
 20
323.806
 30
0.000000
  70
    32
  0
VERTEX
  8
0
  5
28F22
 10
227.789
 20
323.543
 30
0.000000
  70
    32
  0
VERTEX
  8
0
  5
28F23
 10
227.783
 20
323.279
 30
0.000000
  70
    32
  0
VERTEX
  8
0
  5
28F24
 10
227.777
 20
323.016
 30
0.000000
  70
    32
  0
VERTEX
  8
0
  5
28F25
 10
227.769
 20
322.752
 30
0.000000
  70
    32
  0
VERTEX
  8
0
  5
28F26
 10
227.760
 20
322.489
 30
0.000000
  70
    32
  0
VERTEX
  8
0
  5
28F27
 10
227.751
 20
322.226
 30
0.000000
  70
    32
  0
VERTEX
  8
0
  5
28F28
 10
227.741
 20
321.963
 30
0.000000
  70
    32
  0
VERTEX
  8
0
  5
28F29
 10
227.729
 20
321.699
 30
0.000000
  70
    32
  0
VERTEX
  8
0
  5
28F2A
 10
227.717
 20
321.436
 30
0.000000
  70
    32
  0
VERTEX
  8
0
  5
28F2B
 10
227.704
 20
321.173
 30
0.000000
  70
    32
  0
VERTEX
  8
0
  5
28F2C
 10
227.690
 20
320.910
 30
0.000000
  70
    32
  0
VERTEX
  8
0
  5
28F2D
 10
227.675
 20
320.647
 30
0.000000
  70
    32
  0
VERTEX
  8
0
  5
28F2E
 10
227.660
 20
320.385
 30
0.000000
  70
    32
  0
VERTEX
  8
0
  5
28F2F
 10
227.643
 20
320.122
 30
0.000000
  70
    32
  0
VERTEX
  8
0
  5
28F30
 10
227.626
 20
319.859
 30
0.000000
  70
    32
  0
VERTEX
  8
0
  5
28F31
 10
227.607
 20
319.597
 30
0.000000
  70
    32
  0
VERTEX
  8
0
  5
28F32
 10
227.588
 20
319.334
 30
0.000000
  70
    32
  0
VERTEX
  8
0
  5
28F33
 10
227.568
 20
319.072
 30
0.000000
  70
    32
  0
VERTEX
  8
0
  5
28F34
 10
227.546
 20
318.810
 30
0.000000
  70
    32
  0
VERTEX
  8
0
  5
28F35
 10
227.524
 20
318.548
 30
0.000000
  70
    32
  0
VERTEX
  8
0
  5
28F36
 10
227.502
 20
318.286
 30
0.000000
  70
    32
  0
VERTEX
  8
0
  5
28F37
 10
227.478
 20
318.024
 30
0.000000
  70
    32
  0
VERTEX
  8
0
  5
28F38
 10
227.453
 20
317.762
 30
0.000000
  70
    32
  0
VERTEX
  8
0
  5
28F39
 10
227.428
 20
317.501
 30
0.000000
  70
    32
  0
VERTEX
  8
0
  5
28F3A
 10
227.401
 20
317.240
 30
0.000000
  70
    32
  0
VERTEX
  8
0
  5
28F3B
 10
227.374
 20
316.978
 30
0.000000
  70
    32
  0
VERTEX
  8
0
  5
28F3C
 10
227.345
 20
316.717
 30
0.000000
  70
    32
  0
VERTEX
  8
0
  5
28F3D
 10
227.316
 20
316.456
 30
0.000000
  70
    32
  0
VERTEX
  8
0
  5
28F3E
 10
227.286
 20
316.196
 30
0.000000
  70
    32
  0
VERTEX
  8
0
  5
28F3F
 10
227.255
 20
315.935
 30
0.000000
  70
    32
  0
VERTEX
  8
0
  5
28F40
 10
227.224
 20
315.675
 30
0.000000
  70
    32
  0
VERTEX
  8
0
  5
28F41
 10
227.191
 20
315.414
 30
0.000000
  70
    32
  0
VERTEX
  8
0
  5
28F42
 10
227.157
 20
315.154
 30
0.000000
  70
    32
  0
VERTEX
  8
0
  5
28F43
 10
227.123
 20
314.894
 30
0.000000
  70
    32
  0
VERTEX
  8
0
  5
28F44
 10
227.087
 20
314.635
 30
0.000000
  70
    32
  0
VERTEX
  8
0
  5
28F45
 10
227.051
 20
314.375
 30
0.000000
  70
    32
  0
VERTEX
  8
0
  5
28F46
 10
227.014
 20
314.116
 30
0.000000
  70
    32
  0
VERTEX
  8
0
  5
28F47
 10
226.976
 20
313.857
 30
0.000000
  70
    32
  0
VERTEX
  8
0
  5
28F48
 10
226.937
 20
313.598
 30
0.000000
  70
    32
  0
VERTEX
  8
0
  5
28F49
 10
226.897
 20
313.339
 30
0.000000
  70
    32
  0
VERTEX
  8
0
  5
28F4A
 10
226.857
 20
313.081
 30
0.000000
  70
    32
  0
VERTEX
  8
0
  5
28F4B
 10
226.815
 20
312.823
 30
0.000000
  70
    32
  0
VERTEX
  8
0
  5
28F4C
 10
226.773
 20
312.565
 30
0.000000
  70
    32
  0
VERTEX
  8
0
  5
28F4D
 10
226.729
 20
312.307
 30
0.000000
  70
    32
  0
VERTEX
  8
0
  5
28F4E
 10
226.685
 20
312.050
 30
0.000000
  70
    32
  0
VERTEX
  8
0
  5
28F4F
 10
226.640
 20
311.793
 30
0.000000
  70
    32
  0
VERTEX
  8
0
  5
28F50
 10
226.594
 20
311.536
 30
0.000000
  70
    32
  0
VERTEX
  8
0
  5
28F51
 10
226.547
 20
311.279
 30
0.000000
  70
    32
  0
VERTEX
  8
0
  5
28F52
 10
226.500
 20
311.022
 30
0.000000
  70
    32
  0
VERTEX
  8
0
  5
28F53
 10
226.451
 20
310.766
 30
0.000000
  70
    32
  0
VERTEX
  8
0
  5
28F54
 10
226.402
 20
310.510
 30
0.000000
  70
    32
  0
VERTEX
  8
0
  5
28F55
 10
226.351
 20
310.255
 30
0.000000
  70
    32
  0
VERTEX
  8
0
  5
28F56
 10
226.300
 20
309.999
 30
0.000000
  70
    32
  0
VERTEX
  8
0
  5
28F57
 10
226.248
 20
309.744
 30
0.000000
  70
    32
  0
VERTEX
  8
0
  5
28F58
 10
226.195
 20
309.489
 30
0.000000
  70
    32
  0
VERTEX
  8
0
  5
28F59
 10
226.141
 20
309.235
 30
0.000000
  70
    32
  0
VERTEX
  8
0
  5
28F5A
 10
226.087
 20
308.981
 30
0.000000
  70
    32
  0
VERTEX
  8
0
  5
28F5B
 10
226.031
 20
308.727
 30
0.000000
  70
    32
  0
VERTEX
  8
0
  5
28F5C
 10
225.975
 20
308.473
 30
0.000000
  70
    32
  0
VERTEX
  8
0
  5
28F5D
 10
225.917
 20
308.220
 30
0.000000
  70
    32
  0
VERTEX
  8
0
  5
28F5E
 10
225.859
 20
307.967
 30
0.000000
  70
    32
  0
VERTEX
  8
0
  5
28F5F
 10
225.800
 20
307.715
 30
0.000000
  70
    32
  0
VERTEX
  8
0
  5
28F60
 10
225.740
 20
307.462
 30
0.000000
  70
    32
  0
VERTEX
  8
0
  5
28F61
 10
225.680
 20
307.210
 30
0.000000
  70
    32
  0
VERTEX
  8
0
  5
28F62
 10
225.618
 20
306.959
 30
0.000000
  70
    32
  0
VERTEX
  8
0
  5
28F63
 10
225.556
 20
306.708
 30
0.000000
  70
    32
  0
VERTEX
  8
0
  5
28F64
 10
225.492
 20
306.457
 30
0.000000
  70
    32
  0
VERTEX
  8
0
  5
28F65
 10
225.428
 20
306.206
 30
0.000000
  70
    32
  0
VERTEX
  8
0
  5
28F66
 10
225.363
 20
305.956
 30
0.000000
  70
    32
  0
VERTEX
  8
0
  5
28F67
 10
225.297
 20
305.706
 30
0.000000
  70
    32
  0
VERTEX
  8
0
  5
28F68
 10
225.231
 20
305.457
 30
0.000000
  70
    32
  0
VERTEX
  8
0
  5
28F69
 10
225.163
 20
305.208
 30
0.000000
  70
    32
  0
VERTEX
  8
0
  5
28F6A
 10
225.095
 20
304.959
 30
0.000000
  70
    32
  0
VERTEX
  8
0
  5
28F6B
 10
225.025
 20
304.711
 30
0.000000
  70
    32
  0
VERTEX
  8
0
  5
28F6C
 10
224.955
 20
304.463
 30
0.000000
  70
    32
  0
VERTEX
  8
0
  5
28F6D
 10
224.884
 20
304.215
 30
0.000000
  70
    32
  0
VERTEX
  8
0
  5
28F6E
 10
224.812
 20
303.968
 30
0.000000
  70
    32
  0
VERTEX
  8
0
  5
28F6F
 10
224.740
 20
303.721
 30
0.000000
  70
    32
  0
VERTEX
  8
0
  5
28F70
 10
224.666
 20
303.475
 30
0.000000
  70
    32
  0
VERTEX
  8
0
  5
28F71
 10
224.592
 20
303.229
 30
0.000000
  70
    32
  0
VERTEX
  8
0
  5
28F72
 10
224.517
 20
302.983
 30
0.000000
  70
    32
  0
VERTEX
  8
0
  5
28F73
 10
224.441
 20
302.738
 30
0.000000
  70
    32
  0
VERTEX
  8
0
  5
28F74
 10
224.364
 20
302.494
 30
0.000000
  70
    32
  0
VERTEX
  8
0
  5
28F75
 10
224.286
 20
302.249
 30
0.000000
  70
    32
  0
VERTEX
  8
0
  5
28F76
 10
224.208
 20
302.006
 30
0.000000
  70
    32
  0
VERTEX
  8
0
  5
28F77
 10
224.129
 20
301.762
 30
0.000000
  70
    32
  0
VERTEX
  8
0
  5
28F78
 10
224.048
 20
301.519
 30
0.000000
  70
    32
  0
VERTEX
  8
0
  5
28F79
 10
223.967
 20
301.277
 30
0.000000
  70
    32
  0
VERTEX
  8
0
  5
28F7A
 10
223.886
 20
301.035
 30
0.000000
  70
    32
  0
VERTEX
  8
0
  5
28F7B
 10
223.803
 20
300.793
 30
0.000000
  70
    32
  0
VERTEX
  8
0
  5
28F7C
 10
223.719
 20
300.552
 30
0.000000
  70
    32
  0
VERTEX
  8
0
  5
28F7D
 10
223.635
 20
300.311
 30
0.000000
  70
    32
  0
VERTEX
  8
0
  5
28F7E
 10
223.550
 20
300.071
 30
0.000000
  70
    32
  0
VERTEX
  8
0
  5
28F7F
 10
223.464
 20
299.832
 30
0.000000
  70
    32
  0
VERTEX
  8
0
  5
28F80
 10
223.377
 20
299.592
 30
0.000000
  70
    32
  0
VERTEX
  8
0
  5
28F81
 10
223.290
 20
299.354
 30
0.000000
  70
    32
  0
VERTEX
  8
0
  5
28F82
 10
223.201
 20
299.115
 30
0.000000
  70
    32
  0
VERTEX
  8
0
  5
28F83
 10
223.112
 20
298.878
 30
0.000000
  70
    32
  0
VERTEX
  8
0
  5
28F84
 10
223.022
 20
298.640
 30
0.000000
  70
    32
  0
VERTEX
  8
0
  5
28F85
 10
222.931
 20
298.403
 30
0.000000
  70
    32
  0
VERTEX
  8
0
  5
28F86
 10
222.840
 20
298.167
 30
0.000000
  70
    32
  0
VERTEX
  8
0
  5
28F87
 10
222.747
 20
297.931
 30
0.000000
  70
    32
  0
VERTEX
  8
0
  5
28F88
 10
222.654
 20
297.696
 30
0.000000
  70
    32
  0
VERTEX
  8
0
  5
28F89
 10
222.560
 20
297.462
 30
0.000000
  70
    32
  0
VERTEX
  8
0
  5
28F8A
 10
222.465
 20
297.227
 30
0.000000
  70
    32
  0
VERTEX
  8
0
  5
28F8B
 10
222.370
 20
296.994
 30
0.000000
  70
    32
  0
VERTEX
  8
0
  5
28F8C
 10
222.273
 20
296.761
 30
0.000000
  70
    32
  0
VERTEX
  8
0
  5
28F8D
 10
222.176
 20
296.528
 30
0.000000
  70
    32
  0
VERTEX
  8
0
  5
28F8E
 10
222.078
 20
296.296
 30
0.000000
  70
    32
  0
VERTEX
  8
0
  5
28F8F
 10
221.979
 20
296.064
 30
0.000000
  70
    32
  0
VERTEX
  8
0
  5
28F90
 10
221.880
 20
295.833
 30
0.000000
  70
    32
  0
VERTEX
  8
0
  5
28F91
 10
221.779
 20
295.603
 30
0.000000
  70
    32
  0
VERTEX
  8
0
  5
28F92
 10
221.678
 20
295.373
 30
0.000000
  70
    32
  0
VERTEX
  8
0
  5
28F93
 10
221.576
 20
295.144
 30
0.000000
  70
    32
  0
VERTEX
  8
0
  5
28F94
 10
221.473
 20
294.915
 30
0.000000
  70
    32
  0
VERTEX
  8
0
  5
28F95
 10
221.370
 20
294.687
 30
0.000000
  70
    32
  0
VERTEX
  8
0
  5
28F96
 10
221.265
 20
294.460
 30
0.000000
  70
    32
  0
VERTEX
  8
0
  5
28F97
 10
221.160
 20
294.233
 30
0.000000
  70
    32
  0
VERTEX
  8
0
  5
28F98
 10
221.055
 20
294.006
 30
0.000000
  70
    32
  0
VERTEX
  8
0
  5
28F99
 10
220.948
 20
293.780
 30
0.000000
  70
    32
  0
VERTEX
  8
0
  5
28F9A
 10
220.841
 20
293.555
 30
0.000000
  70
    32
  0
VERTEX
  8
0
  5
28F9B
 10
220.732
 20
293.331
 30
0.000000
  70
    32
  0
VERTEX
  8
0
  5
28F9C
 10
220.624
 20
293.106
 30
0.000000
  70
    32
  0
SEQEND
  8
0
  5
28F9D
  0
POLYLINE
  5
28845
  8
0
 10
139.72419054243466
 20
293.6511488635515
 30
0.0
 66
     1
 70
     8
  0
VERTEX
  8
0
  5
28F9E
 10
139.724
 20
293.651
 30
0.000000
  70
    32
  0
VERTEX
  8
0
  5
28F9F
 10
139.619
 20
293.872
 30
0.000000
  70
    32
  0
VERTEX
  8
0
  5
28FA0
 10
139.515
 20
294.094
 30
0.000000
  70
    32
  0
VERTEX
  8
0
  5
28FA1
 10
139.411
 20
294.316
 30
0.000000
  70
    32
  0
VERTEX
  8
0
  5
28FA2
 10
139.309
 20
294.539
 30
0.000000
  70
    32
  0
VERTEX
  8
0
  5
28FA3
 10
139.206
 20
294.763
 30
0.000000
  70
    32
  0
VERTEX
  8
0
  5
28FA4
 10
139.105
 20
294.987
 30
0.000000
  70
    32
  0
VERTEX
  8
0
  5
28FA5
 10
139.005
 20
295.211
 30
0.000000
  70
    32
  0
VERTEX
  8
0
  5
28FA6
 10
138.905
 20
295.436
 30
0.000000
  70
    32
  0
VERTEX
  8
0
  5
28FA7
 10
138.806
 20
295.662
 30
0.000000
  70
    32
  0
VERTEX
  8
0
  5
28FA8
 10
138.707
 20
295.888
 30
0.000000
  70
    32
  0
VERTEX
  8
0
  5
28FA9
 10
138.610
 20
296.115
 30
0.000000
  70
    32
  0
VERTEX
  8
0
  5
28FAA
 10
138.513
 20
296.342
 30
0.000000
  70
    32
  0
VERTEX
  8
0
  5
28FAB
 10
138.417
 20
296.570
 30
0.000000
  70
    32
  0
VERTEX
  8
0
  5
28FAC
 10
138.322
 20
296.798
 30
0.000000
  70
    32
  0
VERTEX
  8
0
  5
28FAD
 10
138.227
 20
297.027
 30
0.000000
  70
    32
  0
VERTEX
  8
0
  5
28FAE
 10
138.134
 20
297.256
 30
0.000000
  70
    32
  0
VERTEX
  8
0
  5
28FAF
 10
138.041
 20
297.486
 30
0.000000
  70
    32
  0
VERTEX
  8
0
  5
28FB0
 10
137.949
 20
297.716
 30
0.000000
  70
    32
  0
VERTEX
  8
0
  5
28FB1
 10
137.857
 20
297.947
 30
0.000000
  70
    32
  0
VERTEX
  8
0
  5
28FB2
 10
137.767
 20
298.178
 30
0.000000
  70
    32
  0
VERTEX
  8
0
  5
28FB3
 10
137.677
 20
298.410
 30
0.000000
  70
    32
  0
VERTEX
  8
0
  5
28FB4
 10
137.588
 20
298.643
 30
0.000000
  70
    32
  0
VERTEX
  8
0
  5
28FB5
 10
137.499
 20
298.875
 30
0.000000
  70
    32
  0
VERTEX
  8
0
  5
28FB6
 10
137.412
 20
299.109
 30
0.000000
  70
    32
  0
VERTEX
  8
0
  5
28FB7
 10
137.325
 20
299.342
 30
0.000000
  70
    32
  0
VERTEX
  8
0
  5
28FB8
 10
137.239
 20
299.576
 30
0.000000
  70
    32
  0
VERTEX
  8
0
  5
28FB9
 10
137.154
 20
299.811
 30
0.000000
  70
    32
  0
VERTEX
  8
0
  5
28FBA
 10
137.070
 20
300.046
 30
0.000000
  70
    32
  0
VERTEX
  8
0
  5
28FBB
 10
136.986
 20
300.282
 30
0.000000
  70
    32
  0
VERTEX
  8
0
  5
28FBC
 10
136.903
 20
300.518
 30
0.000000
  70
    32
  0
VERTEX
  8
0
  5
28FBD
 10
136.821
 20
300.754
 30
0.000000
  70
    32
  0
VERTEX
  8
0
  5
28FBE
 10
136.740
 20
300.991
 30
0.000000
  70
    32
  0
VERTEX
  8
0
  5
28FBF
 10
136.660
 20
301.229
 30
0.000000
  70
    32
  0
VERTEX
  8
0
  5
28FC0
 10
136.580
 20
301.466
 30
0.000000
  70
    32
  0
VERTEX
  8
0
  5
28FC1
 10
136.501
 20
301.705
 30
0.000000
  70
    32
  0
VERTEX
  8
0
  5
28FC2
 10
136.423
 20
301.943
 30
0.000000
  70
    32
  0
VERTEX
  8
0
  5
28FC3
 10
136.346
 20
302.182
 30
0.000000
  70
    32
  0
VERTEX
  8
0
  5
28FC4
 10
136.269
 20
302.422
 30
0.000000
  70
    32
  0
VERTEX
  8
0
  5
28FC5
 10
136.194
 20
302.662
 30
0.000000
  70
    32
  0
VERTEX
  8
0
  5
28FC6
 10
136.119
 20
302.902
 30
0.000000
  70
    32
  0
VERTEX
  8
0
  5
28FC7
 10
136.045
 20
303.143
 30
0.000000
  70
    32
  0
VERTEX
  8
0
  5
28FC8
 10
135.972
 20
303.384
 30
0.000000
  70
    32
  0
VERTEX
  8
0
  5
28FC9
 10
135.899
 20
303.625
 30
0.000000
  70
    32
  0
VERTEX
  8
0
  5
28FCA
 10
135.828
 20
303.867
 30
0.000000
  70
    32
  0
VERTEX
  8
0
  5
28FCB
 10
135.757
 20
304.110
 30
0.000000
  70
    32
  0
VERTEX
  8
0
  5
28FCC
 10
135.687
 20
304.352
 30
0.000000
  70
    32
  0
VERTEX
  8
0
  5
28FCD
 10
135.618
 20
304.595
 30
0.000000
  70
    32
  0
VERTEX
  8
0
  5
28FCE
 10
135.549
 20
304.839
 30
0.000000
  70
    32
  0
VERTEX
  8
0
  5
28FCF
 10
135.482
 20
305.083
 30
0.000000
  70
    32
  0
VERTEX
  8
0
  5
28FD0
 10
135.415
 20
305.327
 30
0.000000
  70
    32
  0
VERTEX
  8
0
  5
28FD1
 10
135.349
 20
305.571
 30
0.000000
  70
    32
  0
VERTEX
  8
0
  5
28FD2
 10
135.284
 20
305.816
 30
0.000000
  70
    32
  0
VERTEX
  8
0
  5
28FD3
 10
135.220
 20
306.062
 30
0.000000
  70
    32
  0
VERTEX
  8
0
  5
28FD4
 10
135.157
 20
306.307
 30
0.000000
  70
    32
  0
VERTEX
  8
0
  5
28FD5
 10
135.094
 20
306.553
 30
0.000000
  70
    32
  0
VERTEX
  8
0
  5
28FD6
 10
135.032
 20
306.799
 30
0.000000
  70
    32
  0
VERTEX
  8
0
  5
28FD7
 10
134.971
 20
307.046
 30
0.000000
  70
    32
  0
VERTEX
  8
0
  5
28FD8
 10
134.911
 20
307.293
 30
0.000000
  70
    32
  0
VERTEX
  8
0
  5
28FD9
 10
134.852
 20
307.540
 30
0.000000
  70
    32
  0
VERTEX
  8
0
  5
28FDA
 10
134.793
 20
307.788
 30
0.000000
  70
    32
  0
VERTEX
  8
0
  5
28FDB
 10
134.736
 20
308.036
 30
0.000000
  70
    32
  0
VERTEX
  8
0
  5
28FDC
 10
134.679
 20
308.284
 30
0.000000
  70
    32
  0
VERTEX
  8
0
  5
28FDD
 10
134.623
 20
308.532
 30
0.000000
  70
    32
  0
VERTEX
  8
0
  5
28FDE
 10
134.568
 20
308.781
 30
0.000000
  70
    32
  0
VERTEX
  8
0
  5
28FDF
 10
134.513
 20
309.030
 30
0.000000
  70
    32
  0
VERTEX
  8
0
  5
28FE0
 10
134.460
 20
309.280
 30
0.000000
  70
    32
  0
VERTEX
  8
0
  5
28FE1
 10
134.407
 20
309.529
 30
0.000000
  70
    32
  0
VERTEX
  8
0
  5
28FE2
 10
134.356
 20
309.779
 30
0.000000
  70
    32
  0
VERTEX
  8
0
  5
28FE3
 10
134.305
 20
310.030
 30
0.000000
  70
    32
  0
VERTEX
  8
0
  5
28FE4
 10
134.254
 20
310.280
 30
0.000000
  70
    32
  0
VERTEX
  8
0
  5
28FE5
 10
134.205
 20
310.531
 30
0.000000
  70
    32
  0
VERTEX
  8
0
  5
28FE6
 10
134.157
 20
310.782
 30
0.000000
  70
    32
  0
VERTEX
  8
0
  5
28FE7
 10
134.109
 20
311.033
 30
0.000000
  70
    32
  0
VERTEX
  8
0
  5
28FE8
 10
134.062
 20
311.285
 30
0.000000
  70
    32
  0
VERTEX
  8
0
  5
28FE9
 10
134.016
 20
311.537
 30
0.000000
  70
    32
  0
VERTEX
  8
0
  5
28FEA
 10
133.971
 20
311.789
 30
0.000000
  70
    32
  0
VERTEX
  8
0
  5
28FEB
 10
133.927
 20
312.041
 30
0.000000
  70
    32
  0
VERTEX
  8
0
  5
28FEC
 10
133.884
 20
312.294
 30
0.000000
  70
    32
  0
VERTEX
  8
0
  5
28FED
 10
133.841
 20
312.547
 30
0.000000
  70
    32
  0
VERTEX
  8
0
  5
28FEE
 10
133.799
 20
312.800
 30
0.000000
  70
    32
  0
VERTEX
  8
0
  5
28FEF
 10
133.759
 20
313.053
 30
0.000000
  70
    32
  0
VERTEX
  8
0
  5
28FF0
 10
133.719
 20
313.306
 30
0.000000
  70
    32
  0
VERTEX
  8
0
  5
28FF1
 10
133.679
 20
313.560
 30
0.000000
  70
    32
  0
VERTEX
  8
0
  5
28FF2
 10
133.641
 20
313.814
 30
0.000000
  70
    32
  0
VERTEX
  8
0
  5
28FF3
 10
133.604
 20
314.068
 30
0.000000
  70
    32
  0
VERTEX
  8
0
  5
28FF4
 10
133.567
 20
314.322
 30
0.000000
  70
    32
  0
VERTEX
  8
0
  5
28FF5
 10
133.531
 20
314.577
 30
0.000000
  70
    32
  0
VERTEX
  8
0
  5
28FF6
 10
133.496
 20
314.832
 30
0.000000
  70
    32
  0
VERTEX
  8
0
  5
28FF7
 10
133.462
 20
315.087
 30
0.000000
  70
    32
  0
VERTEX
  8
0
  5
28FF8
 10
133.429
 20
315.342
 30
0.000000
  70
    32
  0
VERTEX
  8
0
  5
28FF9
 10
133.397
 20
315.597
 30
0.000000
  70
    32
  0
VERTEX
  8
0
  5
28FFA
 10
133.365
 20
315.852
 30
0.000000
  70
    32
  0
VERTEX
  8
0
  5
28FFB
 10
133.335
 20
316.108
 30
0.000000
  70
    32
  0
VERTEX
  8
0
  5
28FFC
 10
133.305
 20
316.364
 30
0.000000
  70
    32
  0
VERTEX
  8
0
  5
28FFD
 10
133.276
 20
316.620
 30
0.000000
  70
    32
  0
VERTEX
  8
0
  5
28FFE
 10
133.248
 20
316.876
 30
0.000000
  70
    32
  0
VERTEX
  8
0
  5
28FFF
 10
133.221
 20
317.132
 30
0.000000
  70
    32
  0
VERTEX
  8
0
  5
29000
 10
133.194
 20
317.388
 30
0.000000
  70
    32
  0
VERTEX
  8
0
  5
29001
 10
133.169
 20
317.645
 30
0.000000
  70
    32
  0
VERTEX
  8
0
  5
29002
 10
133.144
 20
317.901
 30
0.000000
  70
    32
  0
VERTEX
  8
0
  5
29003
 10
133.121
 20
318.158
 30
0.000000
  70
    32
  0
VERTEX
  8
0
  5
29004
 10
133.098
 20
318.415
 30
0.000000
  70
    32
  0
VERTEX
  8
0
  5
29005
 10
133.076
 20
318.672
 30
0.000000
  70
    32
  0
VERTEX
  8
0
  5
29006
 10
133.055
 20
318.929
 30
0.000000
  70
    32
  0
VERTEX
  8
0
  5
29007
 10
133.034
 20
319.186
 30
0.000000
  70
    32
  0
VERTEX
  8
0
  5
29008
 10
133.015
 20
319.444
 30
0.000000
  70
    32
  0
VERTEX
  8
0
  5
29009
 10
132.996
 20
319.701
 30
0.000000
  70
    32
  0
VERTEX
  8
0
  5
2900A
 10
132.978
 20
319.959
 30
0.000000
  70
    32
  0
VERTEX
  8
0
  5
2900B
 10
132.962
 20
320.217
 30
0.000000
  70
    32
  0
VERTEX
  8
0
  5
2900C
 10
132.946
 20
320.474
 30
0.000000
  70
    32
  0
VERTEX
  8
0
  5
2900D
 10
132.930
 20
320.732
 30
0.000000
  70
    32
  0
VERTEX
  8
0
  5
2900E
 10
132.916
 20
320.990
 30
0.000000
  70
    32
  0
VERTEX
  8
0
  5
2900F
 10
132.903
 20
321.248
 30
0.000000
  70
    32
  0
VERTEX
  8
0
  5
29010
 10
132.890
 20
321.506
 30
0.000000
  70
    32
  0
VERTEX
  8
0
  5
29011
 10
132.878
 20
321.764
 30
0.000000
  70
    32
  0
VERTEX
  8
0
  5
29012
 10
132.868
 20
322.022
 30
0.000000
  70
    32
  0
VERTEX
  8
0
  5
29013
 10
132.858
 20
322.281
 30
0.000000
  70
    32
  0
VERTEX
  8
0
  5
29014
 10
132.849
 20
322.539
 30
0.000000
  70
    32
  0
VERTEX
  8
0
  5
29015
 10
132.840
 20
322.797
 30
0.000000
  70
    32
  0
VERTEX
  8
0
  5
29016
 10
132.833
 20
323.056
 30
0.000000
  70
    32
  0
VERTEX
  8
0
  5
29017
 10
132.827
 20
323.314
 30
0.000000
  70
    32
  0
VERTEX
  8
0
  5
29018
 10
132.821
 20
323.573
 30
0.000000
  70
    32
  0
VERTEX
  8
0
  5
29019
 10
132.816
 20
323.831
 30
0.000000
  70
    32
  0
VERTEX
  8
0
  5
2901A
 10
132.812
 20
324.090
 30
0.000000
  70
    32
  0
VERTEX
  8
0
  5
2901B
 10
132.809
 20
324.348
 30
0.000000
  70
    32
  0
VERTEX
  8
0
  5
2901C
 10
132.807
 20
324.607
 30
0.000000
  70
    32
  0
VERTEX
  8
0
  5
2901D
 10
132.806
 20
324.865
 30
0.000000
  70
    32
  0
VERTEX
  8
0
  5
2901E
 10
132.805
 20
325.124
 30
0.000000
  70
    32
  0
SEQEND
  8
0
  5
2901F
  0
POLYLINE
  5
28846
  8
0
 10
150.30534731156513
 20
366.68023114426734
 30
0.0
 66
     1
 70
     8
  0
VERTEX
  8
0
  5
29020
 10
150.305
 20
366.680
 30
0.000000
  70
    32
  0
VERTEX
  8
0
  5
29021
 10
150.329
 20
366.708
 30
0.000000
  70
    32
  0
VERTEX
  8
0
  5
29022
 10
150.352
 20
366.735
 30
0.000000
  70
    32
  0
VERTEX
  8
0
  5
29023
 10
150.376
 20
366.763
 30
0.000000
  70
    32
  0
VERTEX
  8
0
  5
29024
 10
150.399
 20
366.790
 30
0.000000
  70
    32
  0
VERTEX
  8
0
  5
29025
 10
150.423
 20
366.817
 30
0.000000
  70
    32
  0
VERTEX
  8
0
  5
29026
 10
150.446
 20
366.845
 30
0.000000
  70
    32
  0
VERTEX
  8
0
  5
29027
 10
150.470
 20
366.872
 30
0.000000
  70
    32
  0
VERTEX
  8
0
  5
29028
 10
150.493
 20
366.899
 30
0.000000
  70
    32
  0
VERTEX
  8
0
  5
29029
 10
150.517
 20
366.927
 30
0.000000
  70
    32
  0
VERTEX
  8
0
  5
2902A
 10
150.540
 20
366.954
 30
0.000000
  70
    32
  0
VERTEX
  8
0
  5
2902B
 10
150.564
 20
366.981
 30
0.000000
  70
    32
  0
VERTEX
  8
0
  5
2902C
 10
150.587
 20
367.008
 30
0.000000
  70
    32
  0
VERTEX
  8
0
  5
2902D
 10
150.611
 20
367.035
 30
0.000000
  70
    32
  0
VERTEX
  8
0
  5
2902E
 10
150.635
 20
367.063
 30
0.000000
  70
    32
  0
VERTEX
  8
0
  5
2902F
 10
150.658
 20
367.090
 30
0.000000
  70
    32
  0
VERTEX
  8
0
  5
29030
 10
150.682
 20
367.117
 30
0.000000
  70
    32
  0
VERTEX
  8
0
  5
29031
 10
150.706
 20
367.144
 30
0.000000
  70
    32
  0
VERTEX
  8
0
  5
29032
 10
150.729
 20
367.171
 30
0.000000
  70
    32
  0
VERTEX
  8
0
  5
29033
 10
150.753
 20
367.198
 30
0.000000
  70
    32
  0
VERTEX
  8
0
  5
29034
 10
150.777
 20
367.225
 30
0.000000
  70
    32
  0
VERTEX
  8
0
  5
29035
 10
150.800
 20
367.252
 30
0.000000
  70
    32
  0
VERTEX
  8
0
  5
29036
 10
150.824
 20
367.279
 30
0.000000
  70
    32
  0
VERTEX
  8
0
  5
29037
 10
150.848
 20
367.306
 30
0.000000
  70
    32
  0
VERTEX
  8
0
  5
29038
 10
150.872
 20
367.333
 30
0.000000
  70
    32
  0
VERTEX
  8
0
  5
29039
 10
150.895
 20
367.360
 30
0.000000
  70
    32
  0
VERTEX
  8
0
  5
2903A
 10
150.919
 20
367.387
 30
0.000000
  70
    32
  0
VERTEX
  8
0
  5
2903B
 10
150.943
 20
367.414
 30
0.000000
  70
    32
  0
VERTEX
  8
0
  5
2903C
 10
150.967
 20
367.441
 30
0.000000
  70
    32
  0
VERTEX
  8
0
  5
2903D
 10
150.991
 20
367.468
 30
0.000000
  70
    32
  0
VERTEX
  8
0
  5
2903E
 10
151.014
 20
367.494
 30
0.000000
  70
    32
  0
VERTEX
  8
0
  5
2903F
 10
151.038
 20
367.521
 30
0.000000
  70
    32
  0
VERTEX
  8
0
  5
29040
 10
151.062
 20
367.548
 30
0.000000
  70
    32
  0
VERTEX
  8
0
  5
29041
 10
151.086
 20
367.575
 30
0.000000
  70
    32
  0
VERTEX
  8
0
  5
29042
 10
151.110
 20
367.602
 30
0.000000
  70
    32
  0
VERTEX
  8
0
  5
29043
 10
151.134
 20
367.628
 30
0.000000
  70
    32
  0
VERTEX
  8
0
  5
29044
 10
151.158
 20
367.655
 30
0.000000
  70
    32
  0
VERTEX
  8
0
  5
29045
 10
151.182
 20
367.682
 30
0.000000
  70
    32
  0
VERTEX
  8
0
  5
29046
 10
151.206
 20
367.708
 30
0.000000
  70
    32
  0
VERTEX
  8
0
  5
29047
 10
151.230
 20
367.735
 30
0.000000
  70
    32
  0
VERTEX
  8
0
  5
29048
 10
151.254
 20
367.762
 30
0.000000
  70
    32
  0
VERTEX
  8
0
  5
29049
 10
151.278
 20
367.788
 30
0.000000
  70
    32
  0
VERTEX
  8
0
  5
2904A
 10
151.302
 20
367.815
 30
0.000000
  70
    32
  0
VERTEX
  8
0
  5
2904B
 10
151.326
 20
367.841
 30
0.000000
  70
    32
  0
VERTEX
  8
0
  5
2904C
 10
151.350
 20
367.868
 30
0.000000
  70
    32
  0
VERTEX
  8
0
  5
2904D
 10
151.374
 20
367.894
 30
0.000000
  70
    32
  0
VERTEX
  8
0
  5
2904E
 10
151.398
 20
367.921
 30
0.000000
  70
    32
  0
VERTEX
  8
0
  5
2904F
 10
151.422
 20
367.947
 30
0.000000
  70
    32
  0
VERTEX
  8
0
  5
29050
 10
151.447
 20
367.974
 30
0.000000
  70
    32
  0
VERTEX
  8
0
  5
29051
 10
151.471
 20
368.000
 30
0.000000
  70
    32
  0
VERTEX
  8
0
  5
29052
 10
151.495
 20
368.026
 30
0.000000
  70
    32
  0
VERTEX
  8
0
  5
29053
 10
151.519
 20
368.053
 30
0.000000
  70
    32
  0
VERTEX
  8
0
  5
29054
 10
151.543
 20
368.079
 30
0.000000
  70
    32
  0
VERTEX
  8
0
  5
29055
 10
151.567
 20
368.105
 30
0.000000
  70
    32
  0
VERTEX
  8
0
  5
29056
 10
151.592
 20
368.132
 30
0.000000
  70
    32
  0
VERTEX
  8
0
  5
29057
 10
151.616
 20
368.158
 30
0.000000
  70
    32
  0
VERTEX
  8
0
  5
29058
 10
151.640
 20
368.184
 30
0.000000
  70
    32
  0
VERTEX
  8
0
  5
29059
 10
151.664
 20
368.211
 30
0.000000
  70
    32
  0
VERTEX
  8
0
  5
2905A
 10
151.689
 20
368.237
 30
0.000000
  70
    32
  0
VERTEX
  8
0
  5
2905B
 10
151.713
 20
368.263
 30
0.000000
  70
    32
  0
VERTEX
  8
0
  5
2905C
 10
151.737
 20
368.289
 30
0.000000
  70
    32
  0
VERTEX
  8
0
  5
2905D
 10
151.762
 20
368.315
 30
0.000000
  70
    32
  0
VERTEX
  8
0
  5
2905E
 10
151.786
 20
368.341
 30
0.000000
  70
    32
  0
VERTEX
  8
0
  5
2905F
 10
151.810
 20
368.367
 30
0.000000
  70
    32
  0
VERTEX
  8
0
  5
29060
 10
151.835
 20
368.394
 30
0.000000
  70
    32
  0
VERTEX
  8
0
  5
29061
 10
151.859
 20
368.420
 30
0.000000
  70
    32
  0
VERTEX
  8
0
  5
29062
 10
151.883
 20
368.446
 30
0.000000
  70
    32
  0
VERTEX
  8
0
  5
29063
 10
151.908
 20
368.472
 30
0.000000
  70
    32
  0
VERTEX
  8
0
  5
29064
 10
151.932
 20
368.498
 30
0.000000
  70
    32
  0
VERTEX
  8
0
  5
29065
 10
151.957
 20
368.524
 30
0.000000
  70
    32
  0
VERTEX
  8
0
  5
29066
 10
151.981
 20
368.550
 30
0.000000
  70
    32
  0
VERTEX
  8
0
  5
29067
 10
152.006
 20
368.575
 30
0.000000
  70
    32
  0
VERTEX
  8
0
  5
29068
 10
152.030
 20
368.601
 30
0.000000
  70
    32
  0
VERTEX
  8
0
  5
29069
 10
152.055
 20
368.627
 30
0.000000
  70
    32
  0
VERTEX
  8
0
  5
2906A
 10
152.079
 20
368.653
 30
0.000000
  70
    32
  0
VERTEX
  8
0
  5
2906B
 10
152.104
 20
368.679
 30
0.000000
  70
    32
  0
VERTEX
  8
0
  5
2906C
 10
152.128
 20
368.705
 30
0.000000
  70
    32
  0
VERTEX
  8
0
  5
2906D
 10
152.153
 20
368.731
 30
0.000000
  70
    32
  0
VERTEX
  8
0
  5
2906E
 10
152.177
 20
368.756
 30
0.000000
  70
    32
  0
VERTEX
  8
0
  5
2906F
 10
152.202
 20
368.782
 30
0.000000
  70
    32
  0
VERTEX
  8
0
  5
29070
 10
152.226
 20
368.808
 30
0.000000
  70
    32
  0
VERTEX
  8
0
  5
29071
 10
152.251
 20
368.833
 30
0.000000
  70
    32
  0
VERTEX
  8
0
  5
29072
 10
152.276
 20
368.859
 30
0.000000
  70
    32
  0
VERTEX
  8
0
  5
29073
 10
152.300
 20
368.885
 30
0.000000
  70
    32
  0
VERTEX
  8
0
  5
29074
 10
152.325
 20
368.910
 30
0.000000
  70
    32
  0
VERTEX
  8
0
  5
29075
 10
152.350
 20
368.936
 30
0.000000
  70
    32
  0
VERTEX
  8
0
  5
29076
 10
152.374
 20
368.962
 30
0.000000
  70
    32
  0
VERTEX
  8
0
  5
29077
 10
152.399
 20
368.987
 30
0.000000
  70
    32
  0
VERTEX
  8
0
  5
29078
 10
152.424
 20
369.013
 30
0.000000
  70
    32
  0
VERTEX
  8
0
  5
29079
 10
152.448
 20
369.038
 30
0.000000
  70
    32
  0
VERTEX
  8
0
  5
2907A
 10
152.473
 20
369.064
 30
0.000000
  70
    32
  0
VERTEX
  8
0
  5
2907B
 10
152.498
 20
369.089
 30
0.000000
  70
    32
  0
VERTEX
  8
0
  5
2907C
 10
152.523
 20
369.115
 30
0.000000
  70
    32
  0
VERTEX
  8
0
  5
2907D
 10
152.548
 20
369.140
 30
0.000000
  70
    32
  0
VERTEX
  8
0
  5
2907E
 10
152.572
 20
369.165
 30
0.000000
  70
    32
  0
VERTEX
  8
0
  5
2907F
 10
152.597
 20
369.191
 30
0.000000
  70
    32
  0
VERTEX
  8
0
  5
29080
 10
152.622
 20
369.216
 30
0.000000
  70
    32
  0
VERTEX
  8
0
  5
29081
 10
152.647
 20
369.241
 30
0.000000
  70
    32
  0
VERTEX
  8
0
  5
29082
 10
152.672
 20
369.267
 30
0.000000
  70
    32
  0
VERTEX
  8
0
  5
29083
 10
152.697
 20
369.292
 30
0.000000
  70
    32
  0
VERTEX
  8
0
  5
29084
 10
152.721
 20
369.317
 30
0.000000
  70
    32
  0
VERTEX
  8
0
  5
29085
 10
152.746
 20
369.343
 30
0.000000
  70
    32
  0
VERTEX
  8
0
  5
29086
 10
152.771
 20
369.368
 30
0.000000
  70
    32
  0
VERTEX
  8
0
  5
29087
 10
152.796
 20
369.393
 30
0.000000
  70
    32
  0
VERTEX
  8
0
  5
29088
 10
152.821
 20
369.418
 30
0.000000
  70
    32
  0
VERTEX
  8
0
  5
29089
 10
152.846
 20
369.443
 30
0.000000
  70
    32
  0
VERTEX
  8
0
  5
2908A
 10
152.871
 20
369.468
 30
0.000000
  70
    32
  0
VERTEX
  8
0
  5
2908B
 10
152.896
 20
369.494
 30
0.000000
  70
    32
  0
VERTEX
  8
0
  5
2908C
 10
152.921
 20
369.519
 30
0.000000
  70
    32
  0
VERTEX
  8
0
  5
2908D
 10
152.946
 20
369.544
 30
0.000000
  70
    32
  0
VERTEX
  8
0
  5
2908E
 10
152.971
 20
369.569
 30
0.000000
  70
    32
  0
VERTEX
  8
0
  5
2908F
 10
152.996
 20
369.594
 30
0.000000
  70
    32
  0
VERTEX
  8
0
  5
29090
 10
153.021
 20
369.619
 30
0.000000
  70
    32
  0
VERTEX
  8
0
  5
29091
 10
153.046
 20
369.644
 30
0.000000
  70
    32
  0
VERTEX
  8
0
  5
29092
 10
153.071
 20
369.669
 30
0.000000
  70
    32
  0
VERTEX
  8
0
  5
29093
 10
153.096
 20
369.694
 30
0.000000
  70
    32
  0
VERTEX
  8
0
  5
29094
 10
153.122
 20
369.718
 30
0.000000
  70
    32
  0
VERTEX
  8
0
  5
29095
 10
153.147
 20
369.743
 30
0.000000
  70
    32
  0
VERTEX
  8
0
  5
29096
 10
153.172
 20
369.768
 30
0.000000
  70
    32
  0
VERTEX
  8
0
  5
29097
 10
153.197
 20
369.793
 30
0.000000
  70
    32
  0
VERTEX
  8
0
  5
29098
 10
153.222
 20
369.818
 30
0.000000
  70
    32
  0
VERTEX
  8
0
  5
29099
 10
153.247
 20
369.843
 30
0.000000
  70
    32
  0
VERTEX
  8
0
  5
2909A
 10
153.272
 20
369.867
 30
0.000000
  70
    32
  0
VERTEX
  8
0
  5
2909B
 10
153.298
 20
369.892
 30
0.000000
  70
    32
  0
VERTEX
  8
0
  5
2909C
 10
153.323
 20
369.917
 30
0.000000
  70
    32
  0
VERTEX
  8
0
  5
2909D
 10
153.348
 20
369.942
 30
0.000000
  70
    32
  0
VERTEX
  8
0
  5
2909E
 10
153.373
 20
369.966
 30
0.000000
  70
    32
  0
VERTEX
  8
0
  5
2909F
 10
153.399
 20
369.991
 30
0.000000
  70
    32
  0
VERTEX
  8
0
  5
290A0
 10
153.424
 20
370.015
 30
0.000000
  70
    32
  0
SEQEND
  8
0
  5
290A1
  0
POLYLINE
  5
28847
  8
0
 10
207.18674031929942
 20
370.01546834516353
 30
0.0
 66
     1
 70
     8
  0
VERTEX
  8
0
  5
290A2
 10
207.187
 20
370.015
 30
0.000000
  70
    32
  0
VERTEX
  8
0
  5
290A3
 10
207.212
 20
369.991
 30
0.000000
  70
    32
  0
VERTEX
  8
0
  5
290A4
 10
207.237
 20
369.966
 30
0.000000
  70
    32
  0
VERTEX
  8
0
  5
290A5
 10
207.263
 20
369.942
 30
0.000000
  70
    32
  0
VERTEX
  8
0
  5
290A6
 10
207.288
 20
369.917
 30
0.000000
  70
    32
  0
VERTEX
  8
0
  5
290A7
 10
207.313
 20
369.892
 30
0.000000
  70
    32
  0
VERTEX
  8
0
  5
290A8
 10
207.338
 20
369.867
 30
0.000000
  70
    32
  0
VERTEX
  8
0
  5
290A9
 10
207.363
 20
369.843
 30
0.000000
  70
    32
  0
VERTEX
  8
0
  5
290AA
 10
207.389
 20
369.818
 30
0.000000
  70
    32
  0
VERTEX
  8
0
  5
290AB
 10
207.414
 20
369.793
 30
0.000000
  70
    32
  0
VERTEX
  8
0
  5
290AC
 10
207.439
 20
369.768
 30
0.000000
  70
    32
  0
VERTEX
  8
0
  5
290AD
 10
207.464
 20
369.743
 30
0.000000
  70
    32
  0
VERTEX
  8
0
  5
290AE
 10
207.489
 20
369.718
 30
0.000000
  70
    32
  0
VERTEX
  8
0
  5
290AF
 10
207.514
 20
369.694
 30
0.000000
  70
    32
  0
VERTEX
  8
0
  5
290B0
 10
207.539
 20
369.669
 30
0.000000
  70
    32
  0
VERTEX
  8
0
  5
290B1
 10
207.564
 20
369.644
 30
0.000000
  70
    32
  0
VERTEX
  8
0
  5
290B2
 10
207.590
 20
369.619
 30
0.000000
  70
    32
  0
VERTEX
  8
0
  5
290B3
 10
207.615
 20
369.594
 30
0.000000
  70
    32
  0
VERTEX
  8
0
  5
290B4
 10
207.640
 20
369.569
 30
0.000000
  70
    32
  0
VERTEX
  8
0
  5
290B5
 10
207.665
 20
369.544
 30
0.000000
  70
    32
  0
VERTEX
  8
0
  5
290B6
 10
207.690
 20
369.519
 30
0.000000
  70
    32
  0
VERTEX
  8
0
  5
290B7
 10
207.715
 20
369.494
 30
0.000000
  70
    32
  0
VERTEX
  8
0
  5
290B8
 10
207.740
 20
369.468
 30
0.000000
  70
    32
  0
VERTEX
  8
0
  5
290B9
 10
207.765
 20
369.443
 30
0.000000
  70
    32
  0
VERTEX
  8
0
  5
290BA
 10
207.790
 20
369.418
 30
0.000000
  70
    32
  0
VERTEX
  8
0
  5
290BB
 10
207.815
 20
369.393
 30
0.000000
  70
    32
  0
VERTEX
  8
0
  5
290BC
 10
207.839
 20
369.368
 30
0.000000
  70
    32
  0
VERTEX
  8
0
  5
290BD
 10
207.864
 20
369.343
 30
0.000000
  70
    32
  0
VERTEX
  8
0
  5
290BE
 10
207.889
 20
369.317
 30
0.000000
  70
    32
  0
VERTEX
  8
0
  5
290BF
 10
207.914
 20
369.292
 30
0.000000
  70
    32
  0
VERTEX
  8
0
  5
290C0
 10
207.939
 20
369.267
 30
0.000000
  70
    32
  0
VERTEX
  8
0
  5
290C1
 10
207.964
 20
369.241
 30
0.000000
  70
    32
  0
VERTEX
  8
0
  5
290C2
 10
207.989
 20
369.216
 30
0.000000
  70
    32
  0
VERTEX
  8
0
  5
290C3
 10
208.014
 20
369.191
 30
0.000000
  70
    32
  0
VERTEX
  8
0
  5
290C4
 10
208.038
 20
369.165
 30
0.000000
  70
    32
  0
VERTEX
  8
0
  5
290C5
 10
208.063
 20
369.140
 30
0.000000
  70
    32
  0
VERTEX
  8
0
  5
290C6
 10
208.088
 20
369.115
 30
0.000000
  70
    32
  0
VERTEX
  8
0
  5
290C7
 10
208.113
 20
369.089
 30
0.000000
  70
    32
  0
VERTEX
  8
0
  5
290C8
 10
208.137
 20
369.064
 30
0.000000
  70
    32
  0
VERTEX
  8
0
  5
290C9
 10
208.162
 20
369.038
 30
0.000000
  70
    32
  0
VERTEX
  8
0
  5
290CA
 10
208.187
 20
369.013
 30
0.000000
  70
    32
  0
VERTEX
  8
0
  5
290CB
 10
208.212
 20
368.987
 30
0.000000
  70
    32
  0
VERTEX
  8
0
  5
290CC
 10
208.236
 20
368.962
 30
0.000000
  70
    32
  0
VERTEX
  8
0
  5
290CD
 10
208.261
 20
368.936
 30
0.000000
  70
    32
  0
VERTEX
  8
0
  5
290CE
 10
208.286
 20
368.910
 30
0.000000
  70
    32
  0
VERTEX
  8
0
  5
290CF
 10
208.310
 20
368.885
 30
0.000000
  70
    32
  0
VERTEX
  8
0
  5
290D0
 10
208.335
 20
368.859
 30
0.000000
  70
    32
  0
VERTEX
  8
0
  5
290D1
 10
208.360
 20
368.833
 30
0.000000
  70
    32
  0
VERTEX
  8
0
  5
290D2
 10
208.384
 20
368.808
 30
0.000000
  70
    32
  0
VERTEX
  8
0
  5
290D3
 10
208.409
 20
368.782
 30
0.000000
  70
    32
  0
VERTEX
  8
0
  5
290D4
 10
208.433
 20
368.756
 30
0.000000
  70
    32
  0
VERTEX
  8
0
  5
290D5
 10
208.458
 20
368.731
 30
0.000000
  70
    32
  0
VERTEX
  8
0
  5
290D6
 10
208.483
 20
368.705
 30
0.000000
  70
    32
  0
VERTEX
  8
0
  5
290D7
 10
208.507
 20
368.679
 30
0.000000
  70
    32
  0
VERTEX
  8
0
  5
290D8
 10
208.532
 20
368.653
 30
0.000000
  70
    32
  0
VERTEX
  8
0
  5
290D9
 10
208.556
 20
368.627
 30
0.000000
  70
    32
  0
VERTEX
  8
0
  5
290DA
 10
208.581
 20
368.601
 30
0.000000
  70
    32
  0
VERTEX
  8
0
  5
290DB
 10
208.605
 20
368.575
 30
0.000000
  70
    32
  0
VERTEX
  8
0
  5
290DC
 10
208.630
 20
368.550
 30
0.000000
  70
    32
  0
VERTEX
  8
0
  5
290DD
 10
208.654
 20
368.524
 30
0.000000
  70
    32
  0
VERTEX
  8
0
  5
290DE
 10
208.678
 20
368.498
 30
0.000000
  70
    32
  0
VERTEX
  8
0
  5
290DF
 10
208.703
 20
368.472
 30
0.000000
  70
    32
  0
VERTEX
  8
0
  5
290E0
 10
208.727
 20
368.446
 30
0.000000
  70
    32
  0
VERTEX
  8
0
  5
290E1
 10
208.752
 20
368.420
 30
0.000000
  70
    32
  0
VERTEX
  8
0
  5
290E2
 10
208.776
 20
368.394
 30
0.000000
  70
    32
  0
VERTEX
  8
0
  5
290E3
 10
208.800
 20
368.367
 30
0.000000
  70
    32
  0
VERTEX
  8
0
  5
290E4
 10
208.825
 20
368.341
 30
0.000000
  70
    32
  0
VERTEX
  8
0
  5
290E5
 10
208.849
 20
368.315
 30
0.000000
  70
    32
  0
VERTEX
  8
0
  5
290E6
 10
208.873
 20
368.289
 30
0.000000
  70
    32
  0
VERTEX
  8
0
  5
290E7
 10
208.898
 20
368.263
 30
0.000000
  70
    32
  0
VERTEX
  8
0
  5
290E8
 10
208.922
 20
368.237
 30
0.000000
  70
    32
  0
VERTEX
  8
0
  5
290E9
 10
208.946
 20
368.211
 30
0.000000
  70
    32
  0
VERTEX
  8
0
  5
290EA
 10
208.971
 20
368.184
 30
0.000000
  70
    32
  0
VERTEX
  8
0
  5
290EB
 10
208.995
 20
368.158
 30
0.000000
  70
    32
  0
VERTEX
  8
0
  5
290EC
 10
209.019
 20
368.132
 30
0.000000
  70
    32
  0
VERTEX
  8
0
  5
290ED
 10
209.043
 20
368.105
 30
0.000000
  70
    32
  0
VERTEX
  8
0
  5
290EE
 10
209.068
 20
368.079
 30
0.000000
  70
    32
  0
VERTEX
  8
0
  5
290EF
 10
209.092
 20
368.053
 30
0.000000
  70
    32
  0
VERTEX
  8
0
  5
290F0
 10
209.116
 20
368.026
 30
0.000000
  70
    32
  0
VERTEX
  8
0
  5
290F1
 10
209.140
 20
368.000
 30
0.000000
  70
    32
  0
VERTEX
  8
0
  5
290F2
 10
209.164
 20
367.974
 30
0.000000
  70
    32
  0
VERTEX
  8
0
  5
290F3
 10
209.188
 20
367.947
 30
0.000000
  70
    32
  0
VERTEX
  8
0
  5
290F4
 10
209.212
 20
367.921
 30
0.000000
  70
    32
  0
VERTEX
  8
0
  5
290F5
 10
209.237
 20
367.894
 30
0.000000
  70
    32
  0
VERTEX
  8
0
  5
290F6
 10
209.261
 20
367.868
 30
0.000000
  70
    32
  0
VERTEX
  8
0
  5
290F7
 10
209.285
 20
367.841
 30
0.000000
  70
    32
  0
VERTEX
  8
0
  5
290F8
 10
209.309
 20
367.815
 30
0.000000
  70
    32
  0
VERTEX
  8
0
  5
290F9
 10
209.333
 20
367.788
 30
0.000000
  70
    32
  0
VERTEX
  8
0
  5
290FA
 10
209.357
 20
367.762
 30
0.000000
  70
    32
  0
VERTEX
  8
0
  5
290FB
 10
209.381
 20
367.735
 30
0.000000
  70
    32
  0
VERTEX
  8
0
  5
290FC
 10
209.405
 20
367.708
 30
0.000000
  70
    32
  0
VERTEX
  8
0
  5
290FD
 10
209.429
 20
367.682
 30
0.000000
  70
    32
  0
VERTEX
  8
0
  5
290FE
 10
209.453
 20
367.655
 30
0.000000
  70
    32
  0
VERTEX
  8
0
  5
290FF
 10
209.477
 20
367.628
 30
0.000000
  70
    32
  0
VERTEX
  8
0
  5
29100
 10
209.501
 20
367.602
 30
0.000000
  70
    32
  0
VERTEX
  8
0
  5
29101
 10
209.525
 20
367.575
 30
0.000000
  70
    32
  0
VERTEX
  8
0
  5
29102
 10
209.548
 20
367.548
 30
0.000000
  70
    32
  0
VERTEX
  8
0
  5
29103
 10
209.572
 20
367.521
 30
0.000000
  70
    32
  0
VERTEX
  8
0
  5
29104
 10
209.596
 20
367.494
 30
0.000000
  70
    32
  0
VERTEX
  8
0
  5
29105
 10
209.620
 20
367.468
 30
0.000000
  70
    32
  0
VERTEX
  8
0
  5
29106
 10
209.644
 20
367.441
 30
0.000000
  70
    32
  0
VERTEX
  8
0
  5
29107
 10
209.668
 20
367.414
 30
0.000000
  70
    32
  0
VERTEX
  8
0
  5
29108
 10
209.692
 20
367.387
 30
0.000000
  70
    32
  0
VERTEX
  8
0
  5
29109
 10
209.715
 20
367.360
 30
0.000000
  70
    32
  0
VERTEX
  8
0
  5
2910A
 10
209.739
 20
367.333
 30
0.000000
  70
    32
  0
VERTEX
  8
0
  5
2910B
 10
209.763
 20
367.306
 30
0.000000
  70
    32
  0
VERTEX
  8
0
  5
2910C
 10
209.787
 20
367.279
 30
0.000000
  70
    32
  0
VERTEX
  8
0
  5
2910D
 10
209.810
 20
367.252
 30
0.000000
  70
    32
  0
VERTEX
  8
0
  5
2910E
 10
209.834
 20
367.225
 30
0.000000
  70
    32
  0
VERTEX
  8
0
  5
2910F
 10
209.858
 20
367.198
 30
0.000000
  70
    32
  0
VERTEX
  8
0
  5
29110
 10
209.882
 20
367.171
 30
0.000000
  70
    32
  0
VERTEX
  8
0
  5
29111
 10
209.905
 20
367.144
 30
0.000000
  70
    32
  0
VERTEX
  8
0
  5
29112
 10
209.929
 20
367.117
 30
0.000000
  70
    32
  0
VERTEX
  8
0
  5
29113
 10
209.952
 20
367.090
 30
0.000000
  70
    32
  0
VERTEX
  8
0
  5
29114
 10
209.976
 20
367.063
 30
0.000000
  70
    32
  0
VERTEX
  8
0
  5
29115
 10
210.000
 20
367.035
 30
0.000000
  70
    32
  0
VERTEX
  8
0
  5
29116
 10
210.023
 20
367.008
 30
0.000000
  70
    32
  0
VERTEX
  8
0
  5
29117
 10
210.047
 20
366.981
 30
0.000000
  70
    32
  0
VERTEX
  8
0
  5
29118
 10
210.070
 20
366.954
 30
0.000000
  70
    32
  0
VERTEX
  8
0
  5
29119
 10
210.094
 20
366.927
 30
0.000000
  70
    32
  0
VERTEX
  8
0
  5
2911A
 10
210.118
 20
366.899
 30
0.000000
  70
    32
  0
VERTEX
  8
0
  5
2911B
 10
210.141
 20
366.872
 30
0.000000
  70
    32
  0
VERTEX
  8
0
  5
2911C
 10
210.165
 20
366.845
 30
0.000000
  70
    32
  0
VERTEX
  8
0
  5
2911D
 10
210.188
 20
366.817
 30
0.000000
  70
    32
  0
VERTEX
  8
0
  5
2911E
 10
210.212
 20
366.790
 30
0.000000
  70
    32
  0
VERTEX
  8
0
  5
2911F
 10
210.235
 20
366.763
 30
0.000000
  70
    32
  0
VERTEX
  8
0
  5
29120
 10
210.259
 20
366.735
 30
0.000000
  70
    32
  0
VERTEX
  8
0
  5
29121
 10
210.282
 20
366.708
 30
0.000000
  70
    32
  0
VERTEX
  8
0
  5
29122
 10
210.305
 20
366.680
 30
0.000000
  70
    32
  0
SEQEND
  8
0
  5
29123
  0
LINE
  5
28848
  8
0
 10
186.00534740767739
 20
366.5688994424782
 30
0.0
 11
186.00534740767739
 21
192.98149525098421
 31
0.0
  0
LINE
  5
28849
  8
0
 10
183.60534729368351
 20
366.5688994424782
 30
0.0
 11
183.60534729368351
 21
192.98149525098421
 31
0.0
  0
LINE
  5
2884A
  8
0
 10
174.60534721545241
 20
366.5688994424782
 30
0.0
 11
174.60534721545241
 21
192.98149525098421
 31
0.0
  0
LINE
  5
2884B
  8
0
 10
177.00534732944629
 20
366.5688994424782
 30
0.0
 11
177.00534732944629
 21
192.98149525098421
 31
0.0
  0
LINE
  5
2884C
  8
0
 10
193.6074499965396
 20
362.89209752254112
 30
0.0
 11
193.6074499965396
 21
202.47088997535329
 31
0.0
  0
LINE
  5
2884D
  8
0
 10
167.0032446265902
 20
362.89209752254112
 30
0.0
 11
167.0032446265902
 21
202.47088997535329
 31
0.0
  0
LINE
  5
2884E
  8
0
 10
195.1074502424087
 20
361.2159702079735
 30
0.0
 11
195.1074502424087
 21
204.14701728992091
 31
0.0
  0
LINE
  5
2884F
  8
0
 10
165.50324438072099
 20
361.2159702079735
 30
0.0
 11
165.50324438072099
 21
204.14701728992091
 31
0.0
  0
LINE
  5
28850
  8
0
 10
196.60745048827789
 20
356.85965298585512
 30
0.0
 11
196.60745048827789
 21
208.50333451203929
 31
0.0
  0
LINE
  5
28851
  8
0
 10
164.00324413485191
 20
356.85965298585512
 30
0.0
 11
164.00324413485191
 21
208.50333451203929
 31
0.0
  0
LINE
  5
28852
  8
0
 10
202.8053482056346
 20
336.1794675784551
 30
0.0
 11
202.8053482056346
 21
229.18351991943939
 31
0.0
  0
LINE
  5
28853
  8
0
 10
157.8053464174952
 20
336.1794675784551
 30
0.0
 11
157.8053464174952
 21
229.18351991943939
 31
0.0
  0
LINE
  5
28854
  8
0
 10
209.80534749037881
 20
294.2580466242872
 30
0.0
 11
209.80534749037881
 21
271.10494087360729
 31
0.0
  0
LINE
  5
28855
  8
0
 10
150.80534713275091
 20
294.2580466242872
 30
0.0
 11
150.80534713275091
 21
271.10494087360729
 31
0.0
  0
LINE
  5
28863
  8
0
 10
208.36430834538601
 20
295.75688737355102
 30
0.0
 11
208.36430834538601
 21
269.60610012434353
 31
0.0
  0
LINE
  5
28864
  8
0
 10
152.2463862777438
 20
295.75688737355102
 30
0.0
 11
152.2463862777438
 21
269.60610012434353
 31
0.0
  0
LINE
  5
28865
  8
0
 10
761.75543850052486
 20
292.6814935254298
 30
0.0
 11
762.25543765115867
 21
292.6814935254298
 31
0.0
  0
LINE
  5
28866
  8
0
 10
821.25543800878654
 20
292.6814935254298
 30
0.0
 11
821.75543715942035
 21
292.6814935254298
 31
0.0
  0
LINE
  5
28869
  8
0
 10
751.58320365238319
 20
271.71183909200062
 30
0.0
 11
751.05543805050979
 21
273.68149413637741
 31
0.0
  0
LINE
  5
2886A
  8
0
 10
751.05543805050979
 20
291.68149336151708
 30
0.0
 11
751.43726540494094
 21
293.10649513177498
 31
0.0
  0
LINE
  5
2886B
  8
0
 10
825.48320663857589
 20
271.71183909200062
 30
0.0
 11
824.9554373114122
 21
273.68149413637741
 31
0.0
  0
LINE
  5
2886C
  8
0
 10
834.42766962337623
 20
293.65114840589388
 30
0.0
 11
834.95543895053993
 21
291.68149336151708
 31
0.0
  0
LINE
  5
2886D
  8
0
 10
834.95543895053993
 20
273.68149413637741
 30
0.0
 11
834.42766962337623
 21
271.71183909200062
 31
0.0
  0
ARC
  5
28870
  8
0
 10
838.75543782998705
 20
398.6814937489608
 30
0.0
 40
3.999999999986982
 50
0.0
 51
90.0
  0
ARC
  5
28871
  8
0
 10
744.75543782995976
 20
398.6814937489608
 30
0.0
 40
3.999999999986982
 50
90.0
 51
180.0
  0
LINE
  5
28872
  8
0
 10
842.75543687629829
 20
398.681490411087
 30
0.0
 11
842.75543687629829
 21
393.18149416617968
 31
0.0
  0
LINE
  5
28873
  8
0
 10
740.75543878364692
 20
393.18149416617968
 30
0.0
 11
740.75543878364692
 21
398.681490411087
 31
0.0
  0
LINE
  5
28874
  8
0
 10
839.25543723392616
 20
393.18149416617968
 30
0.0
 11
839.25543723392616
 21
325.12383042745222
 31
0.0
  0
LINE
  5
28875
  8
0
 10
744.25543842601905
 20
325.12383042745222
 30
0.0
 11
744.25543842601905
 21
393.18149416617968
 31
0.0
  0
ARC
  5
28876
  8
0
 10
825.75543782997352
 20
398.5564937489471
 30
0.0
 40
8.1250000000000675
 50
30.510237406108359
 51
90.0
  0
ARC
  5
28877
  8
0
 10
757.75543782997249
 20
398.5564937489471
 30
0.0
 40
8.1250000000001261
 50
90.0
 51
149.48976259389161
  0
LINE
  5
28878
  8
0
 10
757.75543598222862
 20
406.68149172238918
 30
0.0
 11
825.75543967771659
 21
406.68149172238918
 31
0.0
  0
ARC
  5
28879
  8
0
 10
782.3645249762983
 20
193.6814937489477
 30
0.0
 40
1.000000000000085
 50
198.99999999998829
 51
269.99999999997391
  0
ARC
  5
2887A
  8
0
 10
782.3645249762983
 20
371.68149374894722
 30
0.0
 40
1.0000000000000531
 50
90.000000000026048
 51
161.00000000001171
  0
LINE
  5
2887B
  8
0
 10
785.75543777781854
 20
192.6814901726685
 30
0.0
 11
782.3645248799337
 21
192.6814901726685
 31
0.0
  0
LINE
  5
2887C
  8
0
 10
782.3645248799337
 20
372.68149732522579
 30
0.0
 11
785.75543777781854
 21
372.68149732522579
 31
0.0
  0
ARC
  5
2887D
  8
0
 10
785.75543782997352
 20
192.9814937489474
 30
0.0
 40
0.2999999999999403
 50
269.99999999997391
 51
0.0000000000195413
  0
ARC
  5
2887E
  8
0
 10
785.75543782997352
 20
372.38149374894789
 30
0.0
 40
0.2999999999998692
 50
0.0
 51
90.000000000026048
  0
ARC
  5
2887F
  8
0
 10
788.75543782997261
 20
192.9814937489474
 30
0.0
 40
0.2999999999999403
 50
179.99999999998701
 51
270.00000000002598
  0
ARC
  5
28880
  8
0
 10
788.75543782997261
 20
372.38149374894789
 30
0.0
 40
0.2999999999998692
 50
89.999999999973952
 51
180.0
  0
LINE
  5
28881
  8
0
 10
794.75543785604964
 20
192.6814901726685
 30
0.0
 11
788.75543780389557
 21
192.6814901726685
 31
0.0
  0
LINE
  5
28882
  8
0
 10
788.75543780389557
 20
372.68149732522579
 30
0.0
 11
794.75543785604964
 21
372.68149732522579
 31
0.0
  0
ARC
  5
28883
  8
0
 10
797.75543782997261
 20
192.9814937489474
 30
0.0
 40
0.2999999999999403
 50
179.99999999998701
 51
270.00000000002598
  0
ARC
  5
28884
  8
0
 10
797.75543782997261
 20
372.38149374894789
 30
0.0
 40
0.2999999999998692
 50
90.0
 51
180.0
  0
ARC
  5
28885
  8
0
 10
794.75543782997352
 20
192.9814937489474
 30
0.0
 40
0.2999999999999403
 50
270.0
 51
0.0000000000195413
  0
ARC
  5
28886
  8
0
 10
794.75543782997352
 20
372.38149374894789
 30
0.0
 40
0.2999999999998692
 50
0.0
 51
90.000000000026048
  0
LINE
  5
28887
  8
0
 10
801.14635078001152
 20
192.6814901726685
 30
0.0
 11
797.75543788212667
 21
192.6814901726685
 31
0.0
  0
LINE
  5
28888
  8
0
 10
797.75543788212667
 20
372.68149732522579
 30
0.0
 11
801.14635078001152
 21
372.68149732522579
 31
0.0
  0
ARC
  5
28889
  8
0
 10
801.1463506836468
 20
193.6814937489477
 30
0.0
 40
1.000000000000085
 50
270.00000000002598
 51
341.0000000000116
  0
ARC
  5
2888A
  8
0
 10
801.1463506836468
 20
371.68149374894722
 30
0.0
 40
1.0000000000000531
 50
18.999999999988312
 51
89.999999999973952
  0
LINE
  5
2888B
  8
0
 10
788.455437847854
 20
192.98149525098421
 30
0.0
 11
786.05543773386012
 21
192.98149525098421
 31
0.0
  0
LINE
  5
2888C
  8
0
 10
786.05543773386012
 20
372.38149224691011
 30
0.0
 11
788.455437847854
 21
372.38149224691011
 31
0.0
  0
LINE
  5
2888D
  8
0
 10
797.4554379260851
 20
192.98149525098421
 30
0.0
 11
795.05543781209121
 21
192.98149525098421
 31
0.0
  0
LINE
  5
2888E
  8
0
 10
795.05543781209121
 20
372.38149224691011
 30
0.0
 11
797.4554379260851
 21
372.38149224691011
 31
0.0
  0
LINE
  5
2888F
  8
0
 10
781.41900615531335
 20
193.35592417888259
 30
0.0
 11
778.61677946287523
 21
201.494185914322
 31
0.0
  0
LINE
  5
28890
  8
0
 10
778.61677946287523
 20
363.86880158357241
 30
0.0
 11
781.41900615531335
 21
372.00706331901171
 31
0.0
  0
LINE
  5
28891
  8
0
 10
802.09186950463186
 20
372.00706331901171
 30
0.0
 11
804.89409619706998
 21
363.86880158357241
 31
0.0
  0
LINE
  5
28892
  8
0
 10
804.89409619706998
 20
201.494185914322
 30
0.0
 11
802.09186950463186
 21
193.35592417888259
 31
0.0
  0
ARC
  5
28893
  8
0
 10
781.45333486917355
 20
202.47088894316181
 30
0.0
 40
2.999999999986906
 50
179.99999999997391
 51
199.00000000003629
  0
ARC
  5
28894
  8
0
 10
781.45333486917355
 20
362.89209855473302
 30
0.0
 40
2.99999999998693
 50
160.99999999996371
 51
180.00000000002601
  0
ARC
  5
28895
  8
0
 10
802.05754079077235
 20
202.47088894316181
 30
0.0
 40
2.9999999999869731
 50
340.99999999996368
 51
0.0000000000260551
  0
ARC
  5
28896
  8
0
 10
802.05754079077235
 20
362.89209855473302
 30
0.0
 40
2.9999999999869971
 50
359.99999999997402
 51
19.000000000036302
  0
ARC
  5
28897
  8
0
 10
777.70333486918639
 20
204.14701927417639
 30
0.0
 40
0.7500000000000285
 50
180.0
 51
0.0
  0
ARC
  5
28898
  8
0
 10
777.70333486918639
 20
361.21596822371851
 30
0.0
 40
0.7500000000000285
 50
0.0
 51
180.0
  0
ARC
  5
28899
  8
0
 10
805.80754079075894
 20
204.14701927417639
 30
0.0
 40
0.7500000000000285
 50
180.0
 51
0.0
  0
ARC
  5
2889A
  8
0
 10
805.80754079075894
 20
361.21596822371851
 30
0.0
 40
0.7500000000000285
 50
0.0
 51
180.0
  0
ARC
  5
2889B
  8
0
 10
776.20333486918639
 20
208.5033355906904
 30
0.0
 40
0.7500000000000285
 50
180.0
 51
0.0
  0
ARC
  5
2889C
  8
0
 10
776.20333486918639
 20
356.85965190720441
 30
0.0
 40
0.7500000000000285
 50
0.0
 51
180.0
  0
ARC
  5
2889D
  8
0
 10
807.30754079075871
 20
208.5033355906904
 30
0.0
 40
0.7500000000000285
 50
180.0
 51
0.0
  0
ARC
  5
2889E
  8
0
 10
807.30754079075871
 20
356.85965190720441
 30
0.0
 40
0.7500000000000285
 50
0.0
 51
180.0
  0
LINE
  5
2889F
  8
0
 10
775.45333465325962
 20
210.6814968483888
 30
0.0
 11
769.4188821851028
 21
228.20681585840811
 31
0.0
  0
LINE
  5
288A0
  8
0
 10
769.4188821851028
 20
337.15617163948639
 30
0.0
 11
775.45333465325962
 21
354.68149064950558
 31
0.0
  0
LINE
  5
288A1
  8
0
 10
808.0575410066856
 20
354.68149064950558
 30
0.0
 11
814.09199347484241
 21
337.15617163948639
 31
0.0
  0
LINE
  5
288A2
  8
0
 10
814.09199347484241
 20
228.20681585840811
 30
0.0
 11
808.0575410066856
 21
210.6814968483888
 31
0.0
  0
ARC
  5
288A3
  8
0
 10
772.25543782994805
 20
229.1835215761877
 30
0.0
 40
2.99999999997504
 50
179.99999999996089
 51
199.00000000007799
  0
ARC
  5
288A4
  8
0
 10
772.25543782994805
 20
336.17946592170722
 30
0.0
 40
2.9999999999750311
 50
160.99999999992261
 51
180.00000000004559
  0
ARC
  5
288A5
  8
0
 10
811.25543782999796
 20
229.1835215761877
 30
0.0
 40
2.999999999974972
 50
340.99999999992258
 51
0.0000000000455964
  0
ARC
  5
288A6
  8
0
 10
811.25543782999796
 20
336.17946592170722
 30
0.0
 40
2.9999999999749489
 50
359.99999999996749
 51
19.000000000077371
  0
LINE
  5
288A7
  8
0
 10
769.25543693590294
 20
269.38742185853351
 30
0.0
 11
763.6964767961515
 21
269.60610012434353
 31
0.0
  0
LINE
  5
288A8
  8
0
 10
763.6964767961515
 20
295.75688737355102
 30
0.0
 11
769.25543693590294
 21
295.97556563936098
 31
0.0
  0
LINE
  5
288A9
  8
0
 10
814.25543872404228
 20
295.97556563936098
 30
0.0
 11
819.81439886379371
 21
295.75688737355102
 31
0.0
  0
LINE
  5
288AA
  8
0
 10
819.81439886379371
 20
269.60610012434353
 30
0.0
 11
814.25543872404228
 21
269.38742185853351
 31
0.0
  0
ARC
  5
288AB
  8
0
 10
763.75543782997534
 20
271.10494059902129
 30
0.0
 40
1.500000000002188
 50
180.0
 51
267.7472648088937
  0
ARC
  5
288AC
  8
0
 10
763.75543782997534
 20
294.25804689887372
 30
0.0
 40
1.5000000000022411
 50
92.252735191106169
 51
180.0
  0
ARC
  5
288AD
  8
0
 10
819.75543782997079
 20
271.10494059902129
 30
0.0
 40
1.5000000000021649
 50
272.25273519113222
 51
0.0
  0
ARC
  5
288AE
  8
0
 10
819.75543782997079
 20
294.25804689887372
 30
0.0
 40
1.5000000000021649
 50
0.0
 51
87.747264808893817
  0
LINE
  5
288AF
  8
0
 10
751.05543805050979
 20
291.68149336151708
 30
0.0
 11
751.05543805050979
 21
273.68149413637741
 31
0.0
  0
ARC
  5
288B0
  8
0
 10
761.03991258574092
 20
274.45425275623722
 30
0.0
 40
9.8463280747719928
 50
163.82801941267451
 51
196.17198058732549
  0
ARC
  5
288B1
  8
0
 10
790.45986449936265
 20
282.68149374894722
 30
0.0
 40
39.261661827209203
 50
171.96955262175999
 51
188.0304473782399
  0
ARC
  5
288B2
  8
0
 10
760.47786096536834
 20
290.8026882260375
 30
0.0
 40
9.2771418258928762
 50
165.54628992352761
 51
196.50976852900749
  0
LINE
  5
288B3
  8
0
 10
758.55543834853302
 20
271.71183909200062
 30
0.0
 11
751.58320365238319
 21
271.71183909200062
 31
0.0
  0
LINE
  5
288B5
  8
0
 10
758.55543834853302
 20
277.19666642047389
 30
0.0
 11
751.58320365238319
 21
277.19666642047389
 31
0.0
  0
LINE
  5
288B6
  8
0
 10
754.12684304404388
 20
288.1663210774206
 30
0.0
 11
751.58320365238319
 21
288.1663210774206
 31
0.0
  0
ARC
  5
288B7
  8
0
 10
834.93986926688262
 20
274.45425275623722
 30
0.0
 40
9.8462836020187776
 50
163.827944364979
 51
196.172055635014
  0
POLYLINE
  5
288B8
  8
0
 66
     1
 10
0.0
 20
0.0
 30
0.0
 70
   128
  0
VERTEX
  5
28F14
  8
0
 10
825.15778762984405
 20
282.07428126739262
 30
0.0
  0
VERTEX
  5
28F15
  8
0
 10
825.31674949216972
 20
278.57781360767711
 30
0.0
  0
VERTEX
  5
28F16
  8
0
 10
825.48320663857589
 20
277.19666642047389
 30
0.0
  0
SEQEND
  5
28F17
  8
0
  0
LINE
  5
288B9
  8
0
 10
834.42766962337623
 20
277.19666642047389
 30
0.0
 11
825.48320663857589
 21
277.19666642047389
 31
0.0
  0
ARC
  5
288BA
  8
0
 10
795.55638924071775
 20
282.68149374894722
 30
0.0
 40
39.256334131072663
 50
351.96845557047931
 51
8.0315444295206362
  0
LINE
  5
288BB
  8
0
 10
834.42766962337623
 20
288.1663210774206
 30
0.0
 11
829.38403261590133
 21
288.1663210774206
 31
0.0
  0
ARC
  5
288BC
  8
0
 10
824.84859363336443
 20
290.90873474165721
 30
0.0
 40
9.9639113569020648
 50
344.02400169002698
 51
15.97599830997302
  0
LINE
  5
288BD
  8
0
 10
834.42766962337623
 20
293.65114840589388
 30
0.0
 11
832.33659339833389
 21
293.65114840589388
 31
0.0
  0
LINE
  5
288BE
  8
0
 10
834.42766962337623
 20
271.71183909200062
 30
0.0
 11
825.48320663857589
 21
271.71183909200062
 31
0.0
  0
ARC
  5
288BF
  8
0
 10
824.96986738213911
 20
274.45425275623722
 30
0.0
 40
9.8473781251736252
 50
343.82979116559648
 51
16.170208834403461
  0
LINE
  5
288C0
  8
0
 10
834.95543895053993
 20
291.68149336151708
 30
0.0
 11
834.95543895053993
 21
273.68149413637741
 31
0.0
  0
LINE
  5
288C2
  8
0
 10
838.7554362206472
 20
402.68149106673809
 30
0.0
 11
744.75543943929802
 21
402.68149106673809
 31
0.0
  0
LINE
  5
288C3
  8
0
 10
842.75543687629829
 20
393.18149416617968
 30
0.0
 11
740.75543878364692
 21
393.18149416617968
 31
0.0
  0
POLYLINE
  5
288C5
  8
0
 10
758.55543782997199
 20
281.81461821092364
 30
0.0
 66
     1
 70
     8
  0
VERTEX
  8
0
  5
29124
 10
758.555
 20
281.815
 30
0.000000
  70
    32
  0
VERTEX
  8
0
  5
29125
 10
757.322
 20
283.410
 30
0.000000
  70
    32
  0
VERTEX
  8
0
  5
29126
 10
756.135
 20
285.062
 30
0.000000
  70
    32
  0
VERTEX
  8
0
  5
29127
 10
754.997
 20
286.769
 30
0.000000
  70
    32
  0
VERTEX
  8
0
  5
29128
 10
753.910
 20
288.529
 30
0.000000
  70
    32
  0
VERTEX
  8
0
  5
29129
 10
752.874
 20
290.338
 30
0.000000
  70
    32
  0
VERTEX
  8
0
  5
2912A
 10
751.891
 20
292.195
 30
0.000000
  70
    32
  0
VERTEX
  8
0
  5
2912B
 10
750.963
 20
294.098
 30
0.000000
  70
    32
  0
VERTEX
  8
0
  5
2912C
 10
750.091
 20
296.042
 30
0.000000
  70
    32
  0
VERTEX
  8
0
  5
2912D
 10
749.276
 20
298.027
 30
0.000000
  70
    32
  0
VERTEX
  8
0
  5
2912E
 10
748.519
 20
300.049
 30
0.000000
  70
    32
  0
VERTEX
  8
0
  5
2912F
 10
747.821
 20
302.104
 30
0.000000
  70
    32
  0
VERTEX
  8
0
  5
29130
 10
747.183
 20
304.192
 30
0.000000
  70
    32
  0
VERTEX
  8
0
  5
29131
 10
746.606
 20
306.308
 30
0.000000
  70
    32
  0
VERTEX
  8
0
  5
29132
 10
746.091
 20
308.450
 30
0.000000
  70
    32
  0
VERTEX
  8
0
  5
29133
 10
745.639
 20
310.614
 30
0.000000
  70
    32
  0
VERTEX
  8
0
  5
29134
 10
745.250
 20
312.799
 30
0.000000
  70
    32
  0
VERTEX
  8
0
  5
29135
 10
744.924
 20
315.000
 30
0.000000
  70
    32
  0
VERTEX
  8
0
  5
29136
 10
744.662
 20
317.216
 30
0.000000
  70
    32
  0
VERTEX
  8
0
  5
29137
 10
744.465
 20
319.442
 30
0.000000
  70
    32
  0
VERTEX
  8
0
  5
29138
 10
744.333
 20
321.675
 30
0.000000
  70
    32
  0
VERTEX
  8
0
  5
29139
 10
744.265
 20
323.914
 30
0.000000
  70
    32
  0
VERTEX
  8
0
  5
2913A
 10
744.262
 20
326.154
 30
0.000000
  70
    32
  0
VERTEX
  8
0
  5
2913B
 10
744.325
 20
328.393
 30
0.000000
  70
    32
  0
VERTEX
  8
0
  5
2913C
 10
744.452
 20
330.627
 30
0.000000
  70
    32
  0
VERTEX
  8
0
  5
2913D
 10
744.644
 20
332.854
 30
0.000000
  70
    32
  0
VERTEX
  8
0
  5
2913E
 10
744.901
 20
335.070
 30
0.000000
  70
    32
  0
VERTEX
  8
0
  5
2913F
 10
745.221
 20
337.273
 30
0.000000
  70
    32
  0
VERTEX
  8
0
  5
29140
 10
745.605
 20
339.459
 30
0.000000
  70
    32
  0
VERTEX
  8
0
  5
29141
 10
746.053
 20
341.625
 30
0.000000
  70
    32
  0
VERTEX
  8
0
  5
29142
 10
746.563
 20
343.769
 30
0.000000
  70
    32
  0
VERTEX
  8
0
  5
29143
 10
747.135
 20
345.887
 30
0.000000
  70
    32
  0
VERTEX
  8
0
  5
29144
 10
747.768
 20
347.977
 30
0.000000
  70
    32
  0
VERTEX
  8
0
  5
29145
 10
748.461
 20
350.035
 30
0.000000
  70
    32
  0
VERTEX
  8
0
  5
29146
 10
749.213
 20
352.060
 30
0.000000
  70
    32
  0
VERTEX
  8
0
  5
29147
 10
750.024
 20
354.048
 30
0.000000
  70
    32
  0
VERTEX
  8
0
  5
29148
 10
750.891
 20
355.996
 30
0.000000
  70
    32
  0
VERTEX
  8
0
  5
29149
 10
751.815
 20
357.901
 30
0.000000
  70
    32
  0
VERTEX
  8
0
  5
2914A
 10
752.793
 20
359.762
 30
0.000000
  70
    32
  0
VERTEX
  8
0
  5
2914B
 10
753.825
 20
361.576
 30
0.000000
  70
    32
  0
VERTEX
  8
0
  5
2914C
 10
754.908
 20
363.339
 30
0.000000
  70
    32
  0
VERTEX
  8
0
  5
2914D
 10
756.042
 20
365.051
 30
0.000000
  70
    32
  0
VERTEX
  8
0
  5
2914E
 10
757.225
 20
366.707
 30
0.000000
  70
    32
  0
VERTEX
  8
0
  5
2914F
 10
758.455
 20
368.307
 30
0.000000
  70
    32
  0
VERTEX
  8
0
  5
29150
 10
759.730
 20
369.848
 30
0.000000
  70
    32
  0
VERTEX
  8
0
  5
29151
 10
761.050
 20
371.327
 30
0.000000
  70
    32
  0
VERTEX
  8
0
  5
29152
 10
762.411
 20
372.744
 30
0.000000
  70
    32
  0
VERTEX
  8
0
  5
29153
 10
763.813
 20
374.095
 30
0.000000
  70
    32
  0
VERTEX
  8
0
  5
29154
 10
765.253
 20
375.379
 30
0.000000
  70
    32
  0
VERTEX
  8
0
  5
29155
 10
766.729
 20
376.594
 30
0.000000
  70
    32
  0
VERTEX
  8
0
  5
29156
 10
768.239
 20
377.739
 30
0.000000
  70
    32
  0
VERTEX
  8
0
  5
29157
 10
769.782
 20
378.812
 30
0.000000
  70
    32
  0
VERTEX
  8
0
  5
29158
 10
771.354
 20
379.811
 30
0.000000
  70
    32
  0
VERTEX
  8
0
  5
29159
 10
772.955
 20
380.736
 30
0.000000
  70
    32
  0
VERTEX
  8
0
  5
2915A
 10
774.581
 20
381.585
 30
0.000000
  70
    32
  0
VERTEX
  8
0
  5
2915B
 10
776.231
 20
382.356
 30
0.000000
  70
    32
  0
VERTEX
  8
0
  5
2915C
 10
777.902
 20
383.049
 30
0.000000
  70
    32
  0
VERTEX
  8
0
  5
2915D
 10
779.592
 20
383.662
 30
0.000000
  70
    32
  0
VERTEX
  8
0
  5
2915E
 10
781.298
 20
384.196
 30
0.000000
  70
    32
  0
VERTEX
  8
0
  5
2915F
 10
783.019
 20
384.648
 30
0.000000
  70
    32
  0
VERTEX
  8
0
  5
29160
 10
784.752
 20
385.020
 30
0.000000
  70
    32
  0
VERTEX
  8
0
  5
29161
 10
786.494
 20
385.309
 30
0.000000
  70
    32
  0
VERTEX
  8
0
  5
29162
 10
788.244
 20
385.516
 30
0.000000
  70
    32
  0
VERTEX
  8
0
  5
29163
 10
789.999
 20
385.640
 30
0.000000
  70
    32
  0
VERTEX
  8
0
  5
29164
 10
791.755
 20
385.681
 30
0.000000
  70
    32
  0
VERTEX
  8
0
  5
29165
 10
793.512
 20
385.640
 30
0.000000
  70
    32
  0
VERTEX
  8
0
  5
29166
 10
795.267
 20
385.516
 30
0.000000
  70
    32
  0
VERTEX
  8
0
  5
29167
 10
797.016
 20
385.309
 30
0.000000
  70
    32
  0
VERTEX
  8
0
  5
29168
 10
798.759
 20
385.020
 30
0.000000
  70
    32
  0
VERTEX
  8
0
  5
29169
 10
800.492
 20
384.648
 30
0.000000
  70
    32
  0
VERTEX
  8
0
  5
2916A
 10
802.213
 20
384.196
 30
0.000000
  70
    32
  0
VERTEX
  8
0
  5
2916B
 10
803.919
 20
383.662
 30
0.000000
  70
    32
  0
VERTEX
  8
0
  5
2916C
 10
805.609
 20
383.049
 30
0.000000
  70
    32
  0
VERTEX
  8
0
  5
2916D
 10
807.280
 20
382.356
 30
0.000000
  70
    32
  0
VERTEX
  8
0
  5
2916E
 10
808.930
 20
381.585
 30
0.000000
  70
    32
  0
VERTEX
  8
0
  5
2916F
 10
810.556
 20
380.736
 30
0.000000
  70
    32
  0
VERTEX
  8
0
  5
29170
 10
812.157
 20
379.811
 30
0.000000
  70
    32
  0
VERTEX
  8
0
  5
29171
 10
813.729
 20
378.812
 30
0.000000
  70
    32
  0
VERTEX
  8
0
  5
29172
 10
815.272
 20
377.739
 30
0.000000
  70
    32
  0
VERTEX
  8
0
  5
29173
 10
816.782
 20
376.594
 30
0.000000
  70
    32
  0
VERTEX
  8
0
  5
29174
 10
818.258
 20
375.379
 30
0.000000
  70
    32
  0
VERTEX
  8
0
  5
29175
 10
819.698
 20
374.095
 30
0.000000
  70
    32
  0
VERTEX
  8
0
  5
29176
 10
821.100
 20
372.744
 30
0.000000
  70
    32
  0
VERTEX
  8
0
  5
29177
 10
822.461
 20
371.327
 30
0.000000
  70
    32
  0
VERTEX
  8
0
  5
29178
 10
823.780
 20
369.848
 30
0.000000
  70
    32
  0
VERTEX
  8
0
  5
29179
 10
825.056
 20
368.307
 30
0.000000
  70
    32
  0
VERTEX
  8
0
  5
2917A
 10
826.286
 20
366.707
 30
0.000000
  70
    32
  0
VERTEX
  8
0
  5
2917B
 10
827.469
 20
365.051
 30
0.000000
  70
    32
  0
VERTEX
  8
0
  5
2917C
 10
828.603
 20
363.339
 30
0.000000
  70
    32
  0
VERTEX
  8
0
  5
2917D
 10
829.686
 20
361.576
 30
0.000000
  70
    32
  0
VERTEX
  8
0
  5
2917E
 10
830.718
 20
359.762
 30
0.000000
  70
    32
  0
VERTEX
  8
0
  5
2917F
 10
831.696
 20
357.901
 30
0.000000
  70
    32
  0
VERTEX
  8
0
  5
29180
 10
832.620
 20
355.996
 30
0.000000
  70
    32
  0
VERTEX
  8
0
  5
29181
 10
833.487
 20
354.048
 30
0.000000
  70
    32
  0
VERTEX
  8
0
  5
29182
 10
834.298
 20
352.060
 30
0.000000
  70
    32
  0
VERTEX
  8
0
  5
29183
 10
835.050
 20
350.035
 30
0.000000
  70
    32
  0
VERTEX
  8
0
  5
29184
 10
835.743
 20
347.977
 30
0.000000
  70
    32
  0
VERTEX
  8
0
  5
29185
 10
836.376
 20
345.887
 30
0.000000
  70
    32
  0
VERTEX
  8
0
  5
29186
 10
836.948
 20
343.769
 30
0.000000
  70
    32
  0
VERTEX
  8
0
  5
29187
 10
837.458
 20
341.625
 30
0.000000
  70
    32
  0
VERTEX
  8
0
  5
29188
 10
837.905
 20
339.459
 30
0.000000
  70
    32
  0
VERTEX
  8
0
  5
29189
 10
838.290
 20
337.273
 30
0.000000
  70
    32
  0
VERTEX
  8
0
  5
2918A
 10
838.610
 20
335.070
 30
0.000000
  70
    32
  0
VERTEX
  8
0
  5
2918B
 10
838.867
 20
332.854
 30
0.000000
  70
    32
  0
VERTEX
  8
0
  5
2918C
 10
839.059
 20
330.627
 30
0.000000
  70
    32
  0
VERTEX
  8
0
  5
2918D
 10
839.186
 20
328.393
 30
0.000000
  70
    32
  0
VERTEX
  8
0
  5
2918E
 10
839.249
 20
326.154
 30
0.000000
  70
    32
  0
VERTEX
  8
0
  5
2918F
 10
839.246
 20
323.914
 30
0.000000
  70
    32
  0
VERTEX
  8
0
  5
29190
 10
839.178
 20
321.675
 30
0.000000
  70
    32
  0
VERTEX
  8
0
  5
29191
 10
839.046
 20
319.442
 30
0.000000
  70
    32
  0
VERTEX
  8
0
  5
29192
 10
838.849
 20
317.216
 30
0.000000
  70
    32
  0
VERTEX
  8
0
  5
29193
 10
838.587
 20
315.000
 30
0.000000
  70
    32
  0
VERTEX
  8
0
  5
29194
 10
838.261
 20
312.799
 30
0.000000
  70
    32
  0
VERTEX
  8
0
  5
29195
 10
837.872
 20
310.614
 30
0.000000
  70
    32
  0
VERTEX
  8
0
  5
29196
 10
837.419
 20
308.450
 30
0.000000
  70
    32
  0
VERTEX
  8
0
  5
29197
 10
836.904
 20
306.308
 30
0.000000
  70
    32
  0
VERTEX
  8
0
  5
29198
 10
836.328
 20
304.192
 30
0.000000
  70
    32
  0
VERTEX
  8
0
  5
29199
 10
835.690
 20
302.104
 30
0.000000
  70
    32
  0
VERTEX
  8
0
  5
2919A
 10
834.992
 20
300.049
 30
0.000000
  70
    32
  0
VERTEX
  8
0
  5
2919B
 10
834.235
 20
298.027
 30
0.000000
  70
    32
  0
VERTEX
  8
0
  5
2919C
 10
833.420
 20
296.042
 30
0.000000
  70
    32
  0
VERTEX
  8
0
  5
2919D
 10
832.548
 20
294.098
 30
0.000000
  70
    32
  0
VERTEX
  8
0
  5
2919E
 10
831.620
 20
292.195
 30
0.000000
  70
    32
  0
VERTEX
  8
0
  5
2919F
 10
830.637
 20
290.338
 30
0.000000
  70
    32
  0
VERTEX
  8
0
  5
291A0
 10
829.601
 20
288.529
 30
0.000000
  70
    32
  0
VERTEX
  8
0
  5
291A1
 10
828.514
 20
286.769
 30
0.000000
  70
    32
  0
VERTEX
  8
0
  5
291A2
 10
827.376
 20
285.062
 30
0.000000
  70
    32
  0
VERTEX
  8
0
  5
291A3
 10
826.189
 20
283.410
 30
0.000000
  70
    32
  0
VERTEX
  8
0
  5
291A4
 10
824.955
 20
281.815
 30
0.000000
  70
    32
  0
SEQEND
  8
0
  5
291A5
  0
LINE
  5
288C6
  8
0
 10
758.55543834853302
 20
271.71183909200062
 30
0.0
 11
758.55543834853302
 21
281.8146182308339
 31
0.0
  0
LINE
  5
288C7
  8
0
 10
761.75543850052486
 20
276.50978901334031
 30
0.0
 11
758.55543834853302
 21
276.50978901334031
 31
0.0
  0
POLYLINE
  5
288C9
  8
0
 10
761.75543782997215
 20
283.56742988472939
 30
0.0
 66
     1
 70
     8
  0
VERTEX
  8
0
  5
291A6
 10
761.755
 20
283.567
 30
0.000000
  70
    32
  0
VERTEX
  8
0
  5
291A7
 10
760.556
 20
285.029
 30
0.000000
  70
    32
  0
VERTEX
  8
0
  5
291A8
 10
759.400
 20
286.547
 30
0.000000
  70
    32
  0
VERTEX
  8
0
  5
291A9
 10
758.289
 20
288.119
 30
0.000000
  70
    32
  0
VERTEX
  8
0
  5
291AA
 10
757.225
 20
289.743
 30
0.000000
  70
    32
  0
VERTEX
  8
0
  5
291AB
 10
756.210
 20
291.417
 30
0.000000
  70
    32
  0
VERTEX
  8
0
  5
291AC
 10
755.245
 20
293.138
 30
0.000000
  70
    32
  0
VERTEX
  8
0
  5
291AD
 10
754.331
 20
294.904
 30
0.000000
  70
    32
  0
VERTEX
  8
0
  5
291AE
 10
753.469
 20
296.712
 30
0.000000
  70
    32
  0
VERTEX
  8
0
  5
291AF
 10
752.661
 20
298.560
 30
0.000000
  70
    32
  0
VERTEX
  8
0
  5
291B0
 10
751.908
 20
300.445
 30
0.000000
  70
    32
  0
VERTEX
  8
0
  5
291B1
 10
751.211
 20
302.365
 30
0.000000
  70
    32
  0
VERTEX
  8
0
  5
291B2
 10
750.571
 20
304.317
 30
0.000000
  70
    32
  0
VERTEX
  8
0
  5
291B3
 10
749.989
 20
306.299
 30
0.000000
  70
    32
  0
VERTEX
  8
0
  5
291B4
 10
749.465
 20
308.306
 30
0.000000
  70
    32
  0
VERTEX
  8
0
  5
291B5
 10
749.001
 20
310.337
 30
0.000000
  70
    32
  0
VERTEX
  8
0
  5
291B6
 10
748.596
 20
312.389
 30
0.000000
  70
    32
  0
VERTEX
  8
0
  5
291B7
 10
748.252
 20
314.459
 30
0.000000
  70
    32
  0
VERTEX
  8
0
  5
291B8
 10
747.970
 20
316.544
 30
0.000000
  70
    32
  0
VERTEX
  8
0
  5
291B9
 10
747.748
 20
318.641
 30
0.000000
  70
    32
  0
VERTEX
  8
0
  5
291BA
 10
747.589
 20
320.747
 30
0.000000
  70
    32
  0
VERTEX
  8
0
  5
291BB
 10
747.491
 20
322.859
 30
0.000000
  70
    32
  0
VERTEX
  8
0
  5
291BC
 10
747.456
 20
324.974
 30
0.000000
  70
    32
  0
VERTEX
  8
0
  5
291BD
 10
747.482
 20
327.089
 30
0.000000
  70
    32
  0
VERTEX
  8
0
  5
291BE
 10
747.571
 20
329.202
 30
0.000000
  70
    32
  0
VERTEX
  8
0
  5
291BF
 10
747.722
 20
331.309
 30
0.000000
  70
    32
  0
VERTEX
  8
0
  5
291C0
 10
747.934
 20
333.407
 30
0.000000
  70
    32
  0
VERTEX
  8
0
  5
291C1
 10
748.209
 20
335.494
 30
0.000000
  70
    32
  0
VERTEX
  8
0
  5
291C2
 10
748.544
 20
337.566
 30
0.000000
  70
    32
  0
VERTEX
  8
0
  5
291C3
 10
748.940
 20
339.621
 30
0.000000
  70
    32
  0
VERTEX
  8
0
  5
291C4
 10
749.396
 20
341.655
 30
0.000000
  70
    32
  0
VERTEX
  8
0
  5
291C5
 10
749.911
 20
343.666
 30
0.000000
  70
    32
  0
VERTEX
  8
0
  5
291C6
 10
750.485
 20
345.651
 30
0.000000
  70
    32
  0
VERTEX
  8
0
  5
291C7
 10
751.117
 20
347.607
 30
0.000000
  70
    32
  0
VERTEX
  8
0
  5
291C8
 10
751.806
 20
349.532
 30
0.000000
  70
    32
  0
VERTEX
  8
0
  5
291C9
 10
752.551
 20
351.423
 30
0.000000
  70
    32
  0
VERTEX
  8
0
  5
291CA
 10
753.351
 20
353.276
 30
0.000000
  70
    32
  0
VERTEX
  8
0
  5
291CB
 10
754.205
 20
355.090
 30
0.000000
  70
    32
  0
VERTEX
  8
0
  5
291CC
 10
755.112
 20
356.862
 30
0.000000
  70
    32
  0
VERTEX
  8
0
  5
291CD
 10
756.070
 20
358.590
 30
0.000000
  70
    32
  0
VERTEX
  8
0
  5
291CE
 10
757.078
 20
360.270
 30
0.000000
  70
    32
  0
VERTEX
  8
0
  5
291CF
 10
758.135
 20
361.901
 30
0.000000
  70
    32
  0
VERTEX
  8
0
  5
291D0
 10
759.239
 20
363.481
 30
0.000000
  70
    32
  0
VERTEX
  8
0
  5
291D1
 10
760.389
 20
365.007
 30
0.000000
  70
    32
  0
VERTEX
  8
0
  5
291D2
 10
761.583
 20
366.477
 30
0.000000
  70
    32
  0
VERTEX
  8
0
  5
291D3
 10
762.819
 20
367.888
 30
0.000000
  70
    32
  0
VERTEX
  8
0
  5
291D4
 10
764.095
 20
369.240
 30
0.000000
  70
    32
  0
VERTEX
  8
0
  5
291D5
 10
765.411
 20
370.530
 30
0.000000
  70
    32
  0
VERTEX
  8
0
  5
291D6
 10
766.763
 20
371.756
 30
0.000000
  70
    32
  0
VERTEX
  8
0
  5
291D7
 10
768.151
 20
372.917
 30
0.000000
  70
    32
  0
VERTEX
  8
0
  5
291D8
 10
769.571
 20
374.010
 30
0.000000
  70
    32
  0
VERTEX
  8
0
  5
291D9
 10
771.023
 20
375.035
 30
0.000000
  70
    32
  0
VERTEX
  8
0
  5
291DA
 10
772.504
 20
375.990
 30
0.000000
  70
    32
  0
VERTEX
  8
0
  5
291DB
 10
774.012
 20
376.874
 30
0.000000
  70
    32
  0
VERTEX
  8
0
  5
291DC
 10
775.545
 20
377.685
 30
0.000000
  70
    32
  0
VERTEX
  8
0
  5
291DD
 10
777.100
 20
378.422
 30
0.000000
  70
    32
  0
VERTEX
  8
0
  5
291DE
 10
778.676
 20
379.084
 30
0.000000
  70
    32
  0
VERTEX
  8
0
  5
291DF
 10
780.271
 20
379.671
 30
0.000000
  70
    32
  0
VERTEX
  8
0
  5
291E0
 10
781.881
 20
380.181
 30
0.000000
  70
    32
  0
VERTEX
  8
0
  5
291E1
 10
783.506
 20
380.614
 30
0.000000
  70
    32
  0
VERTEX
  8
0
  5
291E2
 10
785.142
 20
380.969
 30
0.000000
  70
    32
  0
VERTEX
  8
0
  5
291E3
 10
786.787
 20
381.245
 30
0.000000
  70
    32
  0
VERTEX
  8
0
  5
291E4
 10
788.439
 20
381.443
 30
0.000000
  70
    32
  0
VERTEX
  8
0
  5
291E5
 10
790.096
 20
381.562
 30
0.000000
  70
    32
  0
VERTEX
  8
0
  5
291E6
 10
791.755
 20
381.602
 30
0.000000
  70
    32
  0
VERTEX
  8
0
  5
291E7
 10
793.415
 20
381.562
 30
0.000000
  70
    32
  0
VERTEX
  8
0
  5
291E8
 10
795.072
 20
381.443
 30
0.000000
  70
    32
  0
VERTEX
  8
0
  5
291E9
 10
796.724
 20
381.245
 30
0.000000
  70
    32
  0
VERTEX
  8
0
  5
291EA
 10
798.369
 20
380.969
 30
0.000000
  70
    32
  0
VERTEX
  8
0
  5
291EB
 10
800.005
 20
380.614
 30
0.000000
  70
    32
  0
VERTEX
  8
0
  5
291EC
 10
801.629
 20
380.181
 30
0.000000
  70
    32
  0
VERTEX
  8
0
  5
291ED
 10
803.240
 20
379.671
 30
0.000000
  70
    32
  0
VERTEX
  8
0
  5
291EE
 10
804.835
 20
379.084
 30
0.000000
  70
    32
  0
VERTEX
  8
0
  5
291EF
 10
806.411
 20
378.422
 30
0.000000
  70
    32
  0
VERTEX
  8
0
  5
291F0
 10
807.966
 20
377.685
 30
0.000000
  70
    32
  0
VERTEX
  8
0
  5
291F1
 10
809.499
 20
376.874
 30
0.000000
  70
    32
  0
VERTEX
  8
0
  5
291F2
 10
811.007
 20
375.990
 30
0.000000
  70
    32
  0
VERTEX
  8
0
  5
291F3
 10
812.488
 20
375.035
 30
0.000000
  70
    32
  0
VERTEX
  8
0
  5
291F4
 10
813.939
 20
374.010
 30
0.000000
  70
    32
  0
VERTEX
  8
0
  5
291F5
 10
815.360
 20
372.917
 30
0.000000
  70
    32
  0
VERTEX
  8
0
  5
291F6
 10
816.748
 20
371.756
 30
0.000000
  70
    32
  0
VERTEX
  8
0
  5
291F7
 10
818.100
 20
370.530
 30
0.000000
  70
    32
  0
VERTEX
  8
0
  5
291F8
 10
819.415
 20
369.240
 30
0.000000
  70
    32
  0
VERTEX
  8
0
  5
291F9
 10
820.692
 20
367.888
 30
0.000000
  70
    32
  0
VERTEX
  8
0
  5
291FA
 10
821.928
 20
366.477
 30
0.000000
  70
    32
  0
VERTEX
  8
0
  5
291FB
 10
823.122
 20
365.007
 30
0.000000
  70
    32
  0
VERTEX
  8
0
  5
291FC
 10
824.272
 20
363.481
 30
0.000000
  70
    32
  0
VERTEX
  8
0
  5
291FD
 10
825.376
 20
361.901
 30
0.000000
  70
    32
  0
VERTEX
  8
0
  5
291FE
 10
826.432
 20
360.270
 30
0.000000
  70
    32
  0
VERTEX
  8
0
  5
291FF
 10
827.441
 20
358.590
 30
0.000000
  70
    32
  0
VERTEX
  8
0
  5
29200
 10
828.399
 20
356.862
 30
0.000000
  70
    32
  0
VERTEX
  8
0
  5
29201
 10
829.305
 20
355.090
 30
0.000000
  70
    32
  0
VERTEX
  8
0
  5
29202
 10
830.160
 20
353.276
 30
0.000000
  70
    32
  0
VERTEX
  8
0
  5
29203
 10
830.960
 20
351.423
 30
0.000000
  70
    32
  0
VERTEX
  8
0
  5
29204
 10
831.705
 20
349.532
 30
0.000000
  70
    32
  0
VERTEX
  8
0
  5
29205
 10
832.394
 20
347.607
 30
0.000000
  70
    32
  0
VERTEX
  8
0
  5
29206
 10
833.026
 20
345.651
 30
0.000000
  70
    32
  0
VERTEX
  8
0
  5
29207
 10
833.600
 20
343.666
 30
0.000000
  70
    32
  0
VERTEX
  8
0
  5
29208
 10
834.115
 20
341.655
 30
0.000000
  70
    32
  0
VERTEX
  8
0
  5
29209
 10
834.571
 20
339.621
 30
0.000000
  70
    32
  0
VERTEX
  8
0
  5
2920A
 10
834.967
 20
337.566
 30
0.000000
  70
    32
  0
VERTEX
  8
0
  5
2920B
 10
835.302
 20
335.494
 30
0.000000
  70
    32
  0
VERTEX
  8
0
  5
2920C
 10
835.576
 20
333.407
 30
0.000000
  70
    32
  0
VERTEX
  8
0
  5
2920D
 10
835.789
 20
331.309
 30
0.000000
  70
    32
  0
VERTEX
  8
0
  5
2920E
 10
835.940
 20
329.202
 30
0.000000
  70
    32
  0
VERTEX
  8
0
  5
2920F
 10
836.029
 20
327.089
 30
0.000000
  70
    32
  0
VERTEX
  8
0
  5
29210
 10
836.055
 20
324.974
 30
0.000000
  70
    32
  0
VERTEX
  8
0
  5
29211
 10
836.020
 20
322.859
 30
0.000000
  70
    32
  0
VERTEX
  8
0
  5
29212
 10
835.922
 20
320.747
 30
0.000000
  70
    32
  0
VERTEX
  8
0
  5
29213
 10
835.763
 20
318.641
 30
0.000000
  70
    32
  0
VERTEX
  8
0
  5
29214
 10
835.541
 20
316.544
 30
0.000000
  70
    32
  0
VERTEX
  8
0
  5
29215
 10
835.258
 20
314.459
 30
0.000000
  70
    32
  0
VERTEX
  8
0
  5
29216
 10
834.915
 20
312.389
 30
0.000000
  70
    32
  0
VERTEX
  8
0
  5
29217
 10
834.510
 20
310.337
 30
0.000000
  70
    32
  0
VERTEX
  8
0
  5
29218
 10
834.046
 20
308.306
 30
0.000000
  70
    32
  0
VERTEX
  8
0
  5
29219
 10
833.522
 20
306.299
 30
0.000000
  70
    32
  0
VERTEX
  8
0
  5
2921A
 10
832.940
 20
304.317
 30
0.000000
  70
    32
  0
VERTEX
  8
0
  5
2921B
 10
832.300
 20
302.365
 30
0.000000
  70
    32
  0
VERTEX
  8
0
  5
2921C
 10
831.603
 20
300.445
 30
0.000000
  70
    32
  0
VERTEX
  8
0
  5
2921D
 10
830.850
 20
298.560
 30
0.000000
  70
    32
  0
VERTEX
  8
0
  5
2921E
 10
830.042
 20
296.712
 30
0.000000
  70
    32
  0
VERTEX
  8
0
  5
2921F
 10
829.180
 20
294.904
 30
0.000000
  70
    32
  0
VERTEX
  8
0
  5
29220
 10
828.266
 20
293.138
 30
0.000000
  70
    32
  0
VERTEX
  8
0
  5
29221
 10
827.301
 20
291.417
 30
0.000000
  70
    32
  0
VERTEX
  8
0
  5
29222
 10
826.286
 20
289.743
 30
0.000000
  70
    32
  0
VERTEX
  8
0
  5
29223
 10
825.222
 20
288.119
 30
0.000000
  70
    32
  0
VERTEX
  8
0
  5
29224
 10
824.111
 20
286.547
 30
0.000000
  70
    32
  0
VERTEX
  8
0
  5
29225
 10
822.955
 20
285.029
 30
0.000000
  70
    32
  0
VERTEX
  8
0
  5
29226
 10
821.755
 20
283.567
 30
0.000000
  70
    32
  0
SEQEND
  8
0
  5
29227
  0
LINE
  5
288CB
  8
0
 10
824.9554373114122
 20
276.50978901334031
 30
0.0
 11
821.75543715942035
 21
276.50978901334031
 31
0.0
  0
LINE
  5
288CC
  8
0
 10
761.75543850052486
 20
366.68023346833797
 30
0.0
 11
761.75543850052486
 21
272.68149397246469
 31
0.0
  0
LINE
  5
288CD
  8
0
 10
821.75543715942035
 20
272.68149397246469
 30
0.0
 11
821.75543715942035
 21
366.68023346833797
 31
0.0
  0
LINE
  5
288CE
  8
0
 10
762.25543765115867
 20
272.68149397246469
 30
0.0
 11
758.55543834853302
 21
272.68149397246469
 31
0.0
  0
LINE
  5
288D1
  8
0
 10
824.9554373114122
 20
272.68149397246469
 30
0.0
 11
821.25543800878654
 21
272.68149397246469
 31
0.0
  0
LINE
  5
288D2
  8
0
 10
824.9554373114122
 20
272.68149397246469
 30
0.0
 11
824.95543782997163
 21
281.8146182109225
 31
0.0
  0
LINE
  5
288D4
  8
0
 10
772.75543782997261
 20
370.01547097138979
 30
0.0
 11
764.87404478478561
 21
370.01547097138979
 31
0.0
  0
LINE
  5
288D5
  8
0
 10
818.6368308751596
 20
370.01547097138979
 30
0.0
 11
810.75543782997261
 21
370.01547097138979
 31
0.0
  0
LINE
  5
288D7
  8
0
 10
810.75543782997261
 20
367.17570452861401
 30
0.0
 11
810.75543782997261
 21
375.9240868585548
 31
0.0
  0
LINE
  5
288D8
  8
0
 10
772.75543782997261
 20
373.0263101952516
 30
0.0
 11
810.75543782997272
 21
373.02631019525148
 31
0.0
  0
LINE
  5
288DA
  8
0
 10
772.75543782997261
 20
375.92408685855492
 30
0.0
 11
810.75543782997272
 21
375.9240868585548
 31
0.0
  0
LINE
  5
288DC
  8
0
 10
786.05543773386216
 20
192.9814952509841
 30
0.0
 11
786.05543773386012
 21
372.38149224691011
 31
0.0
  0
LINE
  5
288DE
  8
0
 10
788.45543784785605
 20
192.9814952509841
 30
0.0
 11
788.455437847854
 21
372.38149224691011
 31
0.0
  0
LINE
  5
288E0
  8
0
 10
797.45543792608692
 20
192.9814952509841
 30
0.0
 11
797.4554379260851
 21
372.38149224691011
 31
0.0
  0
LINE
  5
288E2
  8
0
 10
795.05543781209144
 20
192.9814952509841
 30
0.0
 11
795.05543781209121
 21
372.38149224691011
 31
0.0
  0
LINE
  5
288E4
  8
0
 10
778.45333514499794
 20
202.46960252676831
 30
0.0
 11
778.45333514499794
 21
362.89209752254112
 31
0.0
  0
LINE
  5
288E6
  8
0
 10
805.05754051494921
 20
202.4696025291511
 30
0.0
 11
805.05754051494728
 21
362.89209752254112
 31
0.0
  0
LINE
  5
288E8
  8
0
 10
776.953334899129
 20
204.14680734486231
 30
0.0
 11
776.95333489912878
 21
361.2159702079735
 31
0.0
  0
LINE
  5
288EA
  8
0
 10
806.5575407608161
 20
204.14680734486231
 30
0.0
 11
806.55754076081644
 21
361.2159702079735
 31
0.0
  0
LINE
  5
288EC
  8
0
 10
775.45333486918639
 20
208.5033355906904
 30
0.0
 11
775.45333465325962
 21
356.85965298585512
 31
0.0
  0
LINE
  5
288EE
  8
0
 10
808.05754079075882
 20
208.5033355906904
 30
0.0
 11
808.0575410066856
 21
356.85965298585512
 31
0.0
  0
LINE
  5
288F0
  8
0
 10
769.25543782997295
 20
229.18352155111941
 30
0.0
 11
769.25543693590294
 21
336.1794675784551
 31
0.0
  0
LINE
  5
288F2
  8
0
 10
814.25543782997306
 20
229.18352155111941
 30
0.0
 11
814.25543872404228
 21
336.1794675784551
 31
0.0
  0
LINE
  5
288F4
  8
0
 10
762.25543782997306
 20
271.10494059902129
 30
0.0
 11
762.25543765115867
 21
294.2580466242872
 31
0.0
  0
LINE
  5
288F6
  8
0
 10
821.25543782997295
 20
271.10494059902129
 30
0.0
 11
821.25543800878654
 21
294.2580466242872
 31
0.0
  0
LINE
  5
28911
  8
0
 10
763.6964767961515
 20
269.60610012434353
 30
0.0
 11
763.6964767961515
 21
295.75688737355102
 31
0.0
  0
LINE
  5
28913
  8
0
 10
819.81439886379371
 20
269.60610012434353
 30
0.0
 11
819.81439886379371
 21
295.75688737355102
 31
0.0
  0
LINE
  5
28986
  8
0
 10
495.53039226529359
 20
587.98051491522494
 30
0.0
 11
495.0303921833372
 21
587.84654230022124
 31
0.0
  0
LINE
  5
28987
  8
0
 10
477.03039295819758
 20
587.84654230022124
 30
0.0
 11
476.53039287624119
 21
587.98051491522494
 31
0.0
  0
LINE
  5
28988
  8
0
 10
495.53039226529359
 20
661.88051790141765
 30
0.0
 11
495.0303921833372
 21
661.74654156112376
 31
0.0
  0
LINE
  5
28989
  8
0
 10
477.03039295819758
 20
661.74654156112376
 30
0.0
 11
476.53039287624119
 21
661.88051790141765
 31
0.0
  0
LINE
  5
2898A
  8
0
 10
476.53039287624119
 20
671.61256685995761
 30
0.0
 11
477.03039295819758
 21
671.74654320025149
 31
0.0
  0
LINE
  5
2898B
  8
0
 10
495.0303921833372
 20
671.74654320025149
 30
0.0
 11
495.53039226529359
 21
671.61256685995761
 31
0.0
  0
ARC
  5
2898E
  8
0
 10
397.03039257076739
 20
619.15562922600941
 30
0.0
 40
1.000000000000085
 50
180.00000000002601
 51
250.9999999999979
  0
ARC
  5
2898F
  8
0
 10
396.33039257076672
 20
622.54654207968406
 30
0.0
 40
0.2999999999999403
 50
90.0
 51
180.00000000001299
  0
LINE
  5
28990
  8
0
 10
396.0303889944887
 20
619.15562912964526
 30
0.0
 11
396.0303889944887
 21
622.54654202753011
 31
0.0
  0
LINE
  5
28991
  8
0
 10
396.0303889944887
 20
625.54654205360714
 30
0.0
 11
396.0303889944887
 21
631.5465421057612
 31
0.0
  0
ARC
  5
28992
  8
0
 10
396.33039257076672
 20
625.54654207968395
 30
0.0
 40
0.2999999999999403
 50
179.99999999998701
 51
270.0
  0
ARC
  5
28993
  8
0
 10
396.33039257076672
 20
634.54654207968395
 30
0.0
 40
0.2999999999999403
 50
179.99999999997391
 51
270.0
  0
ARC
  5
28994
  8
0
 10
396.33039257076672
 20
631.54654207968406
 30
0.0
 40
0.2999999999999403
 50
90.0
 51
180.00000000002601
  0
LINE
  5
28995
  8
0
 10
396.0303889944887
 20
634.54654213183824
 30
0.0
 11
396.0303889944887
 21
637.93745502972308
 31
0.0
  0
ARC
  5
28996
  8
0
 10
397.03039257076739
 20
637.93745493335848
 30
0.0
 40
1.000000000000085
 50
108.99999999998749
 51
179.99999999997391
  0
LINE
  5
28997
  8
0
 10
396.33039407280438
 20
622.84654198357168
 30
0.0
 11
396.33039407280438
 21
625.24654209756557
 31
0.0
  0
LINE
  5
28998
  8
0
 10
396.33039407280438
 20
631.84654206180278
 30
0.0
 11
396.33039407280438
 21
634.24654217579666
 31
0.0
  0
LINE
  5
28999
  8
0
 10
404.74705375579282
 20
615.44094981259491
 30
0.0
 11
396.7048230007029
 21
618.21011040502492
 31
0.0
  0
LINE
  5
2899A
  8
0
 10
396.7048230007029
 20
638.88297375434342
 30
0.0
 11
404.74705375579282
 21
641.65213434677344
 31
0.0
  0
LINE
  5
289A1
  8
0
 10
424.7470537557935
 20
608.55439730131332
 30
0.0
 11
421.86565633293981
 21
609.54654207968804
 31
0.0
  0
LINE
  5
289A2
  8
0
 10
421.86565633296232
 20
647.54654207968804
 30
0.0
 11
424.7470537557935
 21
648.53868685805503
 31
0.0
  0
ARC
  5
289A3
  8
0
 10
490.78039241803049
 20
617.40902636310204
 30
0.0
 40
29.420696365975989
 50
260.70887449287602
 51
279.29112550712392
  0
LINE
  5
289A4
  8
0
 10
495.53039226529359
 20
595.34654259824458
 30
0.0
 11
495.53039226529359
 21
588.37430790209476
 31
0.0
  0
LINE
  5
289A5
  8
0
 10
486.03039257076739
 20
595.34654259824458
 30
0.0
 11
486.03039257076739
 21
588.37430790209476
 31
0.0
  0
ARC
  5
289A6
  8
0
 10
481.28039272350429
 20
617.09459011629826
 30
0.0
 40
29.110429557333969
 50
260.60895562835788
 51
279.39104437164212
  0
LINE
  5
289A7
  8
0
 10
476.53039287624119
 20
595.34654259824458
 30
0.0
 11
476.53039287624119
 21
588.37430790209476
 31
0.0
  0
LINE
  5
289A8
  8
0
 10
477.03039295819758
 20
587.84654230022124
 30
0.0
 11
495.0303921833372
 21
587.84654230022124
 31
0.0
  0
LINE
  5
289A9
  8
0
 10
476.53039287624119
 20
588.37430790209476
 30
0.0
 11
476.53039287624119
 21
587.98662066602412
 31
0.0
  0
LINE
  5
289AA
  8
0
 10
495.53039226529359
 20
588.37430790209476
 30
0.0
 11
495.53039226529359
 21
587.98804372691814
 31
0.0
  0
ARC
  5
289AB
  8
0
 10
481.28039272350429
 20
690.99445604894765
 30
0.0
 40
29.110294340635011
 50
260.60891161229199
 51
279.3910883877079
  0
LINE
  5
289AC
  8
0
 10
486.03039257076739
 20
671.2187738730878
 30
0.0
 11
486.03039257076739
 21
662.27431088828735
 31
0.0
  0
ARC
  5
289AD
  8
0
 10
481.28039272350429
 20
642.50155031028464
 30
0.0
 40
29.107411903242561
 50
80.607973215572258
 51
99.392026784427728
  0
LINE
  5
289AE
  8
0
 10
476.53039287624119
 20
671.2187738730878
 30
0.0
 11
476.53039287624119
 21
662.27431088828735
 31
0.0
  0
ARC
  5
289AF
  8
0
 10
490.78039241803049
 20
691.30861307191515
 30
0.0
 40
29.420285549926621
 50
260.70874360506031
 51
279.29125639493958
  0
LINE
  5
289B0
  8
0
 10
495.53039226529359
 20
671.2187738730878
 30
0.0
 11
495.53039226529359
 21
662.27431088828735
 31
0.0
  0
ARC
  5
289B1
  8
0
 10
490.78039241803049
 20
642.18894579905236
 30
0.0
 40
29.41587014788195
 50
80.707336604529715
 51
99.292663395470271
  0
LINE
  5
289B2
  8
0
 10
476.53039287624119
 20
662.27431088828735
 30
0.0
 11
476.53039287624119
 21
661.88661992692653
 31
0.0
  0
LINE
  5
289B3
  8
0
 10
495.53039226529359
 20
662.27431088828735
 30
0.0
 11
495.53039226529359
 21
661.88804671311084
 31
0.0
  0
LINE
  5
289B4
  8
0
 10
477.03039295819758
 20
671.74654320025149
 30
0.0
 11
495.0303921833372
 21
671.74654320025149
 31
0.0
  0
LINE
  5
289B5
  8
0
 10
476.53039287624119
 20
671.2187738730878
 30
0.0
 11
476.53039287624119
 21
671.60503804826442
 31
0.0
  0
LINE
  5
289B6
  8
0
 10
495.53039226529359
 20
671.2187738730878
 30
0.0
 11
495.53039226529359
 21
671.60646483444873
 31
0.0
  0
CIRCLE
  5
289B8
  8
0
 10
542.03039257076728
 20
628.54654207968463
 30
0.0
 40
40.999999999999943
  0
CIRCLE
  5
289B9
  8
0
 10
542.03039257076728
 20
628.54654207968463
 30
0.0
 40
26.999999999999961
  0
CIRCLE
  5
289BA
  8
0
 10
542.03039257076728
 20
628.54654207968463
 30
0.0
 40
10.0
  0
CIRCLE
  5
289BB
  8
0
 10
542.03039257076728
 20
628.54654207968463
 30
0.0
 40
20.0
  0
CIRCLE
  5
289BC
  8
0
 10
542.03039257076728
 20
628.54654207968463
 30
0.0
 40
50.999999999999972
  0
CIRCLE
  5
289BD
  8
0
 10
542.03039257076728
 20
628.54654207968463
 30
0.0
 40
47.000000000012989
  0
LINE
  5
289BE
  8
0
 10
473.26371375319718
 20
595.3465425982447
 30
0.0
 11
473.26371375319718
 21
661.74654156112388
 31
0.0
  0
LINE
  5
289BF
  8
0
 10
473.26371375319718
 20
661.74654156112388
 30
0.0
 11
424.7470537557935
 21
661.74654156112388
 31
0.0
  0
LINE
  5
289C2
  8
0
 10
424.7470537557935
 20
595.3465425982447
 30
0.0
 11
424.7470537557935
 21
661.74654156112388
 31
0.0
  0
LINE
  5
289C3
  8
0
 10
473.26371375319718
 20
595.3465425982447
 30
0.0
 11
424.7470537557935
 21
595.3465425982447
 31
0.0
  0
LINE
  5
289C4
  8
0
 10
503.31657029536723
 20
661.74654156112388
 30
0.0
 11
473.26371375319718
 21
661.74654156112388
 31
0.0
  0
LINE
  5
289C5
  8
0
 10
503.31657029536723
 20
595.3465425982447
 30
0.0
 11
473.26371375319718
 21
595.3465425982447
 31
0.0
  0
LINE
  5
289D5
  8
0
 10
550.24684242752551
 20
622.8465419835718
 30
0.0
 11
533.81394617107856
 21
622.8465419835718
 31
0.0
  0
LINE
  5
289D6
  8
0
 10
404.74705375579259
 20
622.84654198357168
 30
0.0
 11
396.33039407280438
 21
622.84654198357168
 31
0.0
  0
LINE
  5
289D7
  8
0
 10
551.47020540979861
 20
625.24654209756568
 30
0.0
 11
532.59058318880545
 21
625.24654209756568
 31
0.0
  0
LINE
  5
289D8
  8
0
 10
404.74705375579259
 20
625.24654209756557
 30
0.0
 11
396.33039407280438
 21
625.24654209756557
 31
0.0
  0
LINE
  5
289D9
  8
0
 10
550.24684242752551
 20
634.24654217579678
 30
0.0
 11
533.81394617107856
 21
634.24654217579678
 31
0.0
  0
LINE
  5
289DA
  8
0
 10
404.74705375579259
 20
634.24654217579666
 30
0.0
 11
396.33039407280438
 21
634.24654217579666
 31
0.0
  0
LINE
  5
289DB
  8
0
 10
551.47020540979861
 20
631.84654206180289
 30
0.0
 11
532.59058318880545
 21
631.84654206180289
 31
0.0
  0
LINE
  5
289DC
  8
0
 10
404.74705375579259
 20
631.84654206180278
 30
0.0
 11
396.33039407280438
 21
631.84654206180278
 31
0.0
  0
LINE
  5
289E4
  8
0
 10
545.46707145718085
 20
619.15562912964538
 30
0.0
 11
538.59371341613291
 21
619.15562912964538
 31
0.0
  0
LINE
  5
289E5
  8
0
 10
404.74705375579259
 20
619.15562912964526
 30
0.0
 11
396.0303889944887
 21
619.15562912964526
 31
0.0
  0
LINE
  5
289EE
  8
0
 10
545.46707145718085
 20
637.9374550297232
 30
0.0
 11
538.59371341613291
 21
637.9374550297232
 31
0.0
  0
LINE
  5
289EF
  8
0
 10
404.74705375579259
 20
637.93745502972308
 30
0.0
 11
396.0303889944887
 21
637.93745502972308
 31
0.0
  0
ARC
  5
289FA
  8
0
 10
486.03039257076739
 20
282.68149017266802
 30
0.0
 40
72.0
 50
94.324050967919376
 51
37.520907750890899
  0
ARC
  5
289FB
  8
0
 10
486.03039257076739
 20
282.68149017266802
 30
0.0
 40
74.92815815825702
 50
93.767285366436894
 51
38.093805346092843
  0
ARC
  5
289FC
  8
0
 10
486.03039257076739
 20
282.68149017266802
 30
0.0
 40
79.284474474771059
 50
106.034381334942
 51
38.865599275701811
  0
ARC
  5
289FD
  8
0
 10
486.03039257076739
 20
282.68149017266802
 30
0.0
 40
90.0
 50
122.1490512993352
 51
40.438805869607982
  0
LINE
  5
289FE
  8
0
 10
486.03039257076739
 20
293.65114482961462
 30
0.0
 11
495.53039226529359
 21
288.16631750114129
 31
0.0
  0
LINE
  5
289FF
  8
0
 10
495.53039226529359
 20
288.16631750114129
 30
0.0
 11
495.53039226529359
 21
277.19666284419458
 31
0.0
  0
LINE
  5
28A00
  8
0
 10
495.53039226529359
 20
277.19666284419458
 30
0.0
 11
486.03039257076739
 21
271.7118355157213
 31
0.0
  0
LINE
  5
28A01
  8
0
 10
486.03039257076739
 20
271.7118355157213
 30
0.0
 11
476.53039287624119
 21
277.19666284419458
 31
0.0
  0
LINE
  5
28A02
  8
0
 10
476.53039287624119
 20
277.19666284419458
 30
0.0
 11
476.53039287624119
 21
288.16631750114129
 31
0.0
  0
LINE
  5
28A03
  8
0
 10
476.53039287624119
 20
288.16631750114129
 30
0.0
 11
486.03039257076739
 21
293.65114482961462
 31
0.0
  0
LINE
  5
28A0D
  8
0
 10
404.74705375579259
 20
644.56806276300335
 30
0.0
 11
404.74705375579259
 21
612.52502139636977
 31
0.0
  0
LINE
  5
28A0E
  8
0
 10
409.2912140198211
 20
647.54654207968804
 30
0.0
 11
409.2912140198211
 21
609.54654207968804
 31
0.0
  0
LINE
  5
28A0F
  8
0
 10
421.41654364613049
 20
644.54654207968804
 30
0.0
 11
421.4165436461314
 21
612.54654207968804
 31
0.0
  0
LINE
  5
28A10
  8
0
 10
424.7470537557935
 20
647.54654207968804
 30
0.0
 11
406.3411634544097
 21
647.54654207968804
 31
0.0
  0
LINE
  5
28A11
  8
0
 10
421.41654364613049
 20
644.54654207968804
 30
0.0
 11
424.7470537557935
 21
644.54654207968804
 31
0.0
  0
LINE
  5
28A12
  8
0
 10
424.7470537557935
 20
609.54654207968804
 30
0.0
 11
406.3411634544097
 21
609.54654207968804
 31
0.0
  0
LINE
  5
28A13
  8
0
 10
421.4165436461314
 20
612.54654207968804
 30
0.0
 11
424.74705375579441
 21
612.54654207968804
 31
0.0
  0
ARC
  5
28A14
  8
0
 10
409.08349314943518
 20
644.16299105324265
 30
0.0
 40
4.3553174057440378
 50
129.02437415611831
 51
174.6634221469306
  0
ARC
  5
28A15
  8
0
 10
409.08349314943518
 20
612.93009310613331
 30
0.0
 40
4.3553174057440378
 50
185.33657785306929
 51
230.97562584388169
  0
LINE
  5
28A17
  8
1
 10
376.83838318214453
 20
628.54654207968463
 30
0.0
 11
602.24347565950552
 21
628.54654207968463
 31
0.0
  0
LINE
  5
28A18
  8
1
 10
542.03039257076728
 20
688.75962516842355
 30
0.0
 11
542.03039257076728
 21
568.33345899094638
 31
0.0
  0
LINE
  5
28A19
  8
1
 10
486.03039257076739
 20
683.03911341775165
 30
0.0
 11
486.03039257076739
 21
574.05397074161738
 31
0.0
  0
LINE
  5
28A1D
  8
0
 10
404.74705375579259
 20
373.00384511972283
 30
0.0
 11
407.96099180422488
 21
369.17362290412751
 31
0.0
  0
LINE
  5
28A1E
  8
0
 10
406.66216486358979
 20
374.61081414393942
 30
0.0
 11
404.74705375579259
 21
373.00384511972283
 31
0.0
  0
LINE
  5
28A1F
  8
0
 10
409.29121401982019
 20
371.4776353668953
 30
0.0
 11
406.66216486358979
 21
374.61081414393942
 31
0.0
  0
LINE
  5
28A20
  8
0
 10
425.45662045542372
 20
369.23335330933099
 30
0.0
 11
409.29121401982019
 21
371.4776353668953
 31
0.0
  0
LINE
  5
28A22
  8
0
 10
407.96099180422488
 20
369.17362290412751
 30
0.0
 11
426.1705585038568
 21
366.56890023912399
 31
0.0
  0
LINE
  5
28AB7
  8
1
 10
234.7979186496311
 20
282.68149017266848
 30
0.0
 11
125.8127759734968
 21
282.68149017266848
 31
0.0
  0
LINE
  5
28AB8
  8
1
 10
180.3053473115649
 20
173.48948078404561
 30
0.0
 11
180.3053473115649
 21
425.87349956129179
 31
0.0
  0
LINE
  5
28AB9
  8
1
 10
542.03039257076694
 20
425.87349956129083
 30
0.0
 11
542.03039257076694
 21
347.66949424508857
 31
0.0
  0
LINE
  5
28ABA
  8
1
 10
376.83838318214413
 20
282.68149017266802
 30
0.0
 11
595.22240195939071
 21
282.68149017266802
 31
0.0
  0
LINE
  5
28ABB
  8
1
 10
486.03039257076688
 20
173.48948078404459
 30
0.0
 11
486.03039257076688
 21
374.5606234970237
 31
0.0
  0
LINE
  5
28ABF
  8
0
 10
199.3053473115649
 20
366.5688994424782
 30
0.0
 11
161.3053473115649
 21
366.5688994424782
 31
0.0
  0
LINE
  5
28AC0
  8
0
 10
199.3053473115649
 20
366.5688994424782
 30
0.0
 11
199.3053473115649
 21
374.61081334729357
 31
0.0
  0
LINE
  5
28AC2
  8
0
 10
199.3053473115649
 20
374.61081334729357
 30
0.0
 11
161.3053473115649
 21
374.61081334729357
 31
0.0
  0
LINE
  5
28AC3
  8
0
 10
161.3053473115649
 20
366.5688994424782
 30
0.0
 11
161.3053473115649
 21
374.61081334729357
 31
0.0
  0
LINE
  5
28AC6
  8
0
 10
161.3053473115649
 20
369.17362210748172
 30
0.0
 11
199.3053473115649
 21
369.17362210748172
 31
0.0
  0
LINE
  5
28ACA
  8
0
 10
161.3053473115649
 20
373.00384511972283
 30
0.0
 11
199.3053473115649
 21
373.00384511972283
 31
0.0
  0
LINE
  5
28AD0
  8
0
 10
772.75543782997261
 20
367.17570452861401
 30
0.0
 11
772.75543782997261
 21
375.9240868585548
 31
0.0
  0
LINE
  5
28AD1
  8
0
 10
772.75543782997261
 20
367.17570452861401
 30
0.0
 11
779.75543683261139
 21
367.17570452861401
 31
0.0
  0
LINE
  5
28AD2
  8
0
 10
803.75543882733405
 20
367.17570452861401
 30
0.0
 11
810.75543782997238
 21
367.17570452861401
 31
0.0
  0
LINE
  5
28AD3
  8
1
 10
846.24800916803974
 20
282.68149553708668
 30
0.0
 11
737.26286649190536
 21
282.68149553708668
 31
0.0
  0
LINE
  5
28AD4
  8
1
 10
791.75543782997352
 20
173.4894861484633
 30
0.0
 11
791.75543782997352
 21
425.87350492570948
 31
0.0
  0
LINE
  5
28B40
  8
0
 10
480.03039257076728
 20
673.34654081010524
 30
0.0
 11
492.03039257076728
 21
673.34654081010513
 31
0.0
  0
LINE
  5
28B41
  8
0
 10
490.03039257076739
 20
675.34654081010513
 30
0.0
 11
492.03039257076728
 21
673.34654081010513
 31
0.0
  0
LINE
  5
28B42
  8
0
 10
482.03039257076739
 20
675.34654081010535
 30
0.0
 11
480.03039257076728
 21
673.34654081010535
 31
0.0
  0
LINE
  5
28B43
  8
0
 10
480.03039257076728
 20
671.74654320025149
 30
0.0
 11
480.03039257076728
 21
673.34654081010535
 31
0.0
  0
LINE
  5
28B44
  8
3
 10
480.97739257076728
 20
671.74654320025149
 30
0.0
 11
480.97739257076728
 21
674.29354081010524
 31
0.0
  0
LINE
  5
28B45
  8
3
 10
491.0833925707675
 20
671.74654320025149
 30
0.0
 11
491.0833925707675
 21
674.29354081010513
 31
0.0
  0
LINE
  5
28B46
  8
0
 10
492.03039257076728
 20
671.74654320025149
 30
0.0
 11
492.03039257076728
 21
673.34654081010513
 31
0.0
  0
LINE
  5
28B47
  8
0
 10
482.03039257076739
 20
675.34654081010535
 30
0.0
 11
490.03039257076739
 21
675.34654081010513
 31
0.0
  0
LINE
  5
28B52
  8
0
 10
135.50534858114381
 20
276.68149374894722
 30
0.0
 11
135.50534858114381
 21
288.68149374894722
 31
0.0
  0
LINE
  5
28B53
  8
0
 10
133.50534858114381
 20
286.68149374894722
 30
0.0
 11
135.50534858114381
 21
288.68149374894722
 31
0.0
  0
LINE
  5
28B54
  8
0
 10
133.50534858114381
 20
278.68149374894722
 30
0.0
 11
135.50534858114381
 21
276.68149374894722
 31
0.0
  0
LINE
  5
28B55
  8
0
 10
137.10534619099761
 20
276.68149374894722
 30
0.0
 11
135.50534858114381
 21
276.68149374894722
 31
0.0
  0
LINE
  5
28B56
  8
3
 10
137.10534619099761
 20
277.62849374894711
 30
0.0
 11
134.55834858114389
 21
277.62849374894711
 31
0.0
  0
LINE
  5
28B57
  8
3
 10
137.10534619099761
 20
287.73449374894727
 30
0.0
 11
134.55834858114389
 21
287.73449374894727
 31
0.0
  0
LINE
  5
28B58
  8
0
 10
137.10534619099761
 20
288.68149374894722
 30
0.0
 11
135.50534858114381
 21
288.68149374894722
 31
0.0
  0
LINE
  5
28B59
  8
0
 10
133.50534858114381
 20
278.68149374894722
 30
0.0
 11
133.50534858114381
 21
286.68149374894722
 31
0.0
  0
LINE
  5
28B5A
  8
0
 10
836.5554365603939
 20
276.68149374894722
 30
0.0
 11
836.5554365603939
 21
288.68149374894722
 31
0.0
  0
LINE
  5
28B5B
  8
0
 10
838.5554365603939
 20
286.68149374894722
 30
0.0
 11
836.5554365603939
 21
288.68149374894722
 31
0.0
  0
LINE
  5
28B5C
  8
0
 10
838.5554365603939
 20
278.68149374894722
 30
0.0
 11
836.5554365603939
 21
276.68149374894722
 31
0.0
  0
LINE
  5
28B5D
  8
0
 10
834.95543895054016
 20
276.68149374894722
 30
0.0
 11
836.5554365603939
 21
276.68149374894722
 31
0.0
  0
LINE
  5
28B5E
  8
3
 10
834.95543895054016
 20
277.62849374894711
 30
0.0
 11
837.50243656039379
 21
277.62849374894711
 31
0.0
  0
LINE
  5
28B5F
  8
3
 10
834.95543895054016
 20
287.73449374894727
 30
0.0
 11
837.50243656039379
 21
287.73449374894727
 31
0.0
  0
LINE
  5
28B60
  8
0
 10
834.95543895054016
 20
288.68149374894722
 30
0.0
 11
836.5554365603939
 21
288.68149374894722
 31
0.0
  0
LINE
  5
28B61
  8
0
 10
838.5554365603939
 20
278.68149374894722
 30
0.0
 11
838.5554365603939
 21
286.68149374894722
 31
0.0
  0
LINE
  5
28BA7
  8
2
 10
801.75543955850856
 20
389.98149416617957
 30
0.0
 11
801.75543955850856
 21
406.68149172238918
 31
0.0
  0
LINE
  5
28BA8
  8
2
 10
781.75543955850856
 20
406.68149172238918
 30
0.0
 11
781.75543955850856
 21
389.98149416617957
 31
0.0
  0
LINE
  5
28BA9
  8
2
 10
747.45543782997265
 20
389.98149416617957
 30
0.0
 11
836.05543782997256
 21
389.98149416617957
 31
0.0
  0
LINE
  5
28CDC
  8
2
 10
836.05543782997256
 20
325.1238305144978
 30
0.0
 11
836.05543782997256
 21
389.98149416617957
 31
0.0
  0
LINE
  5
28CDD
  8
2
 10
747.45543782997265
 20
325.12383051449842
 30
0.0
 11
747.45543782997254
 21
389.98149416617957
 31
0.0
  0
LINE
  5
28CDF
  8
2
 10
552.03039429930197
 20
389.98149416617969
 30
0.0
 11
552.03039429930197
 21
406.6814917223893
 31
0.0
  0
LINE
  5
28CE0
  8
2
 10
532.03039429930197
 20
406.6814917223893
 30
0.0
 11
532.03039429930197
 21
389.98149416617969
 31
0.0
  0
LINE
  5
28CE1
  8
2
 10
497.73039257076601
 20
389.98149416617969
 30
0.0
 11
586.33039257076598
 21
389.98149416617957
 31
0.0
  0
LINE
  5
28E27
  8
2
 10
586.33039257076598
 20
389.98149416617957
 30
0.0
 11
586.33039257076598
 21
381.60181903316408
 31
0.0
  0
LINE
  5
28E28
  8
2
 10
497.73039257076601
 20
389.98149416617969
 30
0.0
 11
497.73039257076601
 21
384.8814916508631
 31
0.0
  0
TEXT
  5
28E84
  8
0
 62
     3
 10
0.0
 20
0.0
 30
0.0
 40
10.0
  1
CAE2-180FBF
  7
STANDARD1
  0
ENDSEC
  0
EOF
