  0
SECTION
  2
HEADER
  9
$ACADVER
  1
AC1009
  9
$INSBASE
 10
0.0
 20
0.0
 30
0.0
  9
$EXTMIN
 10
0.0
 20
-2.960436562073669
 30
0.0
  9
$EXTMAX
 10
846.24800916804008
 20
688.75962516842378
 30
0.0
  9
$LIMMIN
 10
0.0
 20
0.0
  9
$LIMMAX
 10
375.0
 20
270.0
  9
$ORTHOMODE
 70
     1
  9
$REGENMODE
 70
     1
  9
$FILLMODE
 70
     1
  9
$QTEXTMODE
 70
     0
  9
$MIRRTEXT
 70
     1
  9
$DRAGMODE
 70
     2
  9
$LTSCALE
 40
10.0
  9
$OSMODE
 70
  3071
  9
$ATTMODE
 70
     1
  9
$TEXTSIZE
 40
5.0
  9
$TRACEWID
 40
0.05
  9
$TEXTSTYLE
  7
STANDARD
  9
$CLAYER
  8
0
  9
$CELTYPE
  6
BYLAYER
  9
$CECOLOR
 62
   256
  9
$DIMSCALE
 40
2.0
  9
$DIMASZ
 40
3.0
  9
$DIMEXO
 40
2.0
  9
$DIMDLI
 40
0.38
  9
$DIMRND
 40
0.0
  9
$DIMDLE
 40
0.0
  9
$DIMEXE
 40
2.0
  9
$DIMTP
 40
0.0
  9
$DIMTM
 40
0.0
  9
$DIMTXT
 40
3.2000000000000002
  9
$DIMCEN
 40
0.0
  9
$DIMTSZ
 40
0.0
  9
$DIMTOL
 70
     0
  9
$DIMLIM
 70
     0
  9
$DIMTIH
 70
     0
  9
$DIMTOH
 70
     0
  9
$DIMSE1
 70
     0
  9
$DIMSE2
 70
     0
  9
$DIMTAD
 70
     1
  9
$DIMZIN
 70
     8
  9
$DIMBLK
  1

  9
$DIMASO
 70
     0
  9
$DIMSHO
 70
     0
  9
$DIMPOST
  1

  9
$DIMAPOST
  1

  9
$DIMALT
 70
     0
  9
$DIMALTD
 70
     2
  9
$DIMALTF
 40
25.399999999999999
  9
$DIMLFAC
 40
1.0
  9
$DIMTOFL
 70
     0
  9
$DIMTVP
 40
1.6000000000000001
  9
$DIMTIX
 70
     1
  9
$DIMSOXD
 70
     0
  9
$DIMSAH
 70
     0
  9
$DIMBLK1
  1

  9
$DIMBLK2
  1

  9
$DIMSTYLE
  2
STANDARD
  9
$DIMCLRD
 70
     0
  9
$DIMCLRE
 70
     0
  9
$DIMCLRT
 70
     0
  9
$DIMTFAC
 40
1.0
  9
$DIMGAP
 40
1.1999999999999991
  9
$LUNITS
 70
     2
  9
$LUPREC
 70
     4
  9
$SKETCHINC
 40
0.1
  9
$FILLETRAD
 40
0.0
  9
$AUNITS
 70
     0
  9
$AUPREC
 70
     4
  9
$MENU
  1
ACAD
  9
$ELEVATION
 40
0.0
  9
$PELEVATION
 40
0.0
  9
$THICKNESS
 40
0.0
  9
$LIMCHECK
 70
     0
  9
$BLIPMODE
 70
     0
  9
$CHAMFERA
 40
0.0
  9
$CHAMFERB
 40
0.0
  9
$SKPOLY
 70
     0
  9
$TDCREATE
 40
2448055.7149187499
  9
$TDUPDATE
 40
2456598.5587127442
  9
$TDINDWG
 40
2.8533881366
  9
$TDUSRTIMER
 40
2.8533881366
  9
$USRTIMER
 70
     1
  9
$ANGBASE
 50
0.0
  9
$ANGDIR
 70
     0
  9
$PDMODE
 70
     0
  9
$PDSIZE
 40
0.0
  9
$PLINEWID
 40
0.0
  9
$COORDS
 70
     1
  9
$SPLFRAME
 70
     0
  9
$SPLINETYPE
 70
     6
  9
$SPLINESEGS
 70
     8
  9
$ATTDIA
 70
     0
  9
$ATTREQ
 70
     1
  9
$HANDLING
 70
     1
  9
$HANDSEED
  5
2906B
  9
$SURFTAB1
 70
     6
  9
$SURFTAB2
 70
     6
  9
$SURFTYPE
 70
     6
  9
$SURFU
 70
     6
  9
$SURFV
 70
     6
  9
$UCSNAME
  2

  9
$UCSORG
 10
0.0
 20
0.0
 30
0.0
  9
$UCSXDIR
 10
1.0
 20
0.0
 30
0.0
  9
$UCSYDIR
 10
0.0
 20
1.0
 30
0.0
  9
$PUCSNAME
  2

  9
$PUCSORG
 10
0.0
 20
0.0
 30
0.0
  9
$PUCSXDIR
 10
1.0
 20
0.0
 30
0.0
  9
$PUCSYDIR
 10
0.0
 20
1.0
 30
0.0
  9
$USERI1
 70
     0
  9
$USERI2
 70
     0
  9
$USERI3
 70
     0
  9
$USERI4
 70
     0
  9
$USERI5
 70
     0
  9
$USERR1
 40
0.0
  9
$USERR2
 40
0.0
  9
$USERR3
 40
0.0
  9
$USERR4
 40
0.0
  9
$USERR5
 40
0.0
  9
$WORLDVIEW
 70
     1
  9
$SHADEDGE
 70
     3
  9
$SHADEDIF
 70
    70
  9
$TILEMODE
 70
     1
  9
$MAXACTVP
 70
    16
  9
$PLIMCHECK
 70
     0
  9
$PEXTMIN
 10
1.0000000000000000E+020
 20
1.0000000000000000E+020
 30
1.0000000000000000E+020
  9
$PEXTMAX
 10
-1.0000000000000000E+020
 20
-1.0000000000000000E+020
 30
-1.0000000000000000E+020
  9
$PLIMMIN
 10
0.0
 20
0.0
  9
$PLIMMAX
 10
12.0
 20
9.0
  9
$UNITMODE
 70
     0
  9
$VISRETAIN
 70
     0
  9
$PLINEGEN
 70
     1
  9
$PSLTSCALE
 70
     0
  0
ENDSEC
  0
SECTION
  2
TABLES
  0
TABLE
  2
VPORT
 70
     1
  0
VPORT
  2
*ACTIVE
 70
     0
 10
0.0
 20
0.0
 11
1.0
 21
1.0
 12
442.2914958434269
 22
342.90846488921261
 13
0.0
 23
0.0
 14
5.0
 24
5.0
 15
10.0
 25
10.0
 16
0.0
 26
0.0
 36
1.0
 17
0.0
 27
0.0
 37
0.0
 40
697.94834762935943
 41
1.831871345029239
 42
50.0
 43
0.0
 44
0.0
 50
0.0
 51
0.0
 71
     0
 72
   500
 73
     1
 74
     1
 75
     0
 76
     0
 77
     0
 78
     2
  0
ENDTAB
  0
TABLE
  2
LTYPE
 70
     4
  0
LTYPE
  2
CONTINUOUS
 70
     0
  3
実線
 72
    65
 73
     0
 40
0.0
  0
LTYPE
  2
CENTER
 70
     0
  3
____ _ ____ _ ____ _ ____ _ ____ _ ____ _ ____
 72
    65
 73
     4
 40
2.0
 49
1.25
 49
-0.25
 49
0.25
 49
-0.25
  0
LTYPE
  2
HIDDEN
 70
     0
  3
_ _ _ _ _ _ _ _ _ _ _ _ _ _ _ _ _ _ _ _ _ _ _
 72
    65
 73
     2
 40
0.375
 49
0.25
 49
-0.125
  0
LTYPE
  2
PHANTOM2
 70
     0
  3
___ _ _ ___ _ _ ___ _ _ ___ _ _
 72
    65
 73
     6
 40
1.25
 49
0.625
 49
-0.125
 49
0.125
 49
-0.125
 49
0.125
 49
-0.125
  0
ENDTAB
  0
TABLE
  2
LAYER
 70
     5
  0
LAYER
  2
0
 70
     0
 62
     7
  6
CONTINUOUS
  0
LAYER
  2
1
 70
     0
 62
     1
  6
CENTER
  0
LAYER
  2
2
 70
     0
 62
     2
  6
HIDDEN
  0
LAYER
  2
DEFPOINTS
 70
     0
 62
     7
  6
CONTINUOUS
  0
LAYER
  2
3
 70
     0
 62
     3
  6
CONTINUOUS
  0
ENDTAB
  0
TABLE
  2
STYLE
 70
     3
  0
STYLE
  2
STANDARD
 70
     0
 40
0.0
 41
1.0
 50
0.0
 71
     0
 42
5.0
  3
simplex.shx
  4
bigfont.shx
  0
STYLE
  2
07500
 70
     0
 40
0.0
 41
0.75
 50
0.0
 71
     0
 42
0.2
  3
simplex.shx
  4
bigfont.shx
  0
STYLE
  2
STANDARD1
 70
     0
 40
0.0
 41
1.0
 50
0.0
 71
     0
 42
3.0
  3
txt
  4

  0
ENDTAB
  0
TABLE
  2
VIEW
 70
     2
  0
VIEW
  2
ALL
 70
     0
 40
270.0
 10
220.99159663865549
 20
135.0
 41
0.0
 11
0.0
 21
0.0
 31
1.0
 12
0.0
 22
0.0
 32
0.0
 42
0.0
 43
0.0
 44
0.0
 50
0.0
 71
     0
  0
VIEW
  2
OLE1
 70
     0
 40
168.2487151179721
 10
2892.3009567448912
 20
702.51600084347126
 41
162.5749581879237
 11
0.0
 21
0.0
 31
1.0
 12
0.0
 22
0.0
 32
0.0
 42
50.0
 43
0.0
 44
0.0
 50
0.0
 71
     0
  0
ENDTAB
  0
TABLE
  2
UCS
 70
     0
  0
ENDTAB
  0
TABLE
  2
APPID
 70
    48
  0
APPID
  2
ACAD
 70
     0
  0
APPID
  2
DCO15
 70
     0
  0
APPID
  2
GENIUS_GENOREF_13
 70
     0
  0
APPID
  2
GENIUS_GENOENT_13
 70
     0
  0
APPID
  2
GENIUS_GENBH_13
 70
     0
  0
APPID
  2
GENIUS_GENOBJ_13
 70
     0
  0
APPID
  2
GENIUS_GENODEF_13
 70
     0
  0
APPID
  2
GENIUS_GENOLIS_13
 70
     0
  0
APPID
  2
GENIUS_GENOBJ-NBEHI-BHF_13
 70
     0
  0
APPID
  2
GENIUS_GENOBJ-NBEHI-BHB_13
 70
     0
  0
APPID
  2
GENIUS_GENOBJ-F-PART_13
 70
     0
  0
APPID
  2
GENIUS_GEFSTDP_13
 70
     0
  0
APPID
  2
GENIUS_GENOBJ-N-RSSYM_13
 70
     0
  0
APPID
  2
GENIUS_GENSYMENT_13
 70
     0
  0
APPID
  2
GENIUS_GENOBJ-N-TIT_13
 70
     0
  0
APPID
  2
GENIUS_GENTITLE_13
 70
     0
  0
APPID
  2
GENIUS_GENZVEED_13
 70
     0
  0
APPID
  2
GENIUS_GENOBJ-N-LEADER_13
 70
     0
  0
APPID
  2
GENIUS_GENOBJ-N-FIL_13
 70
     0
  0
APPID
  2
GENIUS_GENOBJ-N-SEC_13
 70
     0
  0
APPID
  2
GENIUS_GENOBJ-N-CRS_13
 70
     0
  0
APPID
  2
GENIUS_GENOBJ-N-ZOO_13
 70
     0
  0
APPID
  2
GENIUS_GENZOO_13
 70
     0
  0
APPID
  2
GENIUS_GENOBJ-F-TOL_13
 70
     0
  0
APPID
  2
GENIUS_GENFIL_13
 70
     0
  0
APPID
  2
GENIUS_GENOBJ-N-CHA_13
 70
     0
  0
APPID
  2
_CALL_MAC$
 70
     0
  0
APPID
  2
ASM_BASE
 70
     0
  0
APPID
  2
ASM_EXPLO_VER_2_00
 70
     0
  0
APPID
  2
ASM_CADM_VER_12_00
 70
     0
  0
APPID
  2
ASM_BASEFORO
 70
     0
  0
APPID
  2
ASM_BASETRAVI
 70
     0
  0
APPID
  2
ASM_BASETRAVI1
 70
     0
  0
APPID
  2
ASM_GRUPPI
 70
     0
  0
APPID
  2
ASM_CADM_ALBERO
 70
     0
  0
APPID
  2
ASM_GOLE
 70
     0
  0
APPID
  2
ACAD_MLEADERVER
 70
     0
  0
APPID
  2
ACAD_DSTYLE_DIMJAG
 70
     0
  0
APPID
  2
ACAD_DSTYLE_DIMTALN
 70
     0
  0
APPID
  2
ACAD_EXEMPT_FROM_CAD_STANDARDS
 70
     0
  0
APPID
  2
ACAD_DSTYLE_DIMRADIAL_EXTENSION
 70
     0
  0
APPID
  2
ACAD_PSEXT
 70
     0
  0
APPID
  2
ACAD_DSTYLE_DIMBREAK
 70
     0
  0
APPID
  2
ACAECLAYERSTANDARD
 70
     0
  0
APPID
  2
ACCMTRANSPARENCY
 70
     0
  0
APPID
  2
GRADIENTCOLOR1ACI
 70
     0
  0
APPID
  2
GRADIENTCOLOR2ACI
 70
     0
  0
APPID
  2
ACAD_NAV_VCDISPLAY
 70
     0
  0
ENDTAB
  0
TABLE
  2
DIMSTYLE
 70
     1
  0
DIMSTYLE
  2
STANDARD
 70
     0
  3

  4

  5

  6

  7

 40
1.0
 41
0.18
 42
0.0625
 43
0.38
 44
0.18
 45
0.0
 46
0.0
 47
0.0
 48
0.0
140
0.18
141
0.09
142
0.0
143
25.399999999999999
144
1.0
145
0.0
146
1.0
147
0.09
 71
     0
 72
     0
 73
     1
 74
     1
 75
     0
 76
     0
 77
     0
 78
     0
170
     0
171
     2
172
     0
173
     0
174
     0
175
     0
176
     0
177
     0
178
     0
  0
ENDTAB
  0
ENDSEC
  0
SECTION
  2
BLOCKS
  0
BLOCK
  8
0
  2
$MODEL_SPACE
 70
     0
 10
0.0
 20
0.0
 30
0.0
  3
$MODEL_SPACE
  1

  0
ENDBLK
  5
36
  8
0
  0
BLOCK
 67
     1
  8
0
  2
$PAPER_SPACE
 70
     0
 10
0.0
 20
0.0
 30
0.0
  3
$PAPER_SPACE
  1

  0
ENDBLK
  5
34
 67
     1
  8
0
  0
ENDSEC
  0
SECTION
  2
ENTITIES
  0
ARC
  5
2850B
  8
0
 10
495.03039257075511
 20
398.68149017268058
 30
0.0
 40
3.999999999986982
 50
90.0
 51
180.0
  0
ARC
  5
2850C
  8
0
 10
589.03039257078137
 20
398.68149017268058
 30
0.0
 40
3.999999999986982
 50
0.0
 51
90.0
  0
LINE
  5
2850D
  8
0
 10
491.03039245900908
 20
398.6814868348078
 30
0.0
 11
491.03039245900908
 21
393.18149058990042
 31
0.0
  0
LINE
  5
2850E
  8
0
 10
593.03039334562823
 20
393.18149058990042
 30
0.0
 11
593.03039334562823
 21
398.6814868348078
 31
0.0
  0
LINE
  5
2850F
  8
0
 10
494.53039303270378
 20
393.18149058990042
 30
0.0
 11
494.53039303270378
 21
384.8814916508631
 31
0.0
  0
LINE
  5
28510
  8
0
 10
589.5303937032561
 20
385.6814902918772
 30
0.0
 11
589.5303937032561
 21
393.18149058990042
 31
0.0
  0
ARC
  5
28511
  8
0
 10
508.03039257076881
 20
398.55649017266791
 30
0.0
 40
8.1250000000001421
 50
90.0
 51
149.48976259388269
  0
ARC
  5
28512
  8
0
 10
576.03039257076784
 20
398.55649017266791
 30
0.0
 40
8.1250000000001421
 50
30.510237406117248
 51
90.0
  0
LINE
  5
28513
  8
0
 10
576.03039614704653
 20
406.68148814610993
 30
0.0
 11
508.0303924515585
 21
406.68148814610993
 31
0.0
  0
CIRCLE
  5
28514
  8
0
 10
486.03039257076779
 20
282.68149017266802
 30
0.0
 40
9.0000000000000568
  0
LINE
  5
28515
  8
0
 10
495.02576032906472
 20
402.68148749045878
 30
0.0
 11
589.03039268997713
 21
402.68148749045878
 31
0.0
  0
LINE
  5
28516
  8
0
 10
491.03039245900908
 20
393.18149058990048
 30
0.0
 11
593.03039334562823
 21
393.18149058990042
 31
0.0
  0
LINE
  5
28517
  8
0
 10
508.05966950801411
 20
384.8814916508631
 30
0.0
 11
508.05966950801411
 21
281.81461465455459
 31
0.0
  0
POLYLINE
  5
28518
  8
0
 66
     1
 10
0.0
 20
0.0
 30
0.0
 70
   128
  0
VERTEX
  5
28E2C
  8
0
 10
589.5303937032561
 20
385.6814902918772
 30
0.0
  0
VERTEX
  5
28E2D
  8
0
 10
589.46465723064944
 20
385.597686161323
 30
0.0
  0
VERTEX
  5
28E2E
  8
0
 10
589.26764152792487
 20
385.3465121882395
 30
0.0
  0
VERTEX
  5
28E2F
  8
0
 10
588.9398904874663
 20
384.92866127662222
 30
0.0
  0
VERTEX
  5
28E30
  8
0
 10
588.48230562952563
 20
384.34528826646368
 30
0.0
  0
VERTEX
  5
28E31
  8
0
 10
587.89616100338503
 20
383.59800993375342
 30
0.0
  0
VERTEX
  5
28E32
  8
0
 10
587.18306593445345
 20
382.68889008931683
 30
0.0
  0
VERTEX
  5
28E33
  8
0
 10
586.34500972775015
 20
381.6204544799761
 30
0.0
  0
VERTEX
  5
28E34
  8
0
 10
585.38430206326052
 20
380.3956460850672
 30
0.0
  0
VERTEX
  5
28E35
  8
0
 10
584.30361024883791
 20
379.01786981992291
 30
0.0
  0
VERTEX
  5
28E36
  8
0
 10
583.10590706614062
 20
377.49093293122809
 30
0.0
  0
VERTEX
  5
28E37
  8
0
 10
581.79453037527605
 20
375.81905244760082
 30
0.0
  0
VERTEX
  5
28E38
  8
0
 10
580.37309370783373
 20
374.00687008075278
 30
0.0
  0
VERTEX
  5
28E39
  8
0
 10
578.84553842094942
 20
372.0593926208453
 30
0.0
  0
VERTEX
  5
28E3A
  8
0
 10
577.21609644440207
 20
369.9820142882304
 30
0.0
  0
VERTEX
  5
28E3B
  8
0
 10
575.48926047829195
 20
367.78047948054831
 30
0.0
  0
VERTEX
  5
28E3C
  8
0
 10
573.66982869652315
 20
365.46088277272742
 30
0.0
  0
VERTEX
  5
28E3D
  8
0
 10
571.76283024099871
 20
363.02965401582281
 30
0.0
  0
VERTEX
  5
28E3E
  8
0
 10
569.77353267220064
 20
360.49350618295227
 30
0.0
  0
VERTEX
  5
28E3F
  8
0
 10
567.70745687035117
 20
357.85947262219952
 30
0.0
  0
VERTEX
  5
28E40
  8
0
 10
565.57031743076845
 20
355.1348325508074
 30
0.0
  0
VERTEX
  5
28E41
  8
0
 10
563.36802266386553
 20
352.32713340692089
 30
0.0
  0
VERTEX
  5
28E42
  8
0
 10
561.10667459515139
 20
349.44414614610241
 30
0.0
  0
VERTEX
  5
28E43
  8
0
 10
558.79252426174685
 20
346.49384288959072
 30
0.0
  0
VERTEX
  5
28E44
  8
0
 10
556.43198661354575
 20
343.48439692430071
 30
0.0
  0
VERTEX
  5
28E45
  8
0
 10
554.03158835915133
 20
340.42413427404932
 30
0.0
  0
VERTEX
  5
28E46
  8
0
 10
551.59797541645571
 20
337.32152252368502
 30
0.0
  0
VERTEX
  5
28E47
  8
0
 10
549.13788311031863
 20
334.18515591792629
 30
0.0
  0
VERTEX
  5
28E48
  8
0
 10
546.65812127140555
 20
331.02370693258808
 30
0.0
  0
VERTEX
  5
28E49
  8
0
 10
544.16554815915617
 20
327.84593372516201
 30
0.0
  0
VERTEX
  5
28E4A
  8
0
 10
541.66706673649355
 20
324.66062425546221
 30
0.0
  0
VERTEX
  5
28E4B
  8
0
 10
539.1695911422114
 20
321.47659628562502
 30
0.0
  0
VERTEX
  5
28E4C
  8
0
 10
536.68003178981337
 20
318.30266012720631
 30
0.0
  0
VERTEX
  5
28E4D
  8
0
 10
534.20528046635195
 20
315.14760746531061
 30
0.0
  0
VERTEX
  5
28E4E
  8
0
 10
531.75218798068556
 20
312.02016292981671
 30
0.0
  0
VERTEX
  5
28E4F
  8
0
 10
529.32754181173846
 20
308.92898409537838
 30
0.0
  0
VERTEX
  5
28E50
  8
0
 10
526.93805120733782
 20
305.8826298164563
 30
0.0
  0
VERTEX
  5
28E51
  8
0
 10
524.59033600834414
 20
302.88952856235068
 30
0.0
  0
VERTEX
  5
28E52
  8
0
 10
522.29088567045733
 20
299.95796537868551
 30
0.0
  0
VERTEX
  5
28E53
  8
0
 10
520.04606671479735
 20
297.09605208508538
 30
0.0
  0
VERTEX
  5
28E54
  8
0
 10
517.86209665087256
 20
294.31171144269268
 30
0.0
  0
VERTEX
  5
28E55
  8
0
 10
515.74501603690192
 20
291.61264921448992
 30
0.0
  0
VERTEX
  5
28E56
  8
0
 10
513.70068475452456
 20
289.00633507318662
 30
0.0
  0
VERTEX
  5
28E57
  8
0
 10
511.73476151970431
 20
286.49998281061522
 30
0.0
  0
VERTEX
  5
28E58
  8
0
 10
509.85268711892172
 20
284.10052891731129
 30
0.0
  0
VERTEX
  5
28E59
  8
0
 10
508.05966950801411
 20
281.81461465455459
 30
0.0
  0
SEQEND
  5
28E5A
  8
0
  0
ARC
  5
2851C
  8
0
 10
496.03039257076779
 20
282.68149017266342
 30
0.0
 40
9.9999999999978684
 50
269.99999999998698
 51
321.89020097522308
  0
LINE
  5
2851D
  8
0
 10
478.53039273840591
 20
272.68149039618538
 30
0.0
 11
484.35090062056878
 21
272.68149039618538
 31
0.0
  0
LINE
  5
2851E
  8
0
 10
487.7098845209668
 20
272.68149039618538
 30
0.0
 11
496.03039234725043
 21
272.68149039618538
 31
0.0
  0
ARC
  5
28520
  8
0
 10
478.53039257076779
 20
282.68149017267069
 30
0.0
 40
10.000000000000369
 50
170.34424714125689
 51
269.99999999998698
  0
LINE
  5
28521
  8
0
 10
485.23039257088362
 20
381.68149294919118
 30
0.0
 11
468.6720596983771
 21
284.3587712794901
 31
0.0
  0
LINE
  5
28522
  8
0
 10
503.89868788269558
 20
276.50978543706111
 30
0.0
 11
508.05966950801411
 21
281.81461465455459
 31
0.0
  0
ARC
  5
28526
  8
0
 10
486.03039257076779
 20
282.68149017266802
 30
0.0
 40
13.294071859022431
 50
296.25587938207229
 51
311.21738768739499
  0
ARC
  5
28527
  8
0
 10
486.03039257076779
 20
282.68149017266802
 30
0.0
 40
13.825133763929781
 50
279.36638205884128
 51
296.63361794115679
  0
ARC
  5
28528
  8
0
 10
486.03039257076779
 20
282.68149017266802
 30
0.0
 40
13.29407185902242
 50
260.2558793820495
 51
279.7441206179505
  0
ARC
  5
28529
  8
0
 10
486.03039257076779
 20
282.68149017266802
 30
0.0
 40
13.825133763929831
 50
243.36638205884319
 51
260.63361794115872
  0
ARC
  5
2852A
  8
0
 10
486.03039257076779
 20
282.68149017266802
 30
0.0
 40
13.294071859022431
 50
228.1736360446134
 51
243.74412061792771
  0
ARC
  5
2852B
  8
0
 10
486.03039257076779
 20
282.68149017266802
 30
0.0
 40
45.000000000000007
 50
103.0828660914751
 51
123.1340160174054
  0
LINE
  5
2852C
  8
0
 10
472.26215176132717
 20
305.45977770261328
 30
0.0
 11
461.43342763033911
 21
320.36423577837508
 31
0.0
  0
LINE
  5
2852D
  8
0
 10
457.79285229590931
 20
317.71920143537091
 30
0.0
 11
471.20674628612801
 21
299.25656027071039
 31
0.0
  0
ARC
  5
2852E
  8
0
 10
486.03039257076779
 20
282.68149017266802
 30
0.0
 40
44.999999999999957
 50
128.8659839825963
 51
159.1340160174031
  0
LINE
  5
2852F
  8
0
 10
469.69238877144852
 20
290.3558196211593
 30
0.0
 11
443.98166633990797
 21
298.70973980896042
 31
0.0
  0
LINE
  5
28530
  8
0
 10
442.59108997729822
 20
294.42998475305598
 30
0.0
 11
468.92953500000039
 21
285.87210538707541
 31
0.0
  0
ARC
  5
28531
  8
0
 10
486.03039257076779
 20
282.68149017266802
 30
0.0
 40
44.999999999999943
 50
164.8659839826027
 51
195.13401601740279
  0
LINE
  5
28532
  8
0
 10
469.04094353166619
 20
279.52707337125997
 30
0.0
 11
442.59108997729822
 21
270.93299559227989
 31
0.0
  0
LINE
  5
28533
  8
0
 10
443.98166633990797
 20
266.65324053637551
 30
0.0
 11
471.48137748089829
 21
275.58843872420363
 31
0.0
  0
ARC
  5
28534
  8
0
 10
486.03039257076779
 20
282.68149017266802
 30
0.0
 40
45.000000000000007
 50
200.86598398260449
 51
231.1340160174037
  0
LINE
  5
28535
  8
0
 10
476.18625242111477
 20
272.96012162141369
 30
0.0
 11
457.79285229590931
 21
247.64377890996499
 31
0.0
  0
LINE
  5
28536
  8
0
 10
461.43342763033911
 20
244.9987445669608
 30
0.0
 11
480.14935128239199
 21
270.75900311492251
 31
0.0
  0
ARC
  5
28537
  8
0
 10
486.03039257076779
 20
282.68149017266802
 30
0.0
 40
45.000000000000043
 50
236.86598398259451
 51
267.13401601739071
  0
LINE
  5
28538
  8
0
 10
483.78039266762539
 20
269.57920647136729
 30
0.0
 11
483.78039266762539
 21
237.73777379564811
 31
0.0
  0
LINE
  5
28539
  8
0
 10
488.2803924739103
 20
237.73777379564811
 30
0.0
 11
488.2803924739103
 21
269.57920647136729
 31
0.0
  0
ARC
  5
2853A
  8
0
 10
486.03039257076779
 20
282.68149017266802
 30
0.0
 40
45.000000000000099
 50
272.86598398260929
 51
303.13401601740537
  0
LINE
  5
2853B
  8
0
 10
491.9114338591437
 20
270.75900311492251
 30
0.0
 11
510.62735751119652
 21
244.9987445669608
 31
0.0
  0
LINE
  5
2853C
  8
0
 10
514.26793284562632
 20
247.64377890996499
 30
0.0
 11
496.0768923520784
 21
272.68159842960398
 31
0.0
  0
ARC
  5
2853D
  8
0
 10
486.03039257076779
 20
282.68149017266802
 30
0.0
 40
45.000000000000071
 50
308.86598398259628
 51
339.1340160174031
  0
LINE
  5
2853E
  8
0
 10
502.42112226632639
 20
274.99002904541658
 30
0.0
 11
528.0791188016276
 21
266.65324053637551
 31
0.0
  0
LINE
  5
2853F
  8
0
 10
529.46969516423735
 20
270.93299559227989
 30
0.0
 11
505.60621566918888
 21
278.68671004570888
 31
0.0
  0
ARC
  5
28540
  8
0
 10
486.03039257076779
 20
282.68149017266802
 30
0.0
 40
44.999999999999943
 50
344.8659839826027
 51
15.1340160173973
  0
LINE
  5
28541
  8
0
 10
514.01647016254469
 20
289.40892766140269
 30
0.0
 11
529.46969516423735
 21
294.42998475305598
 31
0.0
  0
LINE
  5
28542
  8
0
 10
528.0791188016276
 20
298.70973980896042
 30
0.0
 11
518.99719260481402
 21
295.7588432999687
 31
0.0
  0
ARC
  5
28543
  8
0
 10
486.03039257076779
 20
282.68149017266802
 30
0.0
 40
45.000000000000071
 50
20.86598398259687
 51
28.494862724614318
  0
ARC
  5
28544
  8
0
 10
486.03039257076779
 20
282.68149017266802
 30
0.0
 40
38.071796769723917
 50
345.38808977737523
 51
14.611910222624831
  0
ARC
  5
28545
  8
0
 10
486.03039257076779
 20
282.68149017266802
 30
0.0
 40
38.071796769723981
 50
309.3880897773858
 51
338.61191022261931
  0
ARC
  5
28546
  8
0
 10
486.03039257076779
 20
282.68149017266802
 30
0.0
 40
38.071796769724081
 50
273.38808977738267
 51
302.61191022261318
  0
ARC
  5
28547
  8
0
 10
486.03039257076779
 20
282.68149017266802
 30
0.0
 40
38.071796769724081
 50
237.38808977738671
 51
266.61191022261721
  0
ARC
  5
28548
  8
0
 10
486.03039257076779
 20
282.68149017266802
 30
0.0
 40
38.071796769724081
 50
201.3880897773777
 51
230.6119102226142
  0
ARC
  5
28549
  8
0
 10
486.03039257076779
 20
282.68149017266802
 30
0.0
 40
38.071796769724052
 50
129.3880897773858
 51
158.6119102226223
  0
ARC
  5
2854A
  8
0
 10
486.03039257076779
 20
282.68149017266802
 30
0.0
 40
38.07179676972406
 50
165.3880897773752
 51
194.6119102226248
  0
ARC
  5
2854B
  8
0
 10
486.03039257076779
 20
282.68149017266802
 30
0.0
 40
35.473720558371021
 50
165.6365539583046
 51
194.36344604169531
  0
ARC
  5
2854C
  8
0
 10
486.03039257076779
 20
282.68149017266802
 30
0.0
 40
35.473720558371028
 50
309.63655395830921
 51
338.3634460416942
  0
ARC
  5
2854D
  8
0
 10
486.03039257076779
 20
282.68149017266802
 30
0.0
 40
35.473720558371021
 50
273.63655395831267
 51
302.36344604169602
  0
ARC
  5
2854E
  8
0
 10
486.03039257076779
 20
282.68149017266802
 30
0.0
 40
35.473720558370893
 50
345.63655395829898
 51
14.36344604169536
  0
ARC
  5
2854F
  8
0
 10
486.03039257076779
 20
282.68149017266802
 30
0.0
 40
35.47372055837107
 50
237.63655395830401
 51
266.36344604168733
  0
ARC
  5
28550
  8
0
 10
486.03039257076779
 20
282.68149017266802
 30
0.0
 40
35.473720558371006
 50
129.63655395830909
 51
158.36344604169409
  0
ARC
  5
28551
  8
0
 10
486.03039257076779
 20
282.68149017266802
 30
0.0
 40
35.473720558371042
 50
201.63655395830591
 51
230.36344604169079
  0
ARC
  5
28553
  8
0
 10
486.03039257076779
 20
282.68149017266802
 30
0.0
 40
13.075393891298519
 50
229.56178953071739
 51
310.11121416251279
  0
ARC
  5
28554
  8
0
 10
486.03039257076779
 20
282.68149017266802
 30
0.0
 40
11.57655314992606
 50
239.74766541441639
 51
300.2523345855538
  0
ARC
  5
28555
  8
0
 10
486.03039257076779
 20
282.68149017266802
 30
0.0
 40
54.474676636127001
 50
98.96482812741904
 51
32.74210366631376
  0
LINE
  5
28556
  8
0
 10
521.48024760035082
 20
296.56563593916462
 30
0.0
 11
520.83787344244524
 21
298.10552566222708
 31
0.0
  0
ARC
  5
28557
  8
0
 10
486.03039257076779
 20
282.68149017266802
 30
0.0
 40
38.071796769723967
 50
107.5293755067558
 51
122.6119102226132
  0
ARC
  5
28558
  8
0
 10
486.03039257076779
 20
282.68149017266802
 30
0.0
 40
35.47372055837107
 50
109.70637324779641
 51
122.36344604169599
  0
LINE
  5
28559
  8
0
 10
150.30534798211761
 20
292.6814935254298
 30
0.0
 11
150.80534713275139
 21
292.6814935254298
 31
0.0
  0
LINE
  5
2855A
  8
0
 10
209.80534749037929
 20
292.6814935254298
 30
0.0
 11
210.3053466410131
 21
292.6814935254298
 31
0.0
  0
LINE
  5
2855B
  8
0
 10
220.4775814891548
 20
293.65114840589388
 30
0.0
 11
221.0053470910282
 21
291.68149336151708
 31
0.0
  0
LINE
  5
2855C
  8
0
 10
221.0053470910282
 20
273.68149413637741
 30
0.0
 11
220.4775814891548
 21
271.71183909200062
 31
0.0
  0
LINE
  5
2855D
  8
0
 10
146.57757850296201
 20
293.65114840589388
 30
0.0
 11
147.10534783012571
 21
291.68149336151708
 31
0.0
  0
LINE
  5
2855E
  8
0
 10
147.10534783012571
 20
273.68149413637741
 30
0.0
 11
146.57757850296201
 21
271.71183909200062
 31
0.0
  0
LINE
  5
2855F
  8
0
 10
137.6331155181617
 20
271.71183909200062
 30
0.0
 11
137.10534619099801
 21
273.68149413637741
 31
0.0
  0
LINE
  5
28560
  8
0
 10
137.10534619099801
 20
291.68149336151708
 30
0.0
 11
137.6331155181617
 21
293.65114840589388
 31
0.0
  0
LINE
  5
28561
  8
0
 10
231.30534635789101
 20
398.681490411087
 30
0.0
 11
231.30534635789101
 21
393.18149416617968
 31
0.0
  0
LINE
  5
28562
  8
0
 10
129.30534826523959
 20
393.18149416617968
 30
0.0
 11
129.30534826523959
 21
398.681490411087
 31
0.0
  0
ARC
  5
28563
  8
0
 10
227.30534731157809
 20
398.6814937489608
 30
0.0
 40
3.9999999999871241
 50
0.0
 51
90.0
  0
ARC
  5
28564
  8
0
 10
133.30534731155259
 20
398.6814937489608
 30
0.0
 40
3.999999999986982
 50
90.0
 51
180.0
  0
LINE
  5
28565
  8
0
 10
227.80534671551891
 20
393.18149416617968
 30
0.0
 11
227.80534671551891
 21
325.12383042745222
 31
0.0
  0
LINE
  5
28566
  8
0
 10
132.8053479076118
 20
325.12383042745222
 30
0.0
 11
132.8053479076118
 21
393.18149416617968
 31
0.0
  0
ARC
  5
28567
  8
0
 10
214.30534731156629
 20
398.5564937489471
 30
0.0
 40
8.1250000000000675
 50
30.510237406109741
 51
90.0
  0
ARC
  5
28568
  8
0
 10
146.3053473115653
 20
398.5564937489471
 30
0.0
 40
8.125
 50
90.0
 51
149.48976259389019
  0
LINE
  5
28569
  8
0
 10
146.30534546382131
 20
406.68149172238918
 30
0.0
 11
214.30534915930929
 21
406.68149172238918
 31
0.0
  0
ARC
  5
2856A
  8
0
 10
189.69626016523961
 20
193.6814937489477
 30
0.0
 40
1.000000000000085
 50
270.00000000005213
 51
341.00000000000477
  0
ARC
  5
2856B
  8
0
 10
186.3053473115653
 20
192.9814937489474
 30
0.0
 40
0.3000000000000114
 50
179.99999999998701
 51
270.0
  0
LINE
  5
2856C
  8
0
 10
189.69626026160421
 20
192.6814901726685
 30
0.0
 11
186.30534736371939
 21
192.6814901726685
 31
0.0
  0
ARC
  5
2856D
  8
0
 10
183.30534731156621
 20
192.9814937489474
 30
0.0
 40
0.2999999999999403
 50
270.0
 51
0.0000000000195413
  0
LINE
  5
2856E
  8
0
 10
183.30534733764239
 20
192.6814901726685
 30
0.0
 11
177.3053472854883
 21
192.6814901726685
 31
0.0
  0
ARC
  5
2856F
  8
0
 10
174.30534731156621
 20
192.9814937489474
 30
0.0
 40
0.2999999999999403
 50
270.0
 51
0.0000000000195413
  0
ARC
  5
28570
  8
0
 10
177.3053473115653
 20
192.9814937489474
 30
0.0
 40
0.2999999999999403
 50
179.99999999998701
 51
270.00000000005213
  0
LINE
  5
28571
  8
0
 10
174.30534725941129
 20
192.6814901726685
 30
0.0
 11
170.91443436152639
 21
192.6814901726685
 31
0.0
  0
ARC
  5
28572
  8
0
 10
170.91443445789099
 20
193.6814937489477
 30
0.0
 40
1.000000000000085
 50
198.9999999999869
 51
270.0
  0
LINE
  5
28573
  8
0
 10
186.00534740767779
 20
192.98149525098421
 30
0.0
 11
183.60534729368391
 21
192.98149525098421
 31
0.0
  0
LINE
  5
28574
  8
0
 10
177.00534732944669
 20
192.98149525098421
 30
0.0
 11
174.60534721545281
 21
192.98149525098421
 31
0.0
  0
LINE
  5
28575
  8
0
 10
190.64189367354081
 20
372.00707755385213
 30
0.0
 11
193.44400567866271
 21
363.86880158357241
 31
0.0
  0
LINE
  5
28576
  8
0
 10
193.44400567866271
 20
201.494185914322
 30
0.0
 11
190.64177898622461
 21
193.35592417888259
 31
0.0
  0
LINE
  5
28577
  8
0
 10
169.9689156369061
 20
193.35592417888259
 30
0.0
 11
167.16668894446789
 21
201.494185914322
 31
0.0
  0
LINE
  5
28578
  8
0
 10
167.16668894446789
 20
363.86880158357241
 30
0.0
 11
169.96903395721071
 21
372.00711327847392
 31
0.0
  0
ARC
  5
28579
  8
0
 10
190.60745027236521
 20
362.89209855473302
 30
0.0
 40
2.9999999999868621
 50
359.99999999997402
 51
19.000000000041691
  0
ARC
  5
2857A
  8
0
 10
190.60745027236521
 20
202.47088894316181
 30
0.0
 40
2.999999999986839
 50
340.99999999996368
 51
0.0000000000260551
  0
ARC
  5
2857B
  8
0
 10
170.00324435076641
 20
362.89209855473302
 30
0.0
 40
2.9999999999869971
 50
160.99999999996439
 51
180.00000000002601
  0
ARC
  5
2857C
  8
0
 10
170.00324435076641
 20
202.47088894316181
 30
0.0
 40
2.9999999999869731
 50
179.99999999997391
 51
199.00000000003561
  0
ARC
  5
2857D
  8
0
 10
194.3574502723516
 20
361.21596822371851
 30
0.0
 40
0.7500000000000285
 50
0.0
 51
180.0
  0
ARC
  5
2857E
  8
0
 10
194.3574502723516
 20
204.14701927417639
 30
0.0
 40
0.7500000000000285
 50
180.0
 51
0.0
  0
ARC
  5
2857F
  8
0
 10
166.25324435077911
 20
361.21596822371851
 30
0.0
 40
0.7500000000000285
 50
0.0
 51
180.0
  0
ARC
  5
28580
  8
0
 10
166.25324435077911
 20
204.14701927417639
 30
0.0
 40
0.7500000000000285
 50
180.0
 51
0.0
  0
ARC
  5
28581
  8
0
 10
195.85745027235151
 20
356.85965190720441
 30
0.0
 40
0.7500000000000285
 50
0.0
 51
180.0
  0
ARC
  5
28582
  8
0
 10
195.85745027235151
 20
208.5033355906904
 30
0.0
 40
0.7500000000000285
 50
180.0
 51
0.0
  0
ARC
  5
28583
  8
0
 10
164.75324435077911
 20
356.85965190720441
 30
0.0
 40
0.7500000000001706
 50
0.0
 51
180.0
  0
ARC
  5
28584
  8
0
 10
164.75324435077911
 20
208.5033355906904
 30
0.0
 40
0.7500000000001706
 50
180.0
 51
0.0
  0
LINE
  5
28585
  8
0
 10
196.60745048827829
 20
354.68149064950558
 30
0.0
 11
202.64190295643519
 21
337.15617163948639
 31
0.0
  0
LINE
  5
28586
  8
0
 10
202.64190295643519
 20
228.20681585840811
 30
0.0
 11
196.60745048827829
 21
210.6814968483888
 31
0.0
  0
LINE
  5
28587
  8
0
 10
164.00324413485231
 20
210.6814968483888
 30
0.0
 11
157.96879166669549
 21
228.20681585840811
 31
0.0
  0
LINE
  5
28588
  8
0
 10
157.96879166669549
 20
337.15617163948639
 30
0.0
 11
164.00324413485231
 21
354.68149064950558
 31
0.0
  0
ARC
  5
28589
  8
0
 10
199.80534731159079
 20
336.17946592170722
 30
0.0
 40
2.9999999999751021
 50
359.99999999996749
 51
19.00000000006926
  0
ARC
  5
2858A
  8
0
 10
199.80534731159079
 20
229.1835215761877
 30
0.0
 40
2.9999999999751021
 50
340.99999999993071
 51
0.0000000000455964
  0
ARC
  5
2858B
  8
0
 10
160.8053473115408
 20
336.17946592170722
 30
0.0
 40
2.999999999975016
 50
160.99999999993071
 51
180.00000000004559
  0
ARC
  5
2858C
  8
0
 10
160.8053473115408
 20
229.1835215761877
 30
0.0
 40
2.99999999997504
 50
179.99999999996089
 51
199.00000000007671
  0
LINE
  5
2858D
  8
0
 10
202.805348205635
 20
295.97556563936098
 30
0.0
 11
208.36430834538649
 21
295.75688737355102
 31
0.0
  0
LINE
  5
2858E
  8
0
 10
208.36430834538649
 20
269.60610012434353
 30
0.0
 11
202.805348205635
 21
269.38742185853351
 31
0.0
  0
LINE
  5
2858F
  8
0
 10
157.80534641749571
 20
269.38742185853351
 30
0.0
 11
152.24638627774419
 21
269.60610012434353
 31
0.0
  0
LINE
  5
28590
  8
0
 10
152.24638627774419
 20
295.75688737355102
 30
0.0
 11
157.80534641749571
 21
295.97556563936098
 31
0.0
  0
ARC
  5
28591
  8
0
 10
208.30534731156359
 20
294.25804689887372
 30
0.0
 40
1.500000000002244
 50
0.0
 51
87.747264808867726
  0
ARC
  5
28592
  8
0
 10
208.30534731156359
 20
271.10494059902129
 30
0.0
 40
1.500000000002188
 50
272.25273519113227
 51
0.0
  0
ARC
  5
28593
  8
0
 10
152.30534731156811
 20
294.25804689887372
 30
0.0
 40
1.500000000002188
 50
92.252735191132274
 51
180.0
  0
ARC
  5
28594
  8
0
 10
152.30534731156811
 20
271.10494059902129
 30
0.0
 40
1.500000000002188
 50
180.0
 51
267.7472648088937
  0
ARC
  5
28595
  8
0
 10
181.60611645419181
 20
282.68149374894722
 30
0.0
 40
39.256516972185871
 50
351.96849322514311
 51
8.0315067748568456
  0
LINE
  5
28596
  8
0
 10
213.50534679300489
 20
288.1663210774206
 30
0.0
 11
220.4775814891548
 21
288.1663210774206
 31
0.0
  0
LINE
  5
28597
  8
0
 10
213.50534679300489
 20
277.19666642047389
 30
0.0
 11
220.4775814891548
 21
277.19666642047389
 31
0.0
  0
LINE
  5
28598
  8
0
 10
221.0053470910282
 20
273.68149413637741
 30
0.0
 11
221.0053470910282
 21
291.68149336151708
 31
0.0
  0
ARC
  5
28599
  8
0
 10
210.8984878292342
 20
274.45425275623722
 30
0.0
 40
9.9639283443487265
 50
344.02402965597048
 51
15.975970344029459
  0
ARC
  5
2859A
  8
0
 10
211.01972151338231
 20
290.90873474165721
 30
0.0
 40
9.847433575663544
 50
343.82988471640789
 51
16.17011528359205
  0
LINE
  5
2859B
  8
0
 10
213.50534679300489
 20
271.71183909200062
 30
0.0
 11
220.4775814891548
 21
271.71183909200062
 31
0.0
  0
LINE
  5
2859C
  8
0
 10
213.50534679300489
 20
293.65114840589388
 30
0.0
 11
220.4775814891548
 21
293.65114840589388
 31
0.0
  0
ARC
  5
2859D
  8
0
 10
107.7067441909314
 20
282.68149374894722
 30
0.0
 40
39.255892435869903
 50
351.96836460541249
 51
8.0316353945817855
  0
ARC
  5
2859E
  8
0
 10
136.99853217117041
 20
274.45425275623722
 30
0.0
 40
9.9638828441726819
 50
344.02395475012071
 51
15.97604524987924
  0
ARC
  5
2859F
  8
0
 10
137.11976483259079
 20
290.90873474165721
 30
0.0
 40
9.8473891021560576
 50
343.82980968500669
 51
16.170190314993281
  0
LINE
  5
285A0
  8
0
 10
137.6331155181617
 20
277.19666642047389
 30
0.0
 11
146.57757850296201
 21
277.19666642047389
 31
0.0
  0
ARC
  5
285A1
  8
0
 10
147.2139634509642
 20
274.45425275623722
 30
0.0
 40
9.9656148740186392
 50
164.02680564695089
 51
195.973194353049
  0
LINE
  5
285A2
  8
0
 10
137.6331155181617
 20
271.71183909200062
 30
0.0
 11
146.57757850296201
 21
271.71183909200062
 31
0.0
  0
LINE
  5
285A3
  8
0
 10
137.6331155181617
 20
288.1663210774206
 30
0.0
 11
146.57757850296201
 21
288.1663210774206
 31
0.0
  0
ARC
  5
285A4
  8
0
 10
176.5097763651149
 20
282.68149374894722
 30
0.0
 40
39.261661827184227
 50
171.96955262175311
 51
188.03044737824689
  0
LINE
  5
285A5
  8
0
 10
137.6331155181617
 20
293.65114840589388
 30
0.0
 11
146.57757850296201
 21
293.65114840589388
 31
0.0
  0
ARC
  5
285A6
  8
0
 10
147.0897785090294
 20
290.90873474165721
 30
0.0
 40
9.8462839502337403
 50
163.82794495259881
 51
196.1720550474011
  0
LINE
  5
285A7
  8
0
 10
137.10534619099801
 20
273.68149413637741
 30
0.0
 11
137.10534619099801
 21
291.68149336151708
 31
0.0
  0
LINE
  5
285AC
  8
0
 10
213.50534679300489
 20
384.8814952271423
 30
0.0
 11
147.10534783012571
 21
384.8814952271423
 31
0.0
  0
LINE
  5
285B1
  8
0
 10
210.3053466410131
 20
284.35877485576941
 30
0.0
 11
213.50534679300489
 21
284.35877485576941
 31
0.0
  0
LINE
  5
285B2
  8
0
 10
209.80534749037929
 20
272.68149397246469
 30
0.0
 11
213.50534679300489
 21
272.68149397246469
 31
0.0
  0
LINE
  5
285B3
  8
0
 10
147.10534783012571
 20
272.68149397246469
 30
0.0
 11
150.80534713275139
 21
272.68149397246469
 31
0.0
  0
LINE
  5
285B4
  8
0
 10
147.10534783012571
 20
284.35877485576941
 30
0.0
 11
150.30534798211761
 21
284.35877485576941
 31
0.0
  0
LINE
  5
285B5
  8
0
 10
210.3053466410131
 20
272.68149397246469
 30
0.0
 11
210.3053466410131
 21
381.68149017266848
 31
0.0
  0
LINE
  5
285B6
  8
0
 10
213.50534679300489
 20
384.8814952271423
 30
0.0
 11
213.50534679300489
 21
271.71183909200062
 31
0.0
  0
LINE
  5
285B7
  8
0
 10
150.30534798211761
 20
381.68149017266848
 30
0.0
 11
150.30534798211761
 21
272.68149397246469
 31
0.0
  0
LINE
  5
285B8
  8
0
 10
147.10534783012571
 20
384.8814952271423
 30
0.0
 11
147.10534783012571
 21
272.68149397246469
 31
0.0
  0
LINE
  5
285B9
  8
0
 10
231.30534635789101
 20
393.18149416617968
 30
0.0
 11
129.30534826523959
 21
393.18149416617968
 31
0.0
  0
LINE
  5
285BA
  8
0
 10
227.30534570223989
 20
402.68149106673809
 30
0.0
 11
133.30534892089071
 21
402.68149106673809
 31
0.0
  0
POLYLINE
  5
285BB
  8
0
 10
227.80534731156513
 20
325.12383051449825
 30
0.0
 66
     1
 70
     8
  0
VERTEX
  8
0
  5
28E63
 10
227.805
 20
325.124
 30
0.000000
  70
    32
  0
VERTEX
  8
0
  5
28E64
 10
227.805
 20
324.860
 30
0.000000
  70
    32
  0
VERTEX
  8
0
  5
28E65
 10
227.804
 20
324.597
 30
0.000000
  70
    32
  0
VERTEX
  8
0
  5
28E66
 10
227.801
 20
324.333
 30
0.000000
  70
    32
  0
VERTEX
  8
0
  5
28E67
 10
227.798
 20
324.070
 30
0.000000
  70
    32
  0
VERTEX
  8
0
  5
28E68
 10
227.794
 20
323.806
 30
0.000000
  70
    32
  0
VERTEX
  8
0
  5
28E69
 10
227.789
 20
323.543
 30
0.000000
  70
    32
  0
VERTEX
  8
0
  5
28E6A
 10
227.783
 20
323.279
 30
0.000000
  70
    32
  0
VERTEX
  8
0
  5
28E6B
 10
227.777
 20
323.016
 30
0.000000
  70
    32
  0
VERTEX
  8
0
  5
28E6C
 10
227.769
 20
322.752
 30
0.000000
  70
    32
  0
VERTEX
  8
0
  5
28E6D
 10
227.760
 20
322.489
 30
0.000000
  70
    32
  0
VERTEX
  8
0
  5
28E6E
 10
227.751
 20
322.226
 30
0.000000
  70
    32
  0
VERTEX
  8
0
  5
28E6F
 10
227.741
 20
321.963
 30
0.000000
  70
    32
  0
VERTEX
  8
0
  5
28E70
 10
227.729
 20
321.699
 30
0.000000
  70
    32
  0
VERTEX
  8
0
  5
28E71
 10
227.717
 20
321.436
 30
0.000000
  70
    32
  0
VERTEX
  8
0
  5
28E72
 10
227.704
 20
321.173
 30
0.000000
  70
    32
  0
VERTEX
  8
0
  5
28E73
 10
227.690
 20
320.910
 30
0.000000
  70
    32
  0
VERTEX
  8
0
  5
28E74
 10
227.675
 20
320.647
 30
0.000000
  70
    32
  0
VERTEX
  8
0
  5
28E75
 10
227.660
 20
320.385
 30
0.000000
  70
    32
  0
VERTEX
  8
0
  5
28E76
 10
227.643
 20
320.122
 30
0.000000
  70
    32
  0
VERTEX
  8
0
  5
28E77
 10
227.626
 20
319.859
 30
0.000000
  70
    32
  0
VERTEX
  8
0
  5
28E78
 10
227.607
 20
319.597
 30
0.000000
  70
    32
  0
VERTEX
  8
0
  5
28E79
 10
227.588
 20
319.334
 30
0.000000
  70
    32
  0
VERTEX
  8
0
  5
28E7A
 10
227.568
 20
319.072
 30
0.000000
  70
    32
  0
VERTEX
  8
0
  5
28E7B
 10
227.546
 20
318.810
 30
0.000000
  70
    32
  0
VERTEX
  8
0
  5
28E7C
 10
227.524
 20
318.548
 30
0.000000
  70
    32
  0
VERTEX
  8
0
  5
28E7D
 10
227.502
 20
318.286
 30
0.000000
  70
    32
  0
VERTEX
  8
0
  5
28E7E
 10
227.478
 20
318.024
 30
0.000000
  70
    32
  0
VERTEX
  8
0
  5
28E7F
 10
227.453
 20
317.762
 30
0.000000
  70
    32
  0
VERTEX
  8
0
  5
28E80
 10
227.428
 20
317.501
 30
0.000000
  70
    32
  0
VERTEX
  8
0
  5
28E81
 10
227.401
 20
317.240
 30
0.000000
  70
    32
  0
VERTEX
  8
0
  5
28E82
 10
227.374
 20
316.978
 30
0.000000
  70
    32
  0
VERTEX
  8
0
  5
28E83
 10
227.345
 20
316.717
 30
0.000000
  70
    32
  0
VERTEX
  8
0
  5
28E84
 10
227.316
 20
316.456
 30
0.000000
  70
    32
  0
VERTEX
  8
0
  5
28E85
 10
227.286
 20
316.196
 30
0.000000
  70
    32
  0
VERTEX
  8
0
  5
28E86
 10
227.255
 20
315.935
 30
0.000000
  70
    32
  0
VERTEX
  8
0
  5
28E87
 10
227.224
 20
315.675
 30
0.000000
  70
    32
  0
VERTEX
  8
0
  5
28E88
 10
227.191
 20
315.414
 30
0.000000
  70
    32
  0
VERTEX
  8
0
  5
28E89
 10
227.157
 20
315.154
 30
0.000000
  70
    32
  0
VERTEX
  8
0
  5
28E8A
 10
227.123
 20
314.894
 30
0.000000
  70
    32
  0
VERTEX
  8
0
  5
28E8B
 10
227.087
 20
314.635
 30
0.000000
  70
    32
  0
VERTEX
  8
0
  5
28E8C
 10
227.051
 20
314.375
 30
0.000000
  70
    32
  0
VERTEX
  8
0
  5
28E8D
 10
227.014
 20
314.116
 30
0.000000
  70
    32
  0
VERTEX
  8
0
  5
28E8E
 10
226.976
 20
313.857
 30
0.000000
  70
    32
  0
VERTEX
  8
0
  5
28E8F
 10
226.937
 20
313.598
 30
0.000000
  70
    32
  0
VERTEX
  8
0
  5
28E90
 10
226.897
 20
313.339
 30
0.000000
  70
    32
  0
VERTEX
  8
0
  5
28E91
 10
226.857
 20
313.081
 30
0.000000
  70
    32
  0
VERTEX
  8
0
  5
28E92
 10
226.815
 20
312.823
 30
0.000000
  70
    32
  0
VERTEX
  8
0
  5
28E93
 10
226.773
 20
312.565
 30
0.000000
  70
    32
  0
VERTEX
  8
0
  5
28E94
 10
226.729
 20
312.307
 30
0.000000
  70
    32
  0
VERTEX
  8
0
  5
28E95
 10
226.685
 20
312.050
 30
0.000000
  70
    32
  0
VERTEX
  8
0
  5
28E96
 10
226.640
 20
311.793
 30
0.000000
  70
    32
  0
VERTEX
  8
0
  5
28E97
 10
226.594
 20
311.536
 30
0.000000
  70
    32
  0
VERTEX
  8
0
  5
28E98
 10
226.547
 20
311.279
 30
0.000000
  70
    32
  0
VERTEX
  8
0
  5
28E99
 10
226.500
 20
311.022
 30
0.000000
  70
    32
  0
VERTEX
  8
0
  5
28E9A
 10
226.451
 20
310.766
 30
0.000000
  70
    32
  0
VERTEX
  8
0
  5
28E9B
 10
226.402
 20
310.510
 30
0.000000
  70
    32
  0
VERTEX
  8
0
  5
28E9C
 10
226.351
 20
310.255
 30
0.000000
  70
    32
  0
VERTEX
  8
0
  5
28E9D
 10
226.300
 20
309.999
 30
0.000000
  70
    32
  0
VERTEX
  8
0
  5
28E9E
 10
226.248
 20
309.744
 30
0.000000
  70
    32
  0
VERTEX
  8
0
  5
28E9F
 10
226.195
 20
309.489
 30
0.000000
  70
    32
  0
VERTEX
  8
0
  5
28EA0
 10
226.141
 20
309.235
 30
0.000000
  70
    32
  0
VERTEX
  8
0
  5
28EA1
 10
226.087
 20
308.981
 30
0.000000
  70
    32
  0
VERTEX
  8
0
  5
28EA2
 10
226.031
 20
308.727
 30
0.000000
  70
    32
  0
VERTEX
  8
0
  5
28EA3
 10
225.975
 20
308.473
 30
0.000000
  70
    32
  0
VERTEX
  8
0
  5
28EA4
 10
225.917
 20
308.220
 30
0.000000
  70
    32
  0
VERTEX
  8
0
  5
28EA5
 10
225.859
 20
307.967
 30
0.000000
  70
    32
  0
VERTEX
  8
0
  5
28EA6
 10
225.800
 20
307.715
 30
0.000000
  70
    32
  0
VERTEX
  8
0
  5
28EA7
 10
225.740
 20
307.462
 30
0.000000
  70
    32
  0
VERTEX
  8
0
  5
28EA8
 10
225.680
 20
307.210
 30
0.000000
  70
    32
  0
VERTEX
  8
0
  5
28EA9
 10
225.618
 20
306.959
 30
0.000000
  70
    32
  0
VERTEX
  8
0
  5
28EAA
 10
225.556
 20
306.708
 30
0.000000
  70
    32
  0
VERTEX
  8
0
  5
28EAB
 10
225.492
 20
306.457
 30
0.000000
  70
    32
  0
VERTEX
  8
0
  5
28EAC
 10
225.428
 20
306.206
 30
0.000000
  70
    32
  0
VERTEX
  8
0
  5
28EAD
 10
225.363
 20
305.956
 30
0.000000
  70
    32
  0
VERTEX
  8
0
  5
28EAE
 10
225.297
 20
305.706
 30
0.000000
  70
    32
  0
VERTEX
  8
0
  5
28EAF
 10
225.231
 20
305.457
 30
0.000000
  70
    32
  0
VERTEX
  8
0
  5
28EB0
 10
225.163
 20
305.208
 30
0.000000
  70
    32
  0
VERTEX
  8
0
  5
28EB1
 10
225.095
 20
304.959
 30
0.000000
  70
    32
  0
VERTEX
  8
0
  5
28EB2
 10
225.025
 20
304.711
 30
0.000000
  70
    32
  0
VERTEX
  8
0
  5
28EB3
 10
224.955
 20
304.463
 30
0.000000
  70
    32
  0
VERTEX
  8
0
  5
28EB4
 10
224.884
 20
304.215
 30
0.000000
  70
    32
  0
VERTEX
  8
0
  5
28EB5
 10
224.812
 20
303.968
 30
0.000000
  70
    32
  0
VERTEX
  8
0
  5
28EB6
 10
224.740
 20
303.721
 30
0.000000
  70
    32
  0
VERTEX
  8
0
  5
28EB7
 10
224.666
 20
303.475
 30
0.000000
  70
    32
  0
VERTEX
  8
0
  5
28EB8
 10
224.592
 20
303.229
 30
0.000000
  70
    32
  0
VERTEX
  8
0
  5
28EB9
 10
224.517
 20
302.983
 30
0.000000
  70
    32
  0
VERTEX
  8
0
  5
28EBA
 10
224.441
 20
302.738
 30
0.000000
  70
    32
  0
VERTEX
  8
0
  5
28EBB
 10
224.364
 20
302.494
 30
0.000000
  70
    32
  0
VERTEX
  8
0
  5
28EBC
 10
224.286
 20
302.249
 30
0.000000
  70
    32
  0
VERTEX
  8
0
  5
28EBD
 10
224.208
 20
302.006
 30
0.000000
  70
    32
  0
VERTEX
  8
0
  5
28EBE
 10
224.129
 20
301.762
 30
0.000000
  70
    32
  0
VERTEX
  8
0
  5
28EBF
 10
224.048
 20
301.519
 30
0.000000
  70
    32
  0
VERTEX
  8
0
  5
28EC0
 10
223.967
 20
301.277
 30
0.000000
  70
    32
  0
VERTEX
  8
0
  5
28EC1
 10
223.886
 20
301.035
 30
0.000000
  70
    32
  0
VERTEX
  8
0
  5
28EC2
 10
223.803
 20
300.793
 30
0.000000
  70
    32
  0
VERTEX
  8
0
  5
28EC3
 10
223.719
 20
300.552
 30
0.000000
  70
    32
  0
VERTEX
  8
0
  5
28EC4
 10
223.635
 20
300.311
 30
0.000000
  70
    32
  0
VERTEX
  8
0
  5
28EC5
 10
223.550
 20
300.071
 30
0.000000
  70
    32
  0
VERTEX
  8
0
  5
28EC6
 10
223.464
 20
299.832
 30
0.000000
  70
    32
  0
VERTEX
  8
0
  5
28EC7
 10
223.377
 20
299.592
 30
0.000000
  70
    32
  0
VERTEX
  8
0
  5
28EC8
 10
223.290
 20
299.354
 30
0.000000
  70
    32
  0
VERTEX
  8
0
  5
28EC9
 10
223.201
 20
299.115
 30
0.000000
  70
    32
  0
VERTEX
  8
0
  5
28ECA
 10
223.112
 20
298.878
 30
0.000000
  70
    32
  0
VERTEX
  8
0
  5
28ECB
 10
223.022
 20
298.640
 30
0.000000
  70
    32
  0
VERTEX
  8
0
  5
28ECC
 10
222.931
 20
298.403
 30
0.000000
  70
    32
  0
VERTEX
  8
0
  5
28ECD
 10
222.840
 20
298.167
 30
0.000000
  70
    32
  0
VERTEX
  8
0
  5
28ECE
 10
222.747
 20
297.931
 30
0.000000
  70
    32
  0
VERTEX
  8
0
  5
28ECF
 10
222.654
 20
297.696
 30
0.000000
  70
    32
  0
VERTEX
  8
0
  5
28ED0
 10
222.560
 20
297.462
 30
0.000000
  70
    32
  0
VERTEX
  8
0
  5
28ED1
 10
222.465
 20
297.227
 30
0.000000
  70
    32
  0
VERTEX
  8
0
  5
28ED2
 10
222.370
 20
296.994
 30
0.000000
  70
    32
  0
VERTEX
  8
0
  5
28ED3
 10
222.273
 20
296.761
 30
0.000000
  70
    32
  0
VERTEX
  8
0
  5
28ED4
 10
222.176
 20
296.528
 30
0.000000
  70
    32
  0
VERTEX
  8
0
  5
28ED5
 10
222.078
 20
296.296
 30
0.000000
  70
    32
  0
VERTEX
  8
0
  5
28ED6
 10
221.979
 20
296.064
 30
0.000000
  70
    32
  0
VERTEX
  8
0
  5
28ED7
 10
221.880
 20
295.833
 30
0.000000
  70
    32
  0
VERTEX
  8
0
  5
28ED8
 10
221.779
 20
295.603
 30
0.000000
  70
    32
  0
VERTEX
  8
0
  5
28ED9
 10
221.678
 20
295.373
 30
0.000000
  70
    32
  0
VERTEX
  8
0
  5
28EDA
 10
221.576
 20
295.144
 30
0.000000
  70
    32
  0
VERTEX
  8
0
  5
28EDB
 10
221.473
 20
294.915
 30
0.000000
  70
    32
  0
VERTEX
  8
0
  5
28EDC
 10
221.370
 20
294.687
 30
0.000000
  70
    32
  0
VERTEX
  8
0
  5
28EDD
 10
221.265
 20
294.460
 30
0.000000
  70
    32
  0
VERTEX
  8
0
  5
28EDE
 10
221.160
 20
294.233
 30
0.000000
  70
    32
  0
VERTEX
  8
0
  5
28EDF
 10
221.055
 20
294.006
 30
0.000000
  70
    32
  0
VERTEX
  8
0
  5
28EE0
 10
220.948
 20
293.780
 30
0.000000
  70
    32
  0
VERTEX
  8
0
  5
28EE1
 10
220.841
 20
293.555
 30
0.000000
  70
    32
  0
VERTEX
  8
0
  5
28EE2
 10
220.732
 20
293.331
 30
0.000000
  70
    32
  0
VERTEX
  8
0
  5
28EE3
 10
220.624
 20
293.106
 30
0.000000
  70
    32
  0
SEQEND
  8
0
  5
28EE4
  0
POLYLINE
  5
285BC
  8
0
 10
139.72419054243505
 20
293.6511488635515
 30
0.0
 66
     1
 70
     8
  0
VERTEX
  8
0
  5
28EE5
 10
139.724
 20
293.651
 30
0.000000
  70
    32
  0
VERTEX
  8
0
  5
28EE6
 10
139.619
 20
293.872
 30
0.000000
  70
    32
  0
VERTEX
  8
0
  5
28EE7
 10
139.515
 20
294.094
 30
0.000000
  70
    32
  0
VERTEX
  8
0
  5
28EE8
 10
139.411
 20
294.316
 30
0.000000
  70
    32
  0
VERTEX
  8
0
  5
28EE9
 10
139.309
 20
294.539
 30
0.000000
  70
    32
  0
VERTEX
  8
0
  5
28EEA
 10
139.206
 20
294.763
 30
0.000000
  70
    32
  0
VERTEX
  8
0
  5
28EEB
 10
139.105
 20
294.987
 30
0.000000
  70
    32
  0
VERTEX
  8
0
  5
28EEC
 10
139.005
 20
295.211
 30
0.000000
  70
    32
  0
VERTEX
  8
0
  5
28EED
 10
138.905
 20
295.436
 30
0.000000
  70
    32
  0
VERTEX
  8
0
  5
28EEE
 10
138.806
 20
295.662
 30
0.000000
  70
    32
  0
VERTEX
  8
0
  5
28EEF
 10
138.707
 20
295.888
 30
0.000000
  70
    32
  0
VERTEX
  8
0
  5
28EF0
 10
138.610
 20
296.115
 30
0.000000
  70
    32
  0
VERTEX
  8
0
  5
28EF1
 10
138.513
 20
296.342
 30
0.000000
  70
    32
  0
VERTEX
  8
0
  5
28EF2
 10
138.417
 20
296.570
 30
0.000000
  70
    32
  0
VERTEX
  8
0
  5
28EF3
 10
138.322
 20
296.798
 30
0.000000
  70
    32
  0
VERTEX
  8
0
  5
28EF4
 10
138.227
 20
297.027
 30
0.000000
  70
    32
  0
VERTEX
  8
0
  5
28EF5
 10
138.134
 20
297.256
 30
0.000000
  70
    32
  0
VERTEX
  8
0
  5
28EF6
 10
138.041
 20
297.486
 30
0.000000
  70
    32
  0
VERTEX
  8
0
  5
28EF7
 10
137.949
 20
297.716
 30
0.000000
  70
    32
  0
VERTEX
  8
0
  5
28EF8
 10
137.857
 20
297.947
 30
0.000000
  70
    32
  0
VERTEX
  8
0
  5
28EF9
 10
137.767
 20
298.178
 30
0.000000
  70
    32
  0
VERTEX
  8
0
  5
28EFA
 10
137.677
 20
298.410
 30
0.000000
  70
    32
  0
VERTEX
  8
0
  5
28EFB
 10
137.588
 20
298.643
 30
0.000000
  70
    32
  0
VERTEX
  8
0
  5
28EFC
 10
137.499
 20
298.875
 30
0.000000
  70
    32
  0
VERTEX
  8
0
  5
28EFD
 10
137.412
 20
299.109
 30
0.000000
  70
    32
  0
VERTEX
  8
0
  5
28EFE
 10
137.325
 20
299.342
 30
0.000000
  70
    32
  0
VERTEX
  8
0
  5
28EFF
 10
137.239
 20
299.576
 30
0.000000
  70
    32
  0
VERTEX
  8
0
  5
28F00
 10
137.154
 20
299.811
 30
0.000000
  70
    32
  0
VERTEX
  8
0
  5
28F01
 10
137.070
 20
300.046
 30
0.000000
  70
    32
  0
VERTEX
  8
0
  5
28F02
 10
136.986
 20
300.282
 30
0.000000
  70
    32
  0
VERTEX
  8
0
  5
28F03
 10
136.903
 20
300.518
 30
0.000000
  70
    32
  0
VERTEX
  8
0
  5
28F04
 10
136.821
 20
300.754
 30
0.000000
  70
    32
  0
VERTEX
  8
0
  5
28F05
 10
136.740
 20
300.991
 30
0.000000
  70
    32
  0
VERTEX
  8
0
  5
28F06
 10
136.660
 20
301.229
 30
0.000000
  70
    32
  0
VERTEX
  8
0
  5
28F07
 10
136.580
 20
301.466
 30
0.000000
  70
    32
  0
VERTEX
  8
0
  5
28F08
 10
136.501
 20
301.705
 30
0.000000
  70
    32
  0
VERTEX
  8
0
  5
28F09
 10
136.423
 20
301.943
 30
0.000000
  70
    32
  0
VERTEX
  8
0
  5
28F0A
 10
136.346
 20
302.182
 30
0.000000
  70
    32
  0
VERTEX
  8
0
  5
28F0B
 10
136.269
 20
302.422
 30
0.000000
  70
    32
  0
VERTEX
  8
0
  5
28F0C
 10
136.194
 20
302.662
 30
0.000000
  70
    32
  0
VERTEX
  8
0
  5
28F0D
 10
136.119
 20
302.902
 30
0.000000
  70
    32
  0
VERTEX
  8
0
  5
28F0E
 10
136.045
 20
303.143
 30
0.000000
  70
    32
  0
VERTEX
  8
0
  5
28F0F
 10
135.972
 20
303.384
 30
0.000000
  70
    32
  0
VERTEX
  8
0
  5
28F10
 10
135.899
 20
303.625
 30
0.000000
  70
    32
  0
VERTEX
  8
0
  5
28F11
 10
135.828
 20
303.867
 30
0.000000
  70
    32
  0
VERTEX
  8
0
  5
28F12
 10
135.757
 20
304.110
 30
0.000000
  70
    32
  0
VERTEX
  8
0
  5
28F13
 10
135.687
 20
304.352
 30
0.000000
  70
    32
  0
VERTEX
  8
0
  5
28F14
 10
135.618
 20
304.595
 30
0.000000
  70
    32
  0
VERTEX
  8
0
  5
28F15
 10
135.549
 20
304.839
 30
0.000000
  70
    32
  0
VERTEX
  8
0
  5
28F16
 10
135.482
 20
305.083
 30
0.000000
  70
    32
  0
VERTEX
  8
0
  5
28F17
 10
135.415
 20
305.327
 30
0.000000
  70
    32
  0
VERTEX
  8
0
  5
28F18
 10
135.349
 20
305.571
 30
0.000000
  70
    32
  0
VERTEX
  8
0
  5
28F19
 10
135.284
 20
305.816
 30
0.000000
  70
    32
  0
VERTEX
  8
0
  5
28F1A
 10
135.220
 20
306.062
 30
0.000000
  70
    32
  0
VERTEX
  8
0
  5
28F1B
 10
135.157
 20
306.307
 30
0.000000
  70
    32
  0
VERTEX
  8
0
  5
28F1C
 10
135.094
 20
306.553
 30
0.000000
  70
    32
  0
VERTEX
  8
0
  5
28F1D
 10
135.032
 20
306.799
 30
0.000000
  70
    32
  0
VERTEX
  8
0
  5
28F1E
 10
134.971
 20
307.046
 30
0.000000
  70
    32
  0
VERTEX
  8
0
  5
28F1F
 10
134.911
 20
307.293
 30
0.000000
  70
    32
  0
VERTEX
  8
0
  5
28F20
 10
134.852
 20
307.540
 30
0.000000
  70
    32
  0
VERTEX
  8
0
  5
28F21
 10
134.793
 20
307.788
 30
0.000000
  70
    32
  0
VERTEX
  8
0
  5
28F22
 10
134.736
 20
308.036
 30
0.000000
  70
    32
  0
VERTEX
  8
0
  5
28F23
 10
134.679
 20
308.284
 30
0.000000
  70
    32
  0
VERTEX
  8
0
  5
28F24
 10
134.623
 20
308.532
 30
0.000000
  70
    32
  0
VERTEX
  8
0
  5
28F25
 10
134.568
 20
308.781
 30
0.000000
  70
    32
  0
VERTEX
  8
0
  5
28F26
 10
134.513
 20
309.030
 30
0.000000
  70
    32
  0
VERTEX
  8
0
  5
28F27
 10
134.460
 20
309.280
 30
0.000000
  70
    32
  0
VERTEX
  8
0
  5
28F28
 10
134.407
 20
309.529
 30
0.000000
  70
    32
  0
VERTEX
  8
0
  5
28F29
 10
134.356
 20
309.779
 30
0.000000
  70
    32
  0
VERTEX
  8
0
  5
28F2A
 10
134.305
 20
310.030
 30
0.000000
  70
    32
  0
VERTEX
  8
0
  5
28F2B
 10
134.254
 20
310.280
 30
0.000000
  70
    32
  0
VERTEX
  8
0
  5
28F2C
 10
134.205
 20
310.531
 30
0.000000
  70
    32
  0
VERTEX
  8
0
  5
28F2D
 10
134.157
 20
310.782
 30
0.000000
  70
    32
  0
VERTEX
  8
0
  5
28F2E
 10
134.109
 20
311.033
 30
0.000000
  70
    32
  0
VERTEX
  8
0
  5
28F2F
 10
134.062
 20
311.285
 30
0.000000
  70
    32
  0
VERTEX
  8
0
  5
28F30
 10
134.016
 20
311.537
 30
0.000000
  70
    32
  0
VERTEX
  8
0
  5
28F31
 10
133.971
 20
311.789
 30
0.000000
  70
    32
  0
VERTEX
  8
0
  5
28F32
 10
133.927
 20
312.041
 30
0.000000
  70
    32
  0
VERTEX
  8
0
  5
28F33
 10
133.884
 20
312.294
 30
0.000000
  70
    32
  0
VERTEX
  8
0
  5
28F34
 10
133.841
 20
312.547
 30
0.000000
  70
    32
  0
VERTEX
  8
0
  5
28F35
 10
133.799
 20
312.800
 30
0.000000
  70
    32
  0
VERTEX
  8
0
  5
28F36
 10
133.759
 20
313.053
 30
0.000000
  70
    32
  0
VERTEX
  8
0
  5
28F37
 10
133.719
 20
313.306
 30
0.000000
  70
    32
  0
VERTEX
  8
0
  5
28F38
 10
133.679
 20
313.560
 30
0.000000
  70
    32
  0
VERTEX
  8
0
  5
28F39
 10
133.641
 20
313.814
 30
0.000000
  70
    32
  0
VERTEX
  8
0
  5
28F3A
 10
133.604
 20
314.068
 30
0.000000
  70
    32
  0
VERTEX
  8
0
  5
28F3B
 10
133.567
 20
314.322
 30
0.000000
  70
    32
  0
VERTEX
  8
0
  5
28F3C
 10
133.531
 20
314.577
 30
0.000000
  70
    32
  0
VERTEX
  8
0
  5
28F3D
 10
133.496
 20
314.832
 30
0.000000
  70
    32
  0
VERTEX
  8
0
  5
28F3E
 10
133.462
 20
315.087
 30
0.000000
  70
    32
  0
VERTEX
  8
0
  5
28F3F
 10
133.429
 20
315.342
 30
0.000000
  70
    32
  0
VERTEX
  8
0
  5
28F40
 10
133.397
 20
315.597
 30
0.000000
  70
    32
  0
VERTEX
  8
0
  5
28F41
 10
133.365
 20
315.852
 30
0.000000
  70
    32
  0
VERTEX
  8
0
  5
28F42
 10
133.335
 20
316.108
 30
0.000000
  70
    32
  0
VERTEX
  8
0
  5
28F43
 10
133.305
 20
316.364
 30
0.000000
  70
    32
  0
VERTEX
  8
0
  5
28F44
 10
133.276
 20
316.620
 30
0.000000
  70
    32
  0
VERTEX
  8
0
  5
28F45
 10
133.248
 20
316.876
 30
0.000000
  70
    32
  0
VERTEX
  8
0
  5
28F46
 10
133.221
 20
317.132
 30
0.000000
  70
    32
  0
VERTEX
  8
0
  5
28F47
 10
133.194
 20
317.388
 30
0.000000
  70
    32
  0
VERTEX
  8
0
  5
28F48
 10
133.169
 20
317.645
 30
0.000000
  70
    32
  0
VERTEX
  8
0
  5
28F49
 10
133.144
 20
317.901
 30
0.000000
  70
    32
  0
VERTEX
  8
0
  5
28F4A
 10
133.121
 20
318.158
 30
0.000000
  70
    32
  0
VERTEX
  8
0
  5
28F4B
 10
133.098
 20
318.415
 30
0.000000
  70
    32
  0
VERTEX
  8
0
  5
28F4C
 10
133.076
 20
318.672
 30
0.000000
  70
    32
  0
VERTEX
  8
0
  5
28F4D
 10
133.055
 20
318.929
 30
0.000000
  70
    32
  0
VERTEX
  8
0
  5
28F4E
 10
133.034
 20
319.186
 30
0.000000
  70
    32
  0
VERTEX
  8
0
  5
28F4F
 10
133.015
 20
319.444
 30
0.000000
  70
    32
  0
VERTEX
  8
0
  5
28F50
 10
132.996
 20
319.701
 30
0.000000
  70
    32
  0
VERTEX
  8
0
  5
28F51
 10
132.978
 20
319.959
 30
0.000000
  70
    32
  0
VERTEX
  8
0
  5
28F52
 10
132.962
 20
320.217
 30
0.000000
  70
    32
  0
VERTEX
  8
0
  5
28F53
 10
132.946
 20
320.474
 30
0.000000
  70
    32
  0
VERTEX
  8
0
  5
28F54
 10
132.930
 20
320.732
 30
0.000000
  70
    32
  0
VERTEX
  8
0
  5
28F55
 10
132.916
 20
320.990
 30
0.000000
  70
    32
  0
VERTEX
  8
0
  5
28F56
 10
132.903
 20
321.248
 30
0.000000
  70
    32
  0
VERTEX
  8
0
  5
28F57
 10
132.890
 20
321.506
 30
0.000000
  70
    32
  0
VERTEX
  8
0
  5
28F58
 10
132.878
 20
321.764
 30
0.000000
  70
    32
  0
VERTEX
  8
0
  5
28F59
 10
132.868
 20
322.022
 30
0.000000
  70
    32
  0
VERTEX
  8
0
  5
28F5A
 10
132.858
 20
322.281
 30
0.000000
  70
    32
  0
VERTEX
  8
0
  5
28F5B
 10
132.849
 20
322.539
 30
0.000000
  70
    32
  0
VERTEX
  8
0
  5
28F5C
 10
132.840
 20
322.797
 30
0.000000
  70
    32
  0
VERTEX
  8
0
  5
28F5D
 10
132.833
 20
323.056
 30
0.000000
  70
    32
  0
VERTEX
  8
0
  5
28F5E
 10
132.827
 20
323.314
 30
0.000000
  70
    32
  0
VERTEX
  8
0
  5
28F5F
 10
132.821
 20
323.573
 30
0.000000
  70
    32
  0
VERTEX
  8
0
  5
28F60
 10
132.816
 20
323.831
 30
0.000000
  70
    32
  0
VERTEX
  8
0
  5
28F61
 10
132.812
 20
324.090
 30
0.000000
  70
    32
  0
VERTEX
  8
0
  5
28F62
 10
132.809
 20
324.348
 30
0.000000
  70
    32
  0
VERTEX
  8
0
  5
28F63
 10
132.807
 20
324.607
 30
0.000000
  70
    32
  0
VERTEX
  8
0
  5
28F64
 10
132.806
 20
324.865
 30
0.000000
  70
    32
  0
VERTEX
  8
0
  5
28F65
 10
132.805
 20
325.124
 30
0.000000
  70
    32
  0
SEQEND
  8
0
  5
28F66
  0
LINE
  5
285BF
  8
0
 10
186.00534740767779
 20
372.38151386307197
 30
0.0
 11
186.00534740767779
 21
192.98149525098421
 31
0.0
  0
LINE
  5
285C0
  8
0
 10
183.60534729368371
 20
372.38984026264848
 30
0.0
 11
183.60534729368391
 21
192.98149525098421
 31
0.0
  0
LINE
  5
285C1
  8
0
 10
174.60534721545281
 20
372.38985466174819
 30
0.0
 11
174.60534721545281
 21
192.98149525098421
 31
0.0
  0
LINE
  5
285C2
  8
0
 10
177.00534732944669
 20
372.38152544311851
 30
0.0
 11
177.00534732944669
 21
192.98149525098421
 31
0.0
  0
LINE
  5
285C3
  8
0
 10
193.60744999654
 20
362.89209752254112
 30
0.0
 11
193.60744999654
 21
202.47088997535329
 31
0.0
  0
LINE
  5
285C4
  8
0
 10
167.00324462659071
 20
362.89209752254112
 30
0.0
 11
167.00324462659071
 21
202.47088997535329
 31
0.0
  0
LINE
  5
285C5
  8
0
 10
195.10745024240919
 20
361.2159702079735
 30
0.0
 11
195.10745024240919
 21
204.14701728992091
 31
0.0
  0
LINE
  5
285C6
  8
0
 10
165.5032443807215
 20
361.2159702079735
 30
0.0
 11
165.5032443807215
 21
204.14701728992091
 31
0.0
  0
LINE
  5
285C7
  8
0
 10
196.60745048827829
 20
356.85965298585512
 30
0.0
 11
196.60745048827829
 21
208.50333451203929
 31
0.0
  0
LINE
  5
285C8
  8
0
 10
164.00324413485231
 20
356.85965298585512
 30
0.0
 11
164.00324413485231
 21
208.50333451203929
 31
0.0
  0
LINE
  5
285C9
  8
0
 10
202.805348205635
 20
336.1794675784551
 30
0.0
 11
202.805348205635
 21
229.18351991943939
 31
0.0
  0
LINE
  5
285CA
  8
0
 10
157.80534641749571
 20
336.1794675784551
 30
0.0
 11
157.80534641749571
 21
229.18351991943939
 31
0.0
  0
LINE
  5
285CB
  8
0
 10
209.80534749037929
 20
294.2580466242872
 30
0.0
 11
209.80534749037929
 21
271.10494087360729
 31
0.0
  0
LINE
  5
285CC
  8
0
 10
150.80534713275139
 20
294.2580466242872
 30
0.0
 11
150.80534713275139
 21
271.10494087360729
 31
0.0
  0
LINE
  5
285CE
  8
0
 10
208.36430834538649
 20
295.75688737355102
 30
0.0
 11
208.36430834538649
 21
269.60610012434353
 31
0.0
  0
LINE
  5
285CF
  8
0
 10
152.24638627774419
 20
295.75688737355102
 30
0.0
 11
152.24638627774419
 21
269.60610012434353
 31
0.0
  0
LINE
  5
285D0
  8
0
 10
761.75543850052532
 20
292.6814935254298
 30
0.0
 11
762.25543765115913
 21
292.6814935254298
 31
0.0
  0
LINE
  5
285D1
  8
0
 10
821.25543800878688
 20
292.6814935254298
 30
0.0
 11
821.75543715942069
 21
292.6814935254298
 31
0.0
  0
LINE
  5
285D2
  8
0
 10
751.58320365238365
 20
271.71183909200062
 30
0.0
 11
751.05543805051025
 21
273.68149413637741
 31
0.0
  0
LINE
  5
285D3
  8
0
 10
751.05543805051025
 20
291.68149336151708
 30
0.0
 11
751.4372654049414
 21
293.10649513177498
 31
0.0
  0
LINE
  5
285D4
  8
0
 10
825.48320663857635
 20
271.71183909200062
 30
0.0
 11
824.95543731141265
 21
273.68149413637741
 31
0.0
  0
LINE
  5
285D5
  8
0
 10
834.42766962337657
 20
293.65114840589388
 30
0.0
 11
834.95543895054027
 21
291.68149336151708
 31
0.0
  0
LINE
  5
285D6
  8
0
 10
834.95543895054027
 20
273.68149413637741
 30
0.0
 11
834.42766962337657
 21
271.71183909200062
 31
0.0
  0
ARC
  5
285D7
  8
0
 10
838.75543782998761
 20
398.6814937489608
 30
0.0
 40
3.999999999986982
 50
0.0
 51
90.0
  0
ARC
  5
285D8
  8
0
 10
744.75543782996033
 20
398.6814937489608
 30
0.0
 40
3.999999999986982
 50
90.0
 51
180.0
  0
LINE
  5
285D9
  8
0
 10
842.75543687629875
 20
398.681490411087
 30
0.0
 11
842.75543687629875
 21
393.18149416617968
 31
0.0
  0
LINE
  5
285DA
  8
0
 10
740.75543878364738
 20
393.18149416617968
 30
0.0
 11
740.75543878364738
 21
398.681490411087
 31
0.0
  0
LINE
  5
285DB
  8
0
 10
839.2554372339265
 20
393.18149416617968
 30
0.0
 11
839.2554372339265
 21
325.12383042745222
 31
0.0
  0
LINE
  5
285DC
  8
0
 10
744.25543842601951
 20
325.12383042745222
 30
0.0
 11
744.25543842601951
 21
393.18149416617968
 31
0.0
  0
ARC
  5
285DD
  8
0
 10
825.75543782997397
 20
398.5564937489471
 30
0.0
 40
8.1250000000000675
 50
30.510237406109741
 51
90.0
  0
ARC
  5
285DE
  8
0
 10
757.75543782997295
 20
398.5564937489471
 30
0.0
 40
8.1250000000001261
 50
90.0
 51
149.48976259389019
  0
LINE
  5
285DF
  8
0
 10
757.75543598222907
 20
406.68149172238918
 30
0.0
 11
825.75543967771705
 21
406.68149172238918
 31
0.0
  0
ARC
  5
285E0
  8
0
 10
782.36452497629875
 20
193.6814937489477
 30
0.0
 40
1.000000000000085
 50
198.9999999999869
 51
269.99999999997391
  0
ARC
  5
285E1
  8
0
 10
782.36452497629875
 20
371.68149374894722
 30
0.0
 40
1.0000000000000531
 50
90.000000000026048
 51
161.0000000000131
  0
LINE
  5
285E2
  8
0
 10
785.755437777819
 20
192.6814901726685
 30
0.0
 11
782.36452487993415
 21
192.6814901726685
 31
0.0
  0
LINE
  5
285E3
  8
0
 10
782.36452487993415
 20
372.68149732522579
 30
0.0
 11
785.755437777819
 21
372.68149732522579
 31
0.0
  0
ARC
  5
285E4
  8
0
 10
785.75543782997386
 20
192.9814937489474
 30
0.0
 40
0.2999999999999403
 50
269.99999999997391
 51
0.0000000000195413
  0
ARC
  5
285E5
  8
0
 10
785.75543782997386
 20
372.38149374894789
 30
0.0
 40
0.2999999999998692
 50
0.0
 51
90.000000000026048
  0
ARC
  5
285E6
  8
0
 10
788.75543782997295
 20
192.9814937489474
 30
0.0
 40
0.2999999999999403
 50
179.99999999998701
 51
270.00000000002598
  0
ARC
  5
285E7
  8
0
 10
788.75543782997295
 20
372.38149374894789
 30
0.0
 40
0.2999999999998692
 50
89.999999999973952
 51
180.0
  0
LINE
  5
285E8
  8
0
 10
794.75543785605009
 20
192.6814901726685
 30
0.0
 11
788.75543780389603
 21
192.6814901726685
 31
0.0
  0
LINE
  5
285E9
  8
0
 10
788.75543780389603
 20
372.68149732522579
 30
0.0
 11
794.75543785605009
 21
372.68149732522579
 31
0.0
  0
ARC
  5
285EA
  8
0
 10
797.75543782997295
 20
192.9814937489474
 30
0.0
 40
0.2999999999999403
 50
179.99999999998701
 51
270.00000000002598
  0
ARC
  5
285EB
  8
0
 10
797.75543782997295
 20
372.38149374894789
 30
0.0
 40
0.2999999999998692
 50
90.0
 51
180.0
  0
ARC
  5
285EC
  8
0
 10
794.75543782997397
 20
192.9814937489474
 30
0.0
 40
0.2999999999999403
 50
270.0
 51
0.0000000000195413
  0
ARC
  5
285ED
  8
0
 10
794.75543782997397
 20
372.38149374894789
 30
0.0
 40
0.2999999999998692
 50
0.0
 51
90.000000000026048
  0
LINE
  5
285EE
  8
0
 10
801.14635078001186
 20
192.6814901726685
 30
0.0
 11
797.75543788212713
 21
192.6814901726685
 31
0.0
  0
LINE
  5
285EF
  8
0
 10
797.75543788212713
 20
372.68149732522579
 30
0.0
 11
801.14635078001186
 21
372.68149732522579
 31
0.0
  0
ARC
  5
285F0
  8
0
 10
801.14635068364737
 20
193.6814937489477
 30
0.0
 40
1.000000000000085
 50
270.00000000002598
 51
341.00000000001239
  0
ARC
  5
285F1
  8
0
 10
801.14635068364737
 20
371.68149374894722
 30
0.0
 40
1.0000000000000531
 50
18.999999999986901
 51
89.999999999973952
  0
LINE
  5
285F2
  8
0
 10
788.45543784785445
 20
192.98149525098421
 30
0.0
 11
786.05543773386057
 21
192.98149525098421
 31
0.0
  0
LINE
  5
285F3
  8
0
 10
786.05543773386057
 20
372.38149224691011
 30
0.0
 11
788.45543784785445
 21
372.38149224691011
 31
0.0
  0
LINE
  5
285F4
  8
0
 10
797.45543792608555
 20
192.98149525098421
 30
0.0
 11
795.05543781209167
 21
192.98149525098421
 31
0.0
  0
LINE
  5
285F5
  8
0
 10
795.05543781209167
 20
372.38149224691011
 30
0.0
 11
797.45543792608555
 21
372.38149224691011
 31
0.0
  0
LINE
  5
285F6
  8
0
 10
781.41900615531381
 20
193.35592417888259
 30
0.0
 11
778.61677946287568
 21
201.494185914322
 31
0.0
  0
LINE
  5
285F7
  8
0
 10
778.61677946287568
 20
363.86880158357241
 30
0.0
 11
781.41900615531381
 21
372.00706331901171
 31
0.0
  0
LINE
  5
285F8
  8
0
 10
802.0918695046322
 20
372.00706331901171
 30
0.0
 11
804.89409619707033
 21
363.86880158357241
 31
0.0
  0
LINE
  5
285F9
  8
0
 10
804.89409619707033
 20
201.494185914322
 30
0.0
 11
802.0918695046322
 21
193.35592417888259
 31
0.0
  0
ARC
  5
285FA
  8
0
 10
781.45333486917411
 20
202.47088894316181
 30
0.0
 40
2.999999999986906
 50
179.99999999997391
 51
199.00000000003561
  0
ARC
  5
285FB
  8
0
 10
781.45333486917411
 20
362.89209855473302
 30
0.0
 40
2.99999999998693
 50
160.99999999996439
 51
180.00000000002601
  0
ARC
  5
285FC
  8
0
 10
802.05754079077292
 20
202.47088894316181
 30
0.0
 40
2.9999999999869731
 50
340.99999999996368
 51
0.0000000000260551
  0
ARC
  5
285FD
  8
0
 10
802.05754079077292
 20
362.89209855473302
 30
0.0
 40
2.9999999999869971
 50
359.99999999997402
 51
19.000000000035602
  0
ARC
  5
285FE
  8
0
 10
777.70333486918685
 20
204.14701927417639
 30
0.0
 40
0.7500000000000285
 50
180.0
 51
0.0
  0
ARC
  5
285FF
  8
0
 10
777.70333486918685
 20
361.21596822371851
 30
0.0
 40
0.7500000000000285
 50
0.0
 51
180.0
  0
ARC
  5
28600
  8
0
 10
805.80754079075916
 20
204.14701927417639
 30
0.0
 40
0.7500000000000285
 50
180.0
 51
0.0
  0
ARC
  5
28601
  8
0
 10
805.80754079075916
 20
361.21596822371851
 30
0.0
 40
0.7500000000000285
 50
0.0
 51
180.0
  0
ARC
  5
28602
  8
0
 10
776.20333486918685
 20
208.5033355906904
 30
0.0
 40
0.7500000000000285
 50
180.0
 51
0.0
  0
ARC
  5
28603
  8
0
 10
776.20333486918685
 20
356.85965190720441
 30
0.0
 40
0.7500000000000285
 50
0.0
 51
180.0
  0
ARC
  5
28604
  8
0
 10
807.30754079075928
 20
208.5033355906904
 30
0.0
 40
0.7500000000000285
 50
180.0
 51
0.0
  0
ARC
  5
28605
  8
0
 10
807.30754079075928
 20
356.85965190720441
 30
0.0
 40
0.7500000000000285
 50
0.0
 51
180.0
  0
LINE
  5
28606
  8
0
 10
775.45333465326007
 20
210.6814968483888
 30
0.0
 11
769.41888218510326
 21
228.20681585840811
 31
0.0
  0
LINE
  5
28607
  8
0
 10
769.41888218510326
 20
337.15617163948639
 30
0.0
 11
775.45333465326007
 21
354.68149064950558
 31
0.0
  0
LINE
  5
28608
  8
0
 10
808.05754100668605
 20
354.68149064950558
 30
0.0
 11
814.09199347484275
 21
337.15617163948639
 31
0.0
  0
LINE
  5
28609
  8
0
 10
814.09199347484275
 20
228.20681585840811
 30
0.0
 11
808.05754100668605
 21
210.6814968483888
 31
0.0
  0
ARC
  5
2860A
  8
0
 10
772.25543782994851
 20
229.1835215761877
 30
0.0
 40
2.99999999997504
 50
179.99999999996089
 51
199.00000000007671
  0
ARC
  5
2860B
  8
0
 10
772.25543782994851
 20
336.17946592170722
 30
0.0
 40
2.9999999999750311
 50
160.9999999999232
 51
180.00000000004559
  0
ARC
  5
2860C
  8
0
 10
811.25543782999864
 20
229.1835215761877
 30
0.0
 40
2.999999999974972
 50
340.9999999999232
 51
0.0000000000455964
  0
ARC
  5
2860D
  8
0
 10
811.25543782999864
 20
336.17946592170722
 30
0.0
 40
2.9999999999749489
 50
359.99999999996749
 51
19.000000000076788
  0
LINE
  5
2860E
  8
0
 10
769.25543693590339
 20
269.38742185853351
 30
0.0
 11
763.69647679615196
 21
269.60610012434353
 31
0.0
  0
LINE
  5
2860F
  8
0
 10
763.69647679615196
 20
295.75688737355102
 30
0.0
 11
769.25543693590339
 21
295.97556563936098
 31
0.0
  0
LINE
  5
28610
  8
0
 10
814.25543872404262
 20
295.97556563936098
 30
0.0
 11
819.81439886379405
 21
295.75688737355102
 31
0.0
  0
LINE
  5
28611
  8
0
 10
819.81439886379405
 20
269.60610012434353
 30
0.0
 11
814.25543872404262
 21
269.38742185853351
 31
0.0
  0
ARC
  5
28612
  8
0
 10
763.75543782997579
 20
271.10494059902129
 30
0.0
 40
1.500000000002188
 50
180.0
 51
267.7472648088937
  0
ARC
  5
28613
  8
0
 10
763.75543782997579
 20
294.25804689887372
 30
0.0
 40
1.5000000000022411
 50
92.252735191106197
 51
180.0
  0
ARC
  5
28614
  8
0
 10
819.75543782997113
 20
271.10494059902129
 30
0.0
 40
1.5000000000021649
 50
272.25273519113227
 51
0.0
  0
ARC
  5
28615
  8
0
 10
819.75543782997113
 20
294.25804689887372
 30
0.0
 40
1.5000000000021649
 50
0.0
 51
87.747264808893803
  0
LINE
  5
28616
  8
0
 10
751.05543805051025
 20
291.68149336151708
 30
0.0
 11
751.05543805051025
 21
273.68149413637741
 31
0.0
  0
ARC
  5
28617
  8
0
 10
761.03991258574126
 20
274.45425275623722
 30
0.0
 40
9.8463280747719928
 50
163.82801941267289
 51
196.171980587327
  0
ARC
  5
28618
  8
0
 10
790.45986449936322
 20
282.68149374894722
 30
0.0
 40
39.261661827209203
 50
171.9695526217595
 51
188.0304473782405
  0
ARC
  5
28619
  8
0
 10
760.47786096536879
 20
290.8026882260375
 30
0.0
 40
9.2771418258928762
 50
165.5462899235273
 51
196.50976852900911
  0
LINE
  5
2861A
  8
0
 10
758.55543834853347
 20
271.71183909200062
 30
0.0
 11
751.58320365238365
 21
271.71183909200062
 31
0.0
  0
LINE
  5
2861B
  8
0
 10
758.55543834853347
 20
277.19666642047389
 30
0.0
 11
751.58320365238365
 21
277.19666642047389
 31
0.0
  0
LINE
  5
2861C
  8
0
 10
754.12684304404434
 20
288.1663210774206
 30
0.0
 11
751.58320365238365
 21
288.1663210774206
 31
0.0
  0
ARC
  5
2861D
  8
0
 10
834.93986926688308
 20
274.45425275623722
 30
0.0
 40
9.8462836020187776
 50
163.82794436498
 51
196.17205563501261
  0
POLYLINE
  5
2861E
  8
0
 66
     1
 10
0.0
 20
0.0
 30
0.0
 70
   128
  0
VERTEX
  5
28E5B
  8
0
 10
825.15778762984439
 20
282.07428126739262
 30
0.0
  0
VERTEX
  5
28E5C
  8
0
 10
825.31674949217006
 20
278.57781360767711
 30
0.0
  0
VERTEX
  5
28E5D
  8
0
 10
825.48320663857635
 20
277.19666642047389
 30
0.0
  0
SEQEND
  5
28E5E
  8
0
  0
LINE
  5
2861F
  8
0
 10
834.42766962337657
 20
277.19666642047389
 30
0.0
 11
825.48320663857635
 21
277.19666642047389
 31
0.0
  0
ARC
  5
28620
  8
0
 10
795.55638924071832
 20
282.68149374894722
 30
0.0
 40
39.256334131072663
 50
351.96845557047851
 51
8.0315444295214515
  0
LINE
  5
28621
  8
0
 10
834.42766962337657
 20
288.1663210774206
 30
0.0
 11
829.38403261590167
 21
288.1663210774206
 31
0.0
  0
ARC
  5
28622
  8
0
 10
824.84859363336466
 20
290.90873474165721
 30
0.0
 40
9.9639113569020648
 50
344.02400169002601
 51
15.97599830997399
  0
LINE
  5
28623
  8
0
 10
834.42766962337657
 20
293.65114840589388
 30
0.0
 11
832.33659339833434
 21
293.65114840589388
 31
0.0
  0
LINE
  5
28624
  8
0
 10
834.42766962337657
 20
271.71183909200062
 30
0.0
 11
825.48320663857635
 21
271.71183909200062
 31
0.0
  0
ARC
  5
28625
  8
0
 10
824.96986738213968
 20
274.45425275623722
 30
0.0
 40
9.8473781251736252
 50
343.82979116559471
 51
16.170208834405319
  0
LINE
  5
28626
  8
0
 10
834.95543895054027
 20
291.68149336151708
 30
0.0
 11
834.95543895054027
 21
273.68149413637741
 31
0.0
  0
LINE
  5
28627
  8
0
 10
838.75543622064765
 20
402.68149106673809
 30
0.0
 11
744.75543943929847
 21
402.68149106673809
 31
0.0
  0
LINE
  5
28628
  8
0
 10
842.75543687629875
 20
393.18149416617968
 30
0.0
 11
740.75543878364738
 21
393.18149416617968
 31
0.0
  0
POLYLINE
  5
28629
  8
0
 10
758.55543782997245
 20
281.81461821092364
 30
0.0
 66
     1
 70
     8
  0
VERTEX
  8
0
  5
28F67
 10
758.555
 20
281.815
 30
0.000000
  70
    32
  0
VERTEX
  8
0
  5
28F68
 10
757.322
 20
283.410
 30
0.000000
  70
    32
  0
VERTEX
  8
0
  5
28F69
 10
756.135
 20
285.062
 30
0.000000
  70
    32
  0
VERTEX
  8
0
  5
28F6A
 10
754.997
 20
286.769
 30
0.000000
  70
    32
  0
VERTEX
  8
0
  5
28F6B
 10
753.910
 20
288.529
 30
0.000000
  70
    32
  0
VERTEX
  8
0
  5
28F6C
 10
752.874
 20
290.338
 30
0.000000
  70
    32
  0
VERTEX
  8
0
  5
28F6D
 10
751.891
 20
292.195
 30
0.000000
  70
    32
  0
VERTEX
  8
0
  5
28F6E
 10
750.963
 20
294.098
 30
0.000000
  70
    32
  0
VERTEX
  8
0
  5
28F6F
 10
750.091
 20
296.042
 30
0.000000
  70
    32
  0
VERTEX
  8
0
  5
28F70
 10
749.276
 20
298.027
 30
0.000000
  70
    32
  0
VERTEX
  8
0
  5
28F71
 10
748.519
 20
300.049
 30
0.000000
  70
    32
  0
VERTEX
  8
0
  5
28F72
 10
747.821
 20
302.104
 30
0.000000
  70
    32
  0
VERTEX
  8
0
  5
28F73
 10
747.183
 20
304.192
 30
0.000000
  70
    32
  0
VERTEX
  8
0
  5
28F74
 10
746.606
 20
306.308
 30
0.000000
  70
    32
  0
VERTEX
  8
0
  5
28F75
 10
746.091
 20
308.450
 30
0.000000
  70
    32
  0
VERTEX
  8
0
  5
28F76
 10
745.639
 20
310.614
 30
0.000000
  70
    32
  0
VERTEX
  8
0
  5
28F77
 10
745.250
 20
312.799
 30
0.000000
  70
    32
  0
VERTEX
  8
0
  5
28F78
 10
744.924
 20
315.000
 30
0.000000
  70
    32
  0
VERTEX
  8
0
  5
28F79
 10
744.662
 20
317.216
 30
0.000000
  70
    32
  0
VERTEX
  8
0
  5
28F7A
 10
744.465
 20
319.442
 30
0.000000
  70
    32
  0
VERTEX
  8
0
  5
28F7B
 10
744.333
 20
321.675
 30
0.000000
  70
    32
  0
VERTEX
  8
0
  5
28F7C
 10
744.265
 20
323.914
 30
0.000000
  70
    32
  0
VERTEX
  8
0
  5
28F7D
 10
744.262
 20
326.154
 30
0.000000
  70
    32
  0
VERTEX
  8
0
  5
28F7E
 10
744.325
 20
328.393
 30
0.000000
  70
    32
  0
VERTEX
  8
0
  5
28F7F
 10
744.452
 20
330.627
 30
0.000000
  70
    32
  0
VERTEX
  8
0
  5
28F80
 10
744.644
 20
332.854
 30
0.000000
  70
    32
  0
VERTEX
  8
0
  5
28F81
 10
744.901
 20
335.070
 30
0.000000
  70
    32
  0
VERTEX
  8
0
  5
28F82
 10
745.221
 20
337.273
 30
0.000000
  70
    32
  0
VERTEX
  8
0
  5
28F83
 10
745.605
 20
339.459
 30
0.000000
  70
    32
  0
VERTEX
  8
0
  5
28F84
 10
746.053
 20
341.625
 30
0.000000
  70
    32
  0
VERTEX
  8
0
  5
28F85
 10
746.563
 20
343.769
 30
0.000000
  70
    32
  0
VERTEX
  8
0
  5
28F86
 10
747.135
 20
345.887
 30
0.000000
  70
    32
  0
VERTEX
  8
0
  5
28F87
 10
747.768
 20
347.977
 30
0.000000
  70
    32
  0
VERTEX
  8
0
  5
28F88
 10
748.461
 20
350.035
 30
0.000000
  70
    32
  0
VERTEX
  8
0
  5
28F89
 10
749.213
 20
352.060
 30
0.000000
  70
    32
  0
VERTEX
  8
0
  5
28F8A
 10
750.024
 20
354.048
 30
0.000000
  70
    32
  0
VERTEX
  8
0
  5
28F8B
 10
750.891
 20
355.996
 30
0.000000
  70
    32
  0
VERTEX
  8
0
  5
28F8C
 10
751.815
 20
357.901
 30
0.000000
  70
    32
  0
VERTEX
  8
0
  5
28F8D
 10
752.793
 20
359.762
 30
0.000000
  70
    32
  0
VERTEX
  8
0
  5
28F8E
 10
753.825
 20
361.576
 30
0.000000
  70
    32
  0
VERTEX
  8
0
  5
28F8F
 10
754.908
 20
363.339
 30
0.000000
  70
    32
  0
VERTEX
  8
0
  5
28F90
 10
756.042
 20
365.051
 30
0.000000
  70
    32
  0
VERTEX
  8
0
  5
28F91
 10
757.225
 20
366.707
 30
0.000000
  70
    32
  0
VERTEX
  8
0
  5
28F92
 10
758.455
 20
368.307
 30
0.000000
  70
    32
  0
VERTEX
  8
0
  5
28F93
 10
759.730
 20
369.848
 30
0.000000
  70
    32
  0
VERTEX
  8
0
  5
28F94
 10
761.050
 20
371.327
 30
0.000000
  70
    32
  0
VERTEX
  8
0
  5
28F95
 10
762.411
 20
372.744
 30
0.000000
  70
    32
  0
VERTEX
  8
0
  5
28F96
 10
763.813
 20
374.095
 30
0.000000
  70
    32
  0
VERTEX
  8
0
  5
28F97
 10
765.253
 20
375.379
 30
0.000000
  70
    32
  0
VERTEX
  8
0
  5
28F98
 10
766.729
 20
376.594
 30
0.000000
  70
    32
  0
VERTEX
  8
0
  5
28F99
 10
768.239
 20
377.739
 30
0.000000
  70
    32
  0
VERTEX
  8
0
  5
28F9A
 10
769.782
 20
378.812
 30
0.000000
  70
    32
  0
VERTEX
  8
0
  5
28F9B
 10
771.354
 20
379.811
 30
0.000000
  70
    32
  0
VERTEX
  8
0
  5
28F9C
 10
772.955
 20
380.736
 30
0.000000
  70
    32
  0
VERTEX
  8
0
  5
28F9D
 10
774.581
 20
381.585
 30
0.000000
  70
    32
  0
VERTEX
  8
0
  5
28F9E
 10
776.231
 20
382.356
 30
0.000000
  70
    32
  0
VERTEX
  8
0
  5
28F9F
 10
777.902
 20
383.049
 30
0.000000
  70
    32
  0
VERTEX
  8
0
  5
28FA0
 10
779.592
 20
383.662
 30
0.000000
  70
    32
  0
VERTEX
  8
0
  5
28FA1
 10
781.298
 20
384.196
 30
0.000000
  70
    32
  0
VERTEX
  8
0
  5
28FA2
 10
783.019
 20
384.648
 30
0.000000
  70
    32
  0
VERTEX
  8
0
  5
28FA3
 10
784.752
 20
385.020
 30
0.000000
  70
    32
  0
VERTEX
  8
0
  5
28FA4
 10
786.494
 20
385.309
 30
0.000000
  70
    32
  0
VERTEX
  8
0
  5
28FA5
 10
788.244
 20
385.516
 30
0.000000
  70
    32
  0
VERTEX
  8
0
  5
28FA6
 10
789.999
 20
385.640
 30
0.000000
  70
    32
  0
VERTEX
  8
0
  5
28FA7
 10
791.755
 20
385.681
 30
0.000000
  70
    32
  0
VERTEX
  8
0
  5
28FA8
 10
793.512
 20
385.640
 30
0.000000
  70
    32
  0
VERTEX
  8
0
  5
28FA9
 10
795.267
 20
385.516
 30
0.000000
  70
    32
  0
VERTEX
  8
0
  5
28FAA
 10
797.016
 20
385.309
 30
0.000000
  70
    32
  0
VERTEX
  8
0
  5
28FAB
 10
798.759
 20
385.020
 30
0.000000
  70
    32
  0
VERTEX
  8
0
  5
28FAC
 10
800.492
 20
384.648
 30
0.000000
  70
    32
  0
VERTEX
  8
0
  5
28FAD
 10
802.213
 20
384.196
 30
0.000000
  70
    32
  0
VERTEX
  8
0
  5
28FAE
 10
803.919
 20
383.662
 30
0.000000
  70
    32
  0
VERTEX
  8
0
  5
28FAF
 10
805.609
 20
383.049
 30
0.000000
  70
    32
  0
VERTEX
  8
0
  5
28FB0
 10
807.280
 20
382.356
 30
0.000000
  70
    32
  0
VERTEX
  8
0
  5
28FB1
 10
808.930
 20
381.585
 30
0.000000
  70
    32
  0
VERTEX
  8
0
  5
28FB2
 10
810.556
 20
380.736
 30
0.000000
  70
    32
  0
VERTEX
  8
0
  5
28FB3
 10
812.157
 20
379.811
 30
0.000000
  70
    32
  0
VERTEX
  8
0
  5
28FB4
 10
813.729
 20
378.812
 30
0.000000
  70
    32
  0
VERTEX
  8
0
  5
28FB5
 10
815.272
 20
377.739
 30
0.000000
  70
    32
  0
VERTEX
  8
0
  5
28FB6
 10
816.782
 20
376.594
 30
0.000000
  70
    32
  0
VERTEX
  8
0
  5
28FB7
 10
818.258
 20
375.379
 30
0.000000
  70
    32
  0
VERTEX
  8
0
  5
28FB8
 10
819.698
 20
374.095
 30
0.000000
  70
    32
  0
VERTEX
  8
0
  5
28FB9
 10
821.100
 20
372.744
 30
0.000000
  70
    32
  0
VERTEX
  8
0
  5
28FBA
 10
822.461
 20
371.327
 30
0.000000
  70
    32
  0
VERTEX
  8
0
  5
28FBB
 10
823.780
 20
369.848
 30
0.000000
  70
    32
  0
VERTEX
  8
0
  5
28FBC
 10
825.056
 20
368.307
 30
0.000000
  70
    32
  0
VERTEX
  8
0
  5
28FBD
 10
826.286
 20
366.707
 30
0.000000
  70
    32
  0
VERTEX
  8
0
  5
28FBE
 10
827.469
 20
365.051
 30
0.000000
  70
    32
  0
VERTEX
  8
0
  5
28FBF
 10
828.603
 20
363.339
 30
0.000000
  70
    32
  0
VERTEX
  8
0
  5
28FC0
 10
829.686
 20
361.576
 30
0.000000
  70
    32
  0
VERTEX
  8
0
  5
28FC1
 10
830.718
 20
359.762
 30
0.000000
  70
    32
  0
VERTEX
  8
0
  5
28FC2
 10
831.696
 20
357.901
 30
0.000000
  70
    32
  0
VERTEX
  8
0
  5
28FC3
 10
832.620
 20
355.996
 30
0.000000
  70
    32
  0
VERTEX
  8
0
  5
28FC4
 10
833.487
 20
354.048
 30
0.000000
  70
    32
  0
VERTEX
  8
0
  5
28FC5
 10
834.298
 20
352.060
 30
0.000000
  70
    32
  0
VERTEX
  8
0
  5
28FC6
 10
835.050
 20
350.035
 30
0.000000
  70
    32
  0
VERTEX
  8
0
  5
28FC7
 10
835.743
 20
347.977
 30
0.000000
  70
    32
  0
VERTEX
  8
0
  5
28FC8
 10
836.376
 20
345.887
 30
0.000000
  70
    32
  0
VERTEX
  8
0
  5
28FC9
 10
836.948
 20
343.769
 30
0.000000
  70
    32
  0
VERTEX
  8
0
  5
28FCA
 10
837.458
 20
341.625
 30
0.000000
  70
    32
  0
VERTEX
  8
0
  5
28FCB
 10
837.905
 20
339.459
 30
0.000000
  70
    32
  0
VERTEX
  8
0
  5
28FCC
 10
838.290
 20
337.273
 30
0.000000
  70
    32
  0
VERTEX
  8
0
  5
28FCD
 10
838.610
 20
335.070
 30
0.000000
  70
    32
  0
VERTEX
  8
0
  5
28FCE
 10
838.867
 20
332.854
 30
0.000000
  70
    32
  0
VERTEX
  8
0
  5
28FCF
 10
839.059
 20
330.627
 30
0.000000
  70
    32
  0
VERTEX
  8
0
  5
28FD0
 10
839.186
 20
328.393
 30
0.000000
  70
    32
  0
VERTEX
  8
0
  5
28FD1
 10
839.249
 20
326.154
 30
0.000000
  70
    32
  0
VERTEX
  8
0
  5
28FD2
 10
839.246
 20
323.914
 30
0.000000
  70
    32
  0
VERTEX
  8
0
  5
28FD3
 10
839.178
 20
321.675
 30
0.000000
  70
    32
  0
VERTEX
  8
0
  5
28FD4
 10
839.046
 20
319.442
 30
0.000000
  70
    32
  0
VERTEX
  8
0
  5
28FD5
 10
838.849
 20
317.216
 30
0.000000
  70
    32
  0
VERTEX
  8
0
  5
28FD6
 10
838.587
 20
315.000
 30
0.000000
  70
    32
  0
VERTEX
  8
0
  5
28FD7
 10
838.261
 20
312.799
 30
0.000000
  70
    32
  0
VERTEX
  8
0
  5
28FD8
 10
837.872
 20
310.614
 30
0.000000
  70
    32
  0
VERTEX
  8
0
  5
28FD9
 10
837.419
 20
308.450
 30
0.000000
  70
    32
  0
VERTEX
  8
0
  5
28FDA
 10
836.904
 20
306.308
 30
0.000000
  70
    32
  0
VERTEX
  8
0
  5
28FDB
 10
836.328
 20
304.192
 30
0.000000
  70
    32
  0
VERTEX
  8
0
  5
28FDC
 10
835.690
 20
302.104
 30
0.000000
  70
    32
  0
VERTEX
  8
0
  5
28FDD
 10
834.992
 20
300.049
 30
0.000000
  70
    32
  0
VERTEX
  8
0
  5
28FDE
 10
834.235
 20
298.027
 30
0.000000
  70
    32
  0
VERTEX
  8
0
  5
28FDF
 10
833.420
 20
296.042
 30
0.000000
  70
    32
  0
VERTEX
  8
0
  5
28FE0
 10
832.548
 20
294.098
 30
0.000000
  70
    32
  0
VERTEX
  8
0
  5
28FE1
 10
831.620
 20
292.195
 30
0.000000
  70
    32
  0
VERTEX
  8
0
  5
28FE2
 10
830.637
 20
290.338
 30
0.000000
  70
    32
  0
VERTEX
  8
0
  5
28FE3
 10
829.601
 20
288.529
 30
0.000000
  70
    32
  0
VERTEX
  8
0
  5
28FE4
 10
828.514
 20
286.769
 30
0.000000
  70
    32
  0
VERTEX
  8
0
  5
28FE5
 10
827.376
 20
285.062
 30
0.000000
  70
    32
  0
VERTEX
  8
0
  5
28FE6
 10
826.189
 20
283.410
 30
0.000000
  70
    32
  0
VERTEX
  8
0
  5
28FE7
 10
824.955
 20
281.815
 30
0.000000
  70
    32
  0
SEQEND
  8
0
  5
28FE8
  0
LINE
  5
2862A
  8
0
 10
758.55543834853347
 20
271.71183909200062
 30
0.0
 11
758.55543834853347
 21
281.8146182308339
 31
0.0
  0
LINE
  5
2862B
  8
0
 10
761.75543850052532
 20
276.50978901334031
 30
0.0
 11
758.55543834853347
 21
276.50978901334031
 31
0.0
  0
POLYLINE
  5
2862C
  8
0
 10
761.75543782997261
 20
283.56742988472939
 30
0.0
 66
     1
 70
     8
  0
VERTEX
  8
0
  5
28FE9
 10
761.755
 20
283.567
 30
0.000000
  70
    32
  0
VERTEX
  8
0
  5
28FEA
 10
760.556
 20
285.029
 30
0.000000
  70
    32
  0
VERTEX
  8
0
  5
28FEB
 10
759.400
 20
286.547
 30
0.000000
  70
    32
  0
VERTEX
  8
0
  5
28FEC
 10
758.289
 20
288.119
 30
0.000000
  70
    32
  0
VERTEX
  8
0
  5
28FED
 10
757.225
 20
289.743
 30
0.000000
  70
    32
  0
VERTEX
  8
0
  5
28FEE
 10
756.210
 20
291.417
 30
0.000000
  70
    32
  0
VERTEX
  8
0
  5
28FEF
 10
755.245
 20
293.138
 30
0.000000
  70
    32
  0
VERTEX
  8
0
  5
28FF0
 10
754.331
 20
294.904
 30
0.000000
  70
    32
  0
VERTEX
  8
0
  5
28FF1
 10
753.469
 20
296.712
 30
0.000000
  70
    32
  0
VERTEX
  8
0
  5
28FF2
 10
752.661
 20
298.560
 30
0.000000
  70
    32
  0
VERTEX
  8
0
  5
28FF3
 10
751.908
 20
300.445
 30
0.000000
  70
    32
  0
VERTEX
  8
0
  5
28FF4
 10
751.211
 20
302.365
 30
0.000000
  70
    32
  0
VERTEX
  8
0
  5
28FF5
 10
750.571
 20
304.317
 30
0.000000
  70
    32
  0
VERTEX
  8
0
  5
28FF6
 10
749.989
 20
306.299
 30
0.000000
  70
    32
  0
VERTEX
  8
0
  5
28FF7
 10
749.465
 20
308.306
 30
0.000000
  70
    32
  0
VERTEX
  8
0
  5
28FF8
 10
749.001
 20
310.337
 30
0.000000
  70
    32
  0
VERTEX
  8
0
  5
28FF9
 10
748.596
 20
312.389
 30
0.000000
  70
    32
  0
VERTEX
  8
0
  5
28FFA
 10
748.252
 20
314.459
 30
0.000000
  70
    32
  0
VERTEX
  8
0
  5
28FFB
 10
747.970
 20
316.544
 30
0.000000
  70
    32
  0
VERTEX
  8
0
  5
28FFC
 10
747.748
 20
318.641
 30
0.000000
  70
    32
  0
VERTEX
  8
0
  5
28FFD
 10
747.589
 20
320.747
 30
0.000000
  70
    32
  0
VERTEX
  8
0
  5
28FFE
 10
747.491
 20
322.859
 30
0.000000
  70
    32
  0
VERTEX
  8
0
  5
28FFF
 10
747.456
 20
324.974
 30
0.000000
  70
    32
  0
VERTEX
  8
0
  5
29000
 10
747.482
 20
327.089
 30
0.000000
  70
    32
  0
VERTEX
  8
0
  5
29001
 10
747.571
 20
329.202
 30
0.000000
  70
    32
  0
VERTEX
  8
0
  5
29002
 10
747.722
 20
331.309
 30
0.000000
  70
    32
  0
VERTEX
  8
0
  5
29003
 10
747.934
 20
333.407
 30
0.000000
  70
    32
  0
VERTEX
  8
0
  5
29004
 10
748.209
 20
335.494
 30
0.000000
  70
    32
  0
VERTEX
  8
0
  5
29005
 10
748.544
 20
337.566
 30
0.000000
  70
    32
  0
VERTEX
  8
0
  5
29006
 10
748.940
 20
339.621
 30
0.000000
  70
    32
  0
VERTEX
  8
0
  5
29007
 10
749.396
 20
341.655
 30
0.000000
  70
    32
  0
VERTEX
  8
0
  5
29008
 10
749.911
 20
343.666
 30
0.000000
  70
    32
  0
VERTEX
  8
0
  5
29009
 10
750.485
 20
345.651
 30
0.000000
  70
    32
  0
VERTEX
  8
0
  5
2900A
 10
751.117
 20
347.607
 30
0.000000
  70
    32
  0
VERTEX
  8
0
  5
2900B
 10
751.806
 20
349.532
 30
0.000000
  70
    32
  0
VERTEX
  8
0
  5
2900C
 10
752.551
 20
351.423
 30
0.000000
  70
    32
  0
VERTEX
  8
0
  5
2900D
 10
753.351
 20
353.276
 30
0.000000
  70
    32
  0
VERTEX
  8
0
  5
2900E
 10
754.205
 20
355.090
 30
0.000000
  70
    32
  0
VERTEX
  8
0
  5
2900F
 10
755.112
 20
356.862
 30
0.000000
  70
    32
  0
VERTEX
  8
0
  5
29010
 10
756.070
 20
358.590
 30
0.000000
  70
    32
  0
VERTEX
  8
0
  5
29011
 10
757.078
 20
360.270
 30
0.000000
  70
    32
  0
VERTEX
  8
0
  5
29012
 10
758.135
 20
361.901
 30
0.000000
  70
    32
  0
VERTEX
  8
0
  5
29013
 10
759.239
 20
363.481
 30
0.000000
  70
    32
  0
VERTEX
  8
0
  5
29014
 10
760.389
 20
365.007
 30
0.000000
  70
    32
  0
VERTEX
  8
0
  5
29015
 10
761.583
 20
366.477
 30
0.000000
  70
    32
  0
VERTEX
  8
0
  5
29016
 10
762.819
 20
367.888
 30
0.000000
  70
    32
  0
VERTEX
  8
0
  5
29017
 10
764.095
 20
369.240
 30
0.000000
  70
    32
  0
VERTEX
  8
0
  5
29018
 10
765.411
 20
370.530
 30
0.000000
  70
    32
  0
VERTEX
  8
0
  5
29019
 10
766.763
 20
371.756
 30
0.000000
  70
    32
  0
VERTEX
  8
0
  5
2901A
 10
768.151
 20
372.917
 30
0.000000
  70
    32
  0
VERTEX
  8
0
  5
2901B
 10
769.571
 20
374.010
 30
0.000000
  70
    32
  0
VERTEX
  8
0
  5
2901C
 10
771.023
 20
375.035
 30
0.000000
  70
    32
  0
VERTEX
  8
0
  5
2901D
 10
772.504
 20
375.990
 30
0.000000
  70
    32
  0
VERTEX
  8
0
  5
2901E
 10
774.012
 20
376.874
 30
0.000000
  70
    32
  0
VERTEX
  8
0
  5
2901F
 10
775.545
 20
377.685
 30
0.000000
  70
    32
  0
VERTEX
  8
0
  5
29020
 10
777.100
 20
378.422
 30
0.000000
  70
    32
  0
VERTEX
  8
0
  5
29021
 10
778.676
 20
379.084
 30
0.000000
  70
    32
  0
VERTEX
  8
0
  5
29022
 10
780.271
 20
379.671
 30
0.000000
  70
    32
  0
VERTEX
  8
0
  5
29023
 10
781.881
 20
380.181
 30
0.000000
  70
    32
  0
VERTEX
  8
0
  5
29024
 10
783.506
 20
380.614
 30
0.000000
  70
    32
  0
VERTEX
  8
0
  5
29025
 10
785.142
 20
380.969
 30
0.000000
  70
    32
  0
VERTEX
  8
0
  5
29026
 10
786.787
 20
381.245
 30
0.000000
  70
    32
  0
VERTEX
  8
0
  5
29027
 10
788.439
 20
381.443
 30
0.000000
  70
    32
  0
VERTEX
  8
0
  5
29028
 10
790.096
 20
381.562
 30
0.000000
  70
    32
  0
VERTEX
  8
0
  5
29029
 10
791.755
 20
381.602
 30
0.000000
  70
    32
  0
VERTEX
  8
0
  5
2902A
 10
793.415
 20
381.562
 30
0.000000
  70
    32
  0
VERTEX
  8
0
  5
2902B
 10
795.072
 20
381.443
 30
0.000000
  70
    32
  0
VERTEX
  8
0
  5
2902C
 10
796.724
 20
381.245
 30
0.000000
  70
    32
  0
VERTEX
  8
0
  5
2902D
 10
798.369
 20
380.969
 30
0.000000
  70
    32
  0
VERTEX
  8
0
  5
2902E
 10
800.005
 20
380.614
 30
0.000000
  70
    32
  0
VERTEX
  8
0
  5
2902F
 10
801.629
 20
380.181
 30
0.000000
  70
    32
  0
VERTEX
  8
0
  5
29030
 10
803.240
 20
379.671
 30
0.000000
  70
    32
  0
VERTEX
  8
0
  5
29031
 10
804.835
 20
379.084
 30
0.000000
  70
    32
  0
VERTEX
  8
0
  5
29032
 10
806.411
 20
378.422
 30
0.000000
  70
    32
  0
VERTEX
  8
0
  5
29033
 10
807.966
 20
377.685
 30
0.000000
  70
    32
  0
VERTEX
  8
0
  5
29034
 10
809.499
 20
376.874
 30
0.000000
  70
    32
  0
VERTEX
  8
0
  5
29035
 10
811.007
 20
375.990
 30
0.000000
  70
    32
  0
VERTEX
  8
0
  5
29036
 10
812.488
 20
375.035
 30
0.000000
  70
    32
  0
VERTEX
  8
0
  5
29037
 10
813.939
 20
374.010
 30
0.000000
  70
    32
  0
VERTEX
  8
0
  5
29038
 10
815.360
 20
372.917
 30
0.000000
  70
    32
  0
VERTEX
  8
0
  5
29039
 10
816.748
 20
371.756
 30
0.000000
  70
    32
  0
VERTEX
  8
0
  5
2903A
 10
818.100
 20
370.530
 30
0.000000
  70
    32
  0
VERTEX
  8
0
  5
2903B
 10
819.415
 20
369.240
 30
0.000000
  70
    32
  0
VERTEX
  8
0
  5
2903C
 10
820.692
 20
367.888
 30
0.000000
  70
    32
  0
VERTEX
  8
0
  5
2903D
 10
821.928
 20
366.477
 30
0.000000
  70
    32
  0
VERTEX
  8
0
  5
2903E
 10
823.122
 20
365.007
 30
0.000000
  70
    32
  0
VERTEX
  8
0
  5
2903F
 10
824.272
 20
363.481
 30
0.000000
  70
    32
  0
VERTEX
  8
0
  5
29040
 10
825.376
 20
361.901
 30
0.000000
  70
    32
  0
VERTEX
  8
0
  5
29041
 10
826.432
 20
360.270
 30
0.000000
  70
    32
  0
VERTEX
  8
0
  5
29042
 10
827.441
 20
358.590
 30
0.000000
  70
    32
  0
VERTEX
  8
0
  5
29043
 10
828.399
 20
356.862
 30
0.000000
  70
    32
  0
VERTEX
  8
0
  5
29044
 10
829.305
 20
355.090
 30
0.000000
  70
    32
  0
VERTEX
  8
0
  5
29045
 10
830.160
 20
353.276
 30
0.000000
  70
    32
  0
VERTEX
  8
0
  5
29046
 10
830.960
 20
351.423
 30
0.000000
  70
    32
  0
VERTEX
  8
0
  5
29047
 10
831.705
 20
349.532
 30
0.000000
  70
    32
  0
VERTEX
  8
0
  5
29048
 10
832.394
 20
347.607
 30
0.000000
  70
    32
  0
VERTEX
  8
0
  5
29049
 10
833.026
 20
345.651
 30
0.000000
  70
    32
  0
VERTEX
  8
0
  5
2904A
 10
833.600
 20
343.666
 30
0.000000
  70
    32
  0
VERTEX
  8
0
  5
2904B
 10
834.115
 20
341.655
 30
0.000000
  70
    32
  0
VERTEX
  8
0
  5
2904C
 10
834.571
 20
339.621
 30
0.000000
  70
    32
  0
VERTEX
  8
0
  5
2904D
 10
834.967
 20
337.566
 30
0.000000
  70
    32
  0
VERTEX
  8
0
  5
2904E
 10
835.302
 20
335.494
 30
0.000000
  70
    32
  0
VERTEX
  8
0
  5
2904F
 10
835.576
 20
333.407
 30
0.000000
  70
    32
  0
VERTEX
  8
0
  5
29050
 10
835.789
 20
331.309
 30
0.000000
  70
    32
  0
VERTEX
  8
0
  5
29051
 10
835.940
 20
329.202
 30
0.000000
  70
    32
  0
VERTEX
  8
0
  5
29052
 10
836.029
 20
327.089
 30
0.000000
  70
    32
  0
VERTEX
  8
0
  5
29053
 10
836.055
 20
324.974
 30
0.000000
  70
    32
  0
VERTEX
  8
0
  5
29054
 10
836.020
 20
322.859
 30
0.000000
  70
    32
  0
VERTEX
  8
0
  5
29055
 10
835.922
 20
320.747
 30
0.000000
  70
    32
  0
VERTEX
  8
0
  5
29056
 10
835.763
 20
318.641
 30
0.000000
  70
    32
  0
VERTEX
  8
0
  5
29057
 10
835.541
 20
316.544
 30
0.000000
  70
    32
  0
VERTEX
  8
0
  5
29058
 10
835.258
 20
314.459
 30
0.000000
  70
    32
  0
VERTEX
  8
0
  5
29059
 10
834.915
 20
312.389
 30
0.000000
  70
    32
  0
VERTEX
  8
0
  5
2905A
 10
834.510
 20
310.337
 30
0.000000
  70
    32
  0
VERTEX
  8
0
  5
2905B
 10
834.046
 20
308.306
 30
0.000000
  70
    32
  0
VERTEX
  8
0
  5
2905C
 10
833.522
 20
306.299
 30
0.000000
  70
    32
  0
VERTEX
  8
0
  5
2905D
 10
832.940
 20
304.317
 30
0.000000
  70
    32
  0
VERTEX
  8
0
  5
2905E
 10
832.300
 20
302.365
 30
0.000000
  70
    32
  0
VERTEX
  8
0
  5
2905F
 10
831.603
 20
300.445
 30
0.000000
  70
    32
  0
VERTEX
  8
0
  5
29060
 10
830.850
 20
298.560
 30
0.000000
  70
    32
  0
VERTEX
  8
0
  5
29061
 10
830.042
 20
296.712
 30
0.000000
  70
    32
  0
VERTEX
  8
0
  5
29062
 10
829.180
 20
294.904
 30
0.000000
  70
    32
  0
VERTEX
  8
0
  5
29063
 10
828.266
 20
293.138
 30
0.000000
  70
    32
  0
VERTEX
  8
0
  5
29064
 10
827.301
 20
291.417
 30
0.000000
  70
    32
  0
VERTEX
  8
0
  5
29065
 10
826.286
 20
289.743
 30
0.000000
  70
    32
  0
VERTEX
  8
0
  5
29066
 10
825.222
 20
288.119
 30
0.000000
  70
    32
  0
VERTEX
  8
0
  5
29067
 10
824.111
 20
286.547
 30
0.000000
  70
    32
  0
VERTEX
  8
0
  5
29068
 10
822.955
 20
285.029
 30
0.000000
  70
    32
  0
VERTEX
  8
0
  5
29069
 10
821.755
 20
283.567
 30
0.000000
  70
    32
  0
SEQEND
  8
0
  5
2906A
  0
LINE
  5
2862D
  8
0
 10
824.95543731141265
 20
276.50978901334031
 30
0.0
 11
821.75543715942069
 21
276.50978901334031
 31
0.0
  0
LINE
  5
2862E
  8
0
 10
761.75543850052532
 20
366.68023346833797
 30
0.0
 11
761.75543850052532
 21
272.68149397246469
 31
0.0
  0
LINE
  5
2862F
  8
0
 10
821.75543715942069
 20
272.68149397246469
 30
0.0
 11
821.75543715942069
 21
366.68023346833797
 31
0.0
  0
LINE
  5
28630
  8
0
 10
762.25543765115913
 20
272.68149397246469
 30
0.0
 11
758.55543834853347
 21
272.68149397246469
 31
0.0
  0
LINE
  5
28631
  8
0
 10
824.95543731141265
 20
272.68149397246469
 30
0.0
 11
821.25543800878688
 21
272.68149397246469
 31
0.0
  0
LINE
  5
28632
  8
0
 10
824.95543731141265
 20
272.68149397246469
 30
0.0
 11
824.9554378299722
 21
281.8146182109225
 31
0.0
  0
LINE
  5
28638
  8
0
 10
786.05543773386262
 20
192.9814952509841
 30
0.0
 11
786.05543773386057
 21
372.38149224691011
 31
0.0
  0
LINE
  5
28639
  8
0
 10
788.4554378478565
 20
192.9814952509841
 30
0.0
 11
788.45543784785445
 21
372.38149224691011
 31
0.0
  0
LINE
  5
2863A
  8
0
 10
797.45543792608726
 20
192.9814952509841
 30
0.0
 11
797.45543792608555
 21
372.38149224691011
 31
0.0
  0
LINE
  5
2863B
  8
0
 10
795.05543781209178
 20
192.9814952509841
 30
0.0
 11
795.05543781209167
 21
372.38149224691011
 31
0.0
  0
LINE
  5
2863C
  8
0
 10
778.45333514499839
 20
202.46960252676831
 30
0.0
 11
778.45333514499839
 21
362.89209752254112
 31
0.0
  0
LINE
  5
2863D
  8
0
 10
805.05754051494978
 20
202.4696025291511
 30
0.0
 11
805.05754051494762
 21
362.89209752254112
 31
0.0
  0
LINE
  5
2863E
  8
0
 10
776.95333489912935
 20
204.14680734486231
 30
0.0
 11
776.95333489912923
 21
361.2159702079735
 31
0.0
  0
LINE
  5
2863F
  8
0
 10
806.55754076081655
 20
204.14680734486231
 30
0.0
 11
806.55754076081678
 21
361.2159702079735
 31
0.0
  0
LINE
  5
28640
  8
0
 10
775.45333486918685
 20
208.5033355906904
 30
0.0
 11
775.45333465326007
 21
356.85965298585512
 31
0.0
  0
LINE
  5
28641
  8
0
 10
808.05754079075928
 20
208.5033355906904
 30
0.0
 11
808.05754100668605
 21
356.85965298585512
 31
0.0
  0
LINE
  5
28642
  8
0
 10
769.2554378299734
 20
229.18352155111941
 30
0.0
 11
769.25543693590339
 21
336.1794675784551
 31
0.0
  0
LINE
  5
28643
  8
0
 10
814.25543782997352
 20
229.18352155111941
 30
0.0
 11
814.25543872404262
 21
336.1794675784551
 31
0.0
  0
LINE
  5
28644
  8
0
 10
762.25543782997352
 20
271.10494059902129
 30
0.0
 11
762.25543765115913
 21
294.2580466242872
 31
0.0
  0
LINE
  5
28645
  8
0
 10
821.25543782997352
 20
271.10494059902129
 30
0.0
 11
821.25543800878688
 21
294.2580466242872
 31
0.0
  0
LINE
  5
28647
  8
0
 10
763.69647679615196
 20
269.60610012434353
 30
0.0
 11
763.69647679615196
 21
295.75688737355102
 31
0.0
  0
LINE
  5
28648
  8
0
 10
819.81439886379405
 20
269.60610012434353
 30
0.0
 11
819.81439886379405
 21
295.75688737355102
 31
0.0
  0
LINE
  5
28649
  8
0
 10
495.53039226529398
 20
587.98051491522494
 30
0.0
 11
495.0303921833376
 21
587.84654230022136
 31
0.0
  0
LINE
  5
2864A
  8
0
 10
477.03039295819798
 20
587.84654230022136
 30
0.0
 11
476.53039287624159
 21
587.98051491522494
 31
0.0
  0
LINE
  5
2864B
  8
0
 10
495.53039226529398
 20
661.88051790141765
 30
0.0
 11
495.0303921833376
 21
661.74654156112376
 31
0.0
  0
LINE
  5
2864C
  8
0
 10
477.03039295819798
 20
661.74654156112376
 30
0.0
 11
476.53039287624159
 21
661.88051790141765
 31
0.0
  0
LINE
  5
2864D
  8
0
 10
476.53039287624159
 20
671.61256685995772
 30
0.0
 11
477.03039295819798
 21
671.74654320025161
 31
0.0
  0
LINE
  5
2864E
  8
0
 10
495.0303921833376
 20
671.74654320025161
 30
0.0
 11
495.53039226529398
 21
671.61256685995772
 31
0.0
  0
ARC
  5
2865E
  8
0
 10
490.78039241803089
 20
617.40902636310204
 30
0.0
 40
29.420696365975989
 50
260.70887449287602
 51
279.29112550712392
  0
LINE
  5
2865F
  8
0
 10
495.53039226529398
 20
595.3465425982447
 30
0.0
 11
495.53039226529398
 21
588.37430790209476
 31
0.0
  0
LINE
  5
28660
  8
0
 10
486.03039257076779
 20
595.3465425982447
 30
0.0
 11
486.03039257076779
 21
588.37430790209476
 31
0.0
  0
ARC
  5
28661
  8
0
 10
481.28039272350469
 20
617.09459011629826
 30
0.0
 40
29.110429557333969
 50
260.60895562835782
 51
279.39104437164218
  0
LINE
  5
28662
  8
0
 10
476.53039287624159
 20
595.3465425982447
 30
0.0
 11
476.53039287624159
 21
588.37430790209476
 31
0.0
  0
LINE
  5
28663
  8
0
 10
477.03039295819798
 20
587.84654230022136
 30
0.0
 11
495.0303921833376
 21
587.84654230022136
 31
0.0
  0
LINE
  5
28664
  8
0
 10
476.53039287624159
 20
588.37430790209476
 30
0.0
 11
476.53039287624159
 21
587.98662066602424
 31
0.0
  0
LINE
  5
28665
  8
0
 10
495.53039226529398
 20
588.37430790209476
 30
0.0
 11
495.53039226529398
 21
587.98804372691825
 31
0.0
  0
ARC
  5
28666
  8
0
 10
481.28039272350469
 20
690.99445604894777
 30
0.0
 40
29.110294340635011
 50
260.60891161229159
 51
279.39108838770841
  0
LINE
  5
28667
  8
0
 10
486.03039257076779
 20
671.21877387308791
 30
0.0
 11
486.03039257076779
 21
662.27431088828746
 31
0.0
  0
ARC
  5
28668
  8
0
 10
481.28039272350469
 20
642.50155031028476
 30
0.0
 40
29.107411903242561
 50
80.607973215571946
 51
99.39202678442804
  0
LINE
  5
28669
  8
0
 10
476.53039287624159
 20
671.21877387308791
 30
0.0
 11
476.53039287624159
 21
662.27431088828746
 31
0.0
  0
ARC
  5
2866A
  8
0
 10
490.78039241803089
 20
691.30861307191515
 30
0.0
 40
29.420285549926621
 50
260.70874360505991
 51
279.29125639494009
  0
LINE
  5
2866B
  8
0
 10
495.53039226529398
 20
671.21877387308791
 30
0.0
 11
495.53039226529398
 21
662.27431088828746
 31
0.0
  0
ARC
  5
2866C
  8
0
 10
490.78039241803089
 20
642.18894579905248
 30
0.0
 40
29.41587014788195
 50
80.707336604529715
 51
99.292663395470299
  0
LINE
  5
2866D
  8
0
 10
476.53039287624159
 20
662.27431088828746
 30
0.0
 11
476.53039287624159
 21
661.88661992692664
 31
0.0
  0
LINE
  5
2866E
  8
0
 10
495.53039226529398
 20
662.27431088828746
 30
0.0
 11
495.53039226529398
 21
661.88804671311095
 31
0.0
  0
LINE
  5
2866F
  8
0
 10
477.03039295819798
 20
671.74654320025161
 30
0.0
 11
495.0303921833376
 21
671.74654320025161
 31
0.0
  0
LINE
  5
28670
  8
0
 10
476.53039287624159
 20
671.21877387308791
 30
0.0
 11
476.53039287624159
 21
671.60503804826453
 31
0.0
  0
LINE
  5
28671
  8
0
 10
495.53039226529398
 20
671.21877387308791
 30
0.0
 11
495.53039226529398
 21
671.60646483444884
 31
0.0
  0
CIRCLE
  5
28672
  8
0
 10
542.03039257076784
 20
628.54654207968474
 30
0.0
 40
40.999999999999943
  0
CIRCLE
  5
28673
  8
0
 10
542.03039257076784
 20
628.54654207968474
 30
0.0
 40
26.999999999999961
  0
CIRCLE
  5
28674
  8
0
 10
542.03039257076784
 20
628.54654207968474
 30
0.0
 40
10.0
  0
CIRCLE
  5
28675
  8
0
 10
542.03039257076784
 20
628.54654207968474
 30
0.0
 40
20.0
  0
CIRCLE
  5
28676
  8
0
 10
542.03039257076784
 20
628.54654207968474
 30
0.0
 40
50.999999999999972
  0
CIRCLE
  5
28677
  8
0
 10
542.03039257076784
 20
628.54654207968474
 30
0.0
 40
47.000000000012989
  0
LINE
  5
2867E
  8
0
 10
550.24684242752585
 20
622.84654198357202
 30
0.0
 11
533.81394617107912
 21
622.84654198357202
 31
0.0
  0
LINE
  5
28680
  8
0
 10
551.47020540979895
 20
625.24654209756591
 30
0.0
 11
532.59058318880602
 21
625.24654209756591
 31
0.0
  0
LINE
  5
28682
  8
0
 10
550.24684242752585
 20
634.246542175797
 30
0.0
 11
533.81394617107912
 21
634.246542175797
 31
0.0
  0
LINE
  5
28684
  8
0
 10
551.47020540979895
 20
631.84654206180312
 30
0.0
 11
532.59058318880602
 21
631.84654206180312
 31
0.0
  0
LINE
  5
28686
  8
0
 10
545.46707145718142
 20
619.1556291296456
 30
0.0
 11
538.59371341613326
 21
619.1556291296456
 31
0.0
  0
LINE
  5
28688
  8
0
 10
545.46707145718142
 20
637.93745502972342
 30
0.0
 11
538.59371341613326
 21
637.93745502972342
 31
0.0
  0
ARC
  5
2868A
  8
0
 10
486.03039257076779
 20
282.68149017266802
 30
0.0
 40
72.0
 50
94.324050967919234
 51
37.520907750893087
  0
ARC
  5
2868B
  8
0
 10
486.03039257076779
 20
282.68149017266802
 30
0.0
 40
74.92815815825702
 50
93.767285366436766
 51
38.093805346092957
  0
ARC
  5
2868C
  8
0
 10
486.03039257076779
 20
282.68149017266802
 30
0.0
 40
79.284474474771059
 50
93.017105712313551
 51
38.865599275703559
  0
ARC
  5
2868D
  8
0
 10
486.03039257076779
 20
282.68149017266802
 30
0.0
 40
90.0
 50
91.487569841705323
 51
40.438805869609268
  0
LINE
  5
2868E
  8
0
 10
486.03039257076779
 20
293.65114482961462
 30
0.0
 11
495.53039226529398
 21
288.16631750114129
 31
0.0
  0
LINE
  5
2868F
  8
0
 10
495.53039226529398
 20
288.16631750114129
 30
0.0
 11
495.53039226529398
 21
277.19666284419458
 31
0.0
  0
LINE
  5
28690
  8
0
 10
495.53039226529398
 20
277.19666284419458
 30
0.0
 11
486.03039257076779
 21
271.7118355157213
 31
0.0
  0
LINE
  5
28691
  8
0
 10
486.03039257076779
 20
271.7118355157213
 30
0.0
 11
476.53039287624159
 21
277.19666284419458
 31
0.0
  0
LINE
  5
28692
  8
0
 10
476.53039287624159
 20
277.19666284419458
 30
0.0
 11
476.53039287624159
 21
288.16631750114129
 31
0.0
  0
LINE
  5
28693
  8
0
 10
476.53039287624159
 20
288.16631750114129
 30
0.0
 11
486.03039257076779
 21
293.65114482961462
 31
0.0
  0
LINE
  5
2869D
  8
1
 10
376.83838318214498
 20
628.54654207968474
 30
0.0
 11
602.24347565950598
 21
628.54654207968474
 31
0.0
  0
LINE
  5
2869E
  8
1
 10
542.03039257076784
 20
688.75962516842378
 30
0.0
 11
542.03039257076784
 21
568.33345899094661
 31
0.0
  0
LINE
  5
2869F
  8
1
 10
486.03039257076779
 20
683.03911341775176
 30
0.0
 11
486.03039257076779
 21
574.0539707416176
 31
0.0
  0
LINE
  5
286A6
  8
1
 10
234.79791864963161
 20
282.68149017266848
 30
0.0
 11
125.8127759734973
 21
282.68149017266848
 31
0.0
  0
LINE
  5
286A7
  8
1
 10
180.3053473115653
 20
173.48948078404561
 30
0.0
 11
180.3053473115653
 21
425.87349956129179
 31
0.0
  0
LINE
  5
286A8
  8
1
 10
542.03039257076728
 20
425.87349956129083
 30
0.0
 11
542.03039257076728
 21
347.66949424508857
 31
0.0
  0
LINE
  5
286A9
  8
1
 10
376.83838318214453
 20
282.68149017266802
 30
0.0
 11
595.22240195939105
 21
282.68149017266802
 31
0.0
  0
LINE
  5
286AA
  8
1
 10
486.03039257076739
 20
173.48948078404459
 30
0.0
 11
486.03039257076739
 21
374.5606234970237
 31
0.0
  0
LINE
  5
286B4
  8
1
 10
846.24800916804008
 20
282.68149553708668
 30
0.0
 11
737.26286649190592
 21
282.68149553708668
 31
0.0
  0
LINE
  5
286B5
  8
1
 10
791.75543782997386
 20
173.4894861484633
 30
0.0
 11
791.75543782997386
 21
425.87350492570948
 31
0.0
  0
LINE
  5
286B6
  8
0
 10
480.03039257076779
 20
673.34654081010535
 30
0.0
 11
492.03039257076779
 21
673.34654081010513
 31
0.0
  0
LINE
  5
286B7
  8
0
 10
490.03039257076779
 20
675.34654081010513
 30
0.0
 11
492.03039257076779
 21
673.34654081010513
 31
0.0
  0
LINE
  5
286B8
  8
0
 10
482.03039257076779
 20
675.34654081010535
 30
0.0
 11
480.03039257076779
 21
673.34654081010535
 31
0.0
  0
LINE
  5
286B9
  8
0
 10
480.03039257076779
 20
671.74654320025161
 30
0.0
 11
480.03039257076779
 21
673.34654081010535
 31
0.0
  0
LINE
  5
286BA
  8
3
 10
480.97739257076768
 20
671.74654320025161
 30
0.0
 11
480.97739257076768
 21
674.29354081010524
 31
0.0
  0
LINE
  5
286BB
  8
3
 10
491.0833925707679
 20
671.74654320025161
 30
0.0
 11
491.0833925707679
 21
674.29354081010524
 31
0.0
  0
LINE
  5
286BC
  8
0
 10
492.03039257076779
 20
671.74654320025161
 30
0.0
 11
492.03039257076779
 21
673.34654081010513
 31
0.0
  0
LINE
  5
286BD
  8
0
 10
482.03039257076779
 20
675.34654081010535
 30
0.0
 11
490.03039257076779
 21
675.34654081010513
 31
0.0
  0
LINE
  5
286BE
  8
0
 10
135.50534858114429
 20
276.68149374894722
 30
0.0
 11
135.50534858114429
 21
288.68149374894722
 31
0.0
  0
LINE
  5
286BF
  8
0
 10
133.50534858114429
 20
286.68149374894722
 30
0.0
 11
135.50534858114429
 21
288.68149374894722
 31
0.0
  0
LINE
  5
286C0
  8
0
 10
133.50534858114429
 20
278.68149374894722
 30
0.0
 11
135.50534858114429
 21
276.68149374894722
 31
0.0
  0
LINE
  5
286C1
  8
0
 10
137.10534619099801
 20
276.68149374894722
 30
0.0
 11
135.50534858114429
 21
276.68149374894722
 31
0.0
  0
LINE
  5
286C2
  8
3
 10
137.10534619099801
 20
277.62849374894711
 30
0.0
 11
134.5583485811444
 21
277.62849374894711
 31
0.0
  0
LINE
  5
286C3
  8
3
 10
137.10534619099801
 20
287.73449374894727
 30
0.0
 11
134.5583485811444
 21
287.73449374894727
 31
0.0
  0
LINE
  5
286C4
  8
0
 10
137.10534619099801
 20
288.68149374894722
 30
0.0
 11
135.50534858114429
 21
288.68149374894722
 31
0.0
  0
LINE
  5
286C5
  8
0
 10
133.50534858114429
 20
278.68149374894722
 30
0.0
 11
133.50534858114429
 21
286.68149374894722
 31
0.0
  0
LINE
  5
286C6
  8
0
 10
836.55543656039436
 20
276.68149374894722
 30
0.0
 11
836.55543656039436
 21
288.68149374894722
 31
0.0
  0
LINE
  5
286C7
  8
0
 10
838.55543656039436
 20
286.68149374894722
 30
0.0
 11
836.55543656039436
 21
288.68149374894722
 31
0.0
  0
LINE
  5
286C8
  8
0
 10
838.55543656039436
 20
278.68149374894722
 30
0.0
 11
836.55543656039436
 21
276.68149374894722
 31
0.0
  0
LINE
  5
286C9
  8
0
 10
834.95543895054061
 20
276.68149374894722
 30
0.0
 11
836.55543656039436
 21
276.68149374894722
 31
0.0
  0
LINE
  5
286CA
  8
3
 10
834.95543895054061
 20
277.62849374894711
 30
0.0
 11
837.50243656039424
 21
277.62849374894711
 31
0.0
  0
LINE
  5
286CB
  8
3
 10
834.95543895054061
 20
287.73449374894727
 30
0.0
 11
837.50243656039424
 21
287.73449374894727
 31
0.0
  0
LINE
  5
286CC
  8
0
 10
834.95543895054061
 20
288.68149374894722
 30
0.0
 11
836.55543656039436
 21
288.68149374894722
 31
0.0
  0
LINE
  5
286CD
  8
0
 10
838.55543656039436
 20
278.68149374894722
 30
0.0
 11
838.55543656039436
 21
286.68149374894722
 31
0.0
  0
LINE
  5
286CE
  8
2
 10
801.75543955850901
 20
389.98149416617957
 30
0.0
 11
801.75543955850901
 21
406.68149172238918
 31
0.0
  0
LINE
  5
286CF
  8
2
 10
781.75543955850912
 20
406.68149172238918
 30
0.0
 11
781.75543955850912
 21
389.98149416617957
 31
0.0
  0
LINE
  5
286D0
  8
2
 10
747.45543782997311
 20
389.98149416617957
 30
0.0
 11
836.0554378299729
 21
389.98149416617957
 31
0.0
  0
LINE
  5
286D1
  8
2
 10
836.0554378299729
 20
325.1238305144978
 30
0.0
 11
836.0554378299729
 21
389.98149416617957
 31
0.0
  0
LINE
  5
286D2
  8
2
 10
747.45543782997311
 20
325.12383051449842
 30
0.0
 11
747.45543782997277
 21
389.98149416617957
 31
0.0
  0
LINE
  5
286D3
  8
2
 10
552.03039429930254
 20
389.98149416617969
 30
0.0
 11
552.03039429930254
 21
406.6814917223893
 31
0.0
  0
LINE
  5
286D4
  8
2
 10
532.03039429930254
 20
406.6814917223893
 30
0.0
 11
532.03039429930254
 21
389.98149416617969
 31
0.0
  0
LINE
  5
286D5
  8
2
 10
497.73039257076653
 20
389.98149416617969
 30
0.0
 11
586.33039257076643
 21
389.98149416617957
 31
0.0
  0
LINE
  5
28B59
  8
0
 10
485.23039257088362
 20
384.8814881461098
 30
0.0
 11
485.23039257088362
 21
381.68148814610998
 31
0.0
  0
LINE
  5
28B5A
  8
0
 10
508.05966950801411
 20
384.8814916508631
 30
0.0
 11
485.23039257088362
 21
384.8814916508631
 31
0.0
  0
LINE
  5
28B9A
  8
0
 10
147.10534731156551
 20
381.68149017266848
 30
0.0
 11
213.5053473115656
 21
381.68149017266848
 31
0.0
  0
ARC
  5
28B9B
  8
0
 10
189.69637467904269
 20
371.68151061596728
 30
0.0
 40
1.000000000000085
 50
18.99992627912961
 51
89.999926279083098
  0
ARC
  5
28B9C
  8
0
 10
186.30546272604141
 20
372.3815149789591
 30
0.0
 40
0.3000000000000114
 50
89.999926279135195
 51
179.99992627914821
  0
LINE
  5
28B9D
  8
0
 10
189.6963760620838
 20
372.68151419224552
 30
0.0
 11
186.30546316420171
 21
372.68151855523757
 31
0.0
  0
ARC
  5
28B9E
  8
0
 10
183.30546272604491
 20
372.3815188389745
 30
0.0
 40
0.2999999999999403
 50
359.99992627911558
 51
89.999926279135195
  0
LINE
  5
28B9F
  8
0
 10
183.3054631381271
 20
372.68152241525308
 30
0.0
 11
177.30546308597809
 21
372.68153013528411
 31
0.0
  0
ARC
  5
28BA0
  8
0
 10
174.30546272605241
 20
372.38153041902092
 30
0.0
 40
0.2999999999999403
 50
359.99992627911558
 51
89.999926279135195
  0
ARC
  5
28BA1
  8
0
 10
177.30546272604889
 20
372.38152655900552
 30
0.0
 40
0.2999999999999403
 50
89.999926279083098
 51
179.99992627914821
  0
LINE
  5
28BA2
  8
0
 10
174.3054630599035
 20
372.68153399529962
 30
0.0
 11
170.91455016202141
 21
372.68153835829168
 31
0.0
  0
ARC
  5
28BA3
  8
0
 10
170.91454897170951
 20
371.68153478201322
 30
0.0
 40
1.000000000000085
 50
89.999926279135195
 51
160.9999262791471
  0
LINE
  5
28BA4
  8
0
 10
186.0054628221524
 20
372.38151386292361
 30
0.0
 11
183.6054627081603
 21
372.38151695093609
 31
0.0
  0
LINE
  5
28BA5
  8
0
 10
177.00546274392849
 20
372.38152544297009
 30
0.0
 11
174.60546262993671
 21
372.38152853098262
 31
0.0
  0
LINE
  5
28CA1
  8
0
 10
476.03039257076711
 20
598.54654207968429
 30
0.0
 11
476.03039257076711
 21
599.04654207968429
 31
0.0
  0
LINE
  5
28CA2
  8
0
 10
476.03039257076711
 20
658.04654207968417
 30
0.0
 11
476.03039257076711
 21
658.54654207968417
 31
0.0
  0
LINE
  5
28CA3
  8
0
 10
468.53039257076711
 20
595.34654207968435
 30
0.0
 11
468.53039257076711
 21
598.54654207968429
 31
0.0
  0
LINE
  5
28CA4
  8
0
 10
468.53039257076711
 20
658.54654207968417
 30
0.0
 11
468.53039257076711
 21
661.74654207968445
 31
0.0
  0
ARC
  5
28CA5
  8
0
 10
397.03039257076762
 20
619.15562922600952
 30
0.0
 40
1.000000000000014
 50
180.00000000002601
 51
251.00000000001191
  0
LINE
  5
28CA6
  8
0
 10
396.03039257076711
 20
619.15562922600952
 30
0.0
 11
396.03039257076711
 21
622.54654207968429
 31
0.0
  0
ARC
  5
28CA7
  8
0
 10
396.33039257076729
 20
622.54654207968429
 30
0.0
 40
0.2999999999998692
 50
90.0
 51
180.00000000001299
  0
LINE
  5
28CA8
  8
0
 10
396.03039257076711
 20
625.54654207968417
 30
0.0
 11
396.03039257076711
 21
631.54654207968429
 31
0.0
  0
ARC
  5
28CA9
  8
0
 10
396.33039257076729
 20
625.54654207968417
 30
0.0
 40
0.2999999999998692
 50
179.99999999998701
 51
270.0
  0
ARC
  5
28CAA
  8
0
 10
396.33039257076729
 20
631.54654207968474
 30
0.0
 40
0.2999999999998692
 50
90.0
 51
180.00000000002601
  0
ARC
  5
28CAB
  8
0
 10
396.33039257076729
 20
634.54654207968417
 30
0.0
 40
0.2999999999998692
 50
179.99999999997391
 51
270.0
  0
LINE
  5
28CAC
  8
0
 10
396.03039257076711
 20
634.54654207968417
 30
0.0
 11
396.03039257076711
 21
637.93745493335939
 31
0.0
  0
ARC
  5
28CAD
  8
0
 10
397.03039257076762
 20
637.93745493335905
 30
0.0
 40
1.000000000000014
 50
108.99999999998811
 51
179.99999999997391
  0
LINE
  5
28CAE
  8
0
 10
396.33039257076729
 20
622.84654207968435
 30
0.0
 11
396.33039257076729
 21
625.24654207968445
 31
0.0
  0
LINE
  5
28CAF
  8
0
 10
396.33039257076729
 20
631.84654207968447
 30
0.0
 11
396.33039257076729
 21
634.24654207968456
 31
0.0
  0
LINE
  5
28CB0
  8
0
 10
404.8430833016123
 20
615.40788339210053
 30
0.0
 11
396.7048244163102
 21
618.21011065041034
 31
0.0
  0
LINE
  5
28CB1
  8
0
 10
396.7048244163102
 20
638.88297350895823
 30
0.0
 11
404.8430833016123
 21
641.6852007672685
 31
0.0
  0
ARC
  5
28CB2
  8
0
 10
405.8197877649813
 20
618.24443911888534
 30
0.0
 40
2.9999999999868971
 50
250.9999999999568
 51
270.00000000002598
  0
ARC
  5
28CB3
  8
0
 10
405.8197877649813
 20
638.84864504048323
 30
0.0
 40
2.9999999999870388
 50
89.999999999973952
 51
109.0000000000432
  0
ARC
  5
28CB4
  8
0
 10
407.49591809599627
 20
614.49443911889796
 30
0.0
 40
0.7500000000000285
 50
90.0
 51
270.0
  0
ARC
  5
28CB5
  8
0
 10
407.49591809599627
 20
642.5986450404705
 30
0.0
 40
0.7500000000000285
 50
90.0
 51
270.0
  0
ARC
  5
28CB6
  8
0
 10
411.85223441251031
 20
612.99443911889796
 30
0.0
 40
0.7500000000000285
 50
90.0
 51
270.0
  0
ARC
  5
28CB7
  8
0
 10
411.85223441251031
 20
644.0986450404705
 30
0.0
 40
0.7500000000000285
 50
90.0
 51
270.0
  0
LINE
  5
28CB8
  8
0
 10
431.55571593464032
 20
606.20998635288629
 30
0.0
 11
414.03039257076711
 21
612.24443911889841
 31
0.0
  0
LINE
  5
28CB9
  8
0
 10
414.03039257076711
 20
644.8486450404705
 30
0.0
 11
431.55571593464032
 21
650.88309780648217
 31
0.0
  0
ARC
  5
28CBA
  8
0
 10
432.53242039800762
 20
609.04654207965928
 30
0.0
 40
2.9999999999751021
 50
250.99999999992929
 51
270.00000000002598
  0
ARC
  5
28CBB
  8
0
 10
432.53242039800762
 20
648.04654207970918
 30
0.0
 40
2.99999999997496
 50
89.999999999973952
 51
109.0000000000707
  0
LINE
  5
28CBC
  8
0
 10
472.95499867946899
 20
600.48758080418543
 30
0.0
 11
472.73632071174501
 21
606.04654207968429
 31
0.0
  0
LINE
  5
28CBD
  8
0
 10
472.73632071174501
 20
651.04654207968417
 30
0.0
 11
472.95499867946899
 21
656.6055033551836
 31
0.0
  0
ARC
  5
28CBE
  8
0
 10
474.45383942084118
 20
600.54654207968645
 30
0.0
 40
1.500000000002188
 50
182.2527351911192
 51
270.0
  0
ARC
  5
28CBF
  8
0
 10
474.45383942084118
 20
656.54654207968201
 30
0.0
 40
1.500000000002188
 50
90.0
 51
177.7472648088808
  0
LINE
  5
28CC1
  8
0
 10
503.31657074961407
 20
661.74654207968445
 30
0.0
 11
468.53039257076711
 21
661.74654207968445
 31
0.0
  0
LINE
  5
28CC2
  8
0
 10
485.2303925708834
 20
661.74654207968445
 30
0.0
 11
485.2303925708834
 21
595.34654207968435
 31
0.0
  0
LINE
  5
28CC3
  8
0
 10
468.53039257076711
 20
598.54654207968429
 30
0.0
 11
485.2303925708834
 21
598.54654207968474
 31
0.0
  0
LINE
  5
28CC5
  8
0
 10
503.31657074961481
 20
595.34654207968435
 30
0.0
 11
468.53039257076711
 21
595.34654207968435
 31
0.0
  0
LINE
  5
28CC7
  8
0
 10
485.2303925708834
 20
658.54654207968474
 30
0.0
 11
468.53039257076711
 21
658.54654207968429
 31
0.0
  0
LINE
  5
28CCD
  8
0
 10
485.2303925708834
 20
622.84654207968435
 30
0.0
 11
396.33039257104929
 21
622.84654207968435
 31
0.0
  0
LINE
  5
28CCE
  8
0
 10
485.2303925708834
 20
625.24654207968445
 30
0.0
 11
396.33039257104929
 21
625.24654207968445
 31
0.0
  0
LINE
  5
28CCF
  8
0
 10
485.2303925708834
 20
631.84654207968447
 30
0.0
 11
396.33039257104929
 21
631.84654207968447
 31
0.0
  0
LINE
  5
28CD0
  8
0
 10
485.2303925708834
 20
634.24654207968456
 30
0.0
 11
396.33039257104929
 21
634.24654207968456
 31
0.0
  0
LINE
  5
28CD1
  8
0
 10
485.2303925708834
 20
615.24443911889887
 30
0.0
 11
405.81978776498403
 21
615.24443911889796
 31
0.0
  0
LINE
  5
28CD2
  8
0
 10
485.2303925708834
 20
641.8486450404705
 30
0.0
 11
405.81978776498403
 21
641.8486450404705
 31
0.0
  0
LINE
  5
28CD3
  8
0
 10
485.2303925708834
 20
613.74443911889853
 30
0.0
 11
407.49591809761881
 21
613.74443911889853
 31
0.0
  0
LINE
  5
28CD4
  8
0
 10
485.2303925708834
 20
643.34864504047039
 30
0.0
 11
407.49591809761881
 21
643.34864504047039
 31
0.0
  0
LINE
  5
28CD5
  8
0
 10
485.2303925708834
 20
612.24443911889841
 30
0.0
 11
411.85223441251532
 21
612.24443911889841
 31
0.0
  0
LINE
  5
28CD6
  8
0
 10
485.2303925708834
 20
644.8486450404705
 30
0.0
 11
411.85223441251532
 21
644.8486450404705
 31
0.0
  0
LINE
  5
28CD7
  8
0
 10
485.2303925708834
 20
606.04654207968429
 30
0.0
 11
432.532420399128
 21
606.04654207968429
 31
0.0
  0
LINE
  5
28CD8
  8
0
 10
485.2303925708834
 20
651.04654207968417
 30
0.0
 11
432.532420399128
 21
651.04654207968417
 31
0.0
  0
LINE
  5
28CD9
  8
0
 10
485.2303925708834
 20
599.04654207968429
 30
0.0
 11
474.45383942084118
 21
599.04654207968429
 31
0.0
  0
LINE
  5
28CDA
  8
0
 10
485.2303925708834
 20
658.04654207968417
 30
0.0
 11
474.45383942084118
 21
658.04654207968417
 31
0.0
  0
LINE
  5
28CE7
  8
0
 10
485.2303925708834
 20
600.48758080418543
 30
0.0
 11
472.95499867946899
 21
600.48758080418543
 31
0.0
  0
LINE
  5
28CE8
  8
0
 10
485.2303925708834
 20
656.6055033551836
 30
0.0
 11
472.95499867946899
 21
656.6055033551836
 31
0.0
  0
LINE
  5
28D6E
  8
2
 10
586.33039257076643
 20
389.98149416617957
 30
0.0
 11
586.33039257076643
 21
381.60181903316408
 31
0.0
  0
LINE
  5
28D6F
  8
2
 10
497.73039257076653
 20
389.98149416617969
 30
0.0
 11
497.73039257076653
 21
384.8814916508631
 31
0.0
  0
TEXT
  5
28DCB
  8
0
 62
     3
 10
0.0
 20
0.0
 30
0.0
 40
10.0
  1
CAE2-180FBL
  7
STANDARD1
  0
ENDSEC
  0
EOF
