  0
SECTION
  2
HEADER
  9
$ACADVER
  1
AC1009
  9
$INSBASE
 10
0.0
 20
0.0
 30
0.0
  9
$EXTMIN
 10
0.0
 20
-2.960436562073669
 30
0.0
  9
$EXTMAX
 10
856.64851755578627
 20
685.54654207968406
 30
0.0
  9
$LIMMIN
 10
0.0
 20
0.0
  9
$LIMMAX
 10
375.0
 20
270.0
  9
$ORTHOMODE
 70
     1
  9
$REGENMODE
 70
     1
  9
$FILLMODE
 70
     1
  9
$QTEXTMODE
 70
     0
  9
$MIRRTEXT
 70
     1
  9
$DRAGMODE
 70
     2
  9
$LTSCALE
 40
10.0
  9
$OSMODE
 70
  3071
  9
$ATTMODE
 70
     1
  9
$TEXTSIZE
 40
5.0
  9
$TRACEWID
 40
0.05
  9
$TEXTSTYLE
  7
STANDARD
  9
$CLAYER
  8
0
  9
$CELTYPE
  6
BYLAYER
  9
$CECOLOR
 62
     6
  9
$DIMSCALE
 40
2.0
  9
$DIMASZ
 40
3.0
  9
$DIMEXO
 40
2.0
  9
$DIMDLI
 40
0.38
  9
$DIMRND
 40
0.0
  9
$DIMDLE
 40
0.0
  9
$DIMEXE
 40
2.0
  9
$DIMTP
 40
0.0
  9
$DIMTM
 40
0.0
  9
$DIMTXT
 40
3.2000000000000002
  9
$DIMCEN
 40
0.0
  9
$DIMTSZ
 40
0.0
  9
$DIMTOL
 70
     0
  9
$DIMLIM
 70
     0
  9
$DIMTIH
 70
     0
  9
$DIMTOH
 70
     0
  9
$DIMSE1
 70
     0
  9
$DIMSE2
 70
     0
  9
$DIMTAD
 70
     1
  9
$DIMZIN
 70
     8
  9
$DIMBLK
  1

  9
$DIMASO
 70
     0
  9
$DIMSHO
 70
     0
  9
$DIMPOST
  1

  9
$DIMAPOST
  1

  9
$DIMALT
 70
     0
  9
$DIMALTD
 70
     2
  9
$DIMALTF
 40
25.399999999999999
  9
$DIMLFAC
 40
1.0
  9
$DIMTOFL
 70
     0
  9
$DIMTVP
 40
1.6000000000000001
  9
$DIMTIX
 70
     1
  9
$DIMSOXD
 70
     0
  9
$DIMSAH
 70
     0
  9
$DIMBLK1
  1

  9
$DIMBLK2
  1

  9
$DIMSTYLE
  2
STANDARD
  9
$DIMCLRD
 70
     0
  9
$DIMCLRE
 70
     0
  9
$DIMCLRT
 70
     0
  9
$DIMTFAC
 40
1.0
  9
$DIMGAP
 40
1.1999999999999991
  9
$LUNITS
 70
     2
  9
$LUPREC
 70
     4
  9
$SKETCHINC
 40
0.1
  9
$FILLETRAD
 40
0.0
  9
$AUNITS
 70
     0
  9
$AUPREC
 70
     4
  9
$MENU
  1
ACAD
  9
$ELEVATION
 40
0.0
  9
$PELEVATION
 40
0.0
  9
$THICKNESS
 40
0.0
  9
$LIMCHECK
 70
     0
  9
$BLIPMODE
 70
     0
  9
$CHAMFERA
 40
0.0
  9
$CHAMFERB
 40
0.0
  9
$SKPOLY
 70
     0
  9
$TDCREATE
 40
2448055.7149187499
  9
$TDUPDATE
 40
2456598.558742905
  9
$TDINDWG
 40
2.7220500231
  9
$TDUSRTIMER
 40
2.7220500231
  9
$USRTIMER
 70
     1
  9
$ANGBASE
 50
0.0
  9
$ANGDIR
 70
     0
  9
$PDMODE
 70
     0
  9
$PDSIZE
 40
0.0
  9
$PLINEWID
 40
0.0
  9
$COORDS
 70
     1
  9
$SPLFRAME
 70
     0
  9
$SPLINETYPE
 70
     6
  9
$SPLINESEGS
 70
     8
  9
$ATTDIA
 70
     0
  9
$ATTREQ
 70
     1
  9
$HANDLING
 70
     1
  9
$HANDSEED
  5
2778A
  9
$SURFTAB1
 70
     6
  9
$SURFTAB2
 70
     6
  9
$SURFTYPE
 70
     6
  9
$SURFU
 70
     6
  9
$SURFV
 70
     6
  9
$UCSNAME
  2

  9
$UCSORG
 10
0.0
 20
0.0
 30
0.0
  9
$UCSXDIR
 10
1.0
 20
0.0
 30
0.0
  9
$UCSYDIR
 10
0.0
 20
1.0
 30
0.0
  9
$PUCSNAME
  2

  9
$PUCSORG
 10
0.0
 20
0.0
 30
0.0
  9
$PUCSXDIR
 10
1.0
 20
0.0
 30
0.0
  9
$PUCSYDIR
 10
0.0
 20
1.0
 30
0.0
  9
$USERI1
 70
     0
  9
$USERI2
 70
     0
  9
$USERI3
 70
     0
  9
$USERI4
 70
     0
  9
$USERI5
 70
     0
  9
$USERR1
 40
0.0
  9
$USERR2
 40
0.0
  9
$USERR3
 40
0.0
  9
$USERR4
 40
0.0
  9
$USERR5
 40
0.0
  9
$WORLDVIEW
 70
     1
  9
$SHADEDGE
 70
     3
  9
$SHADEDIF
 70
    70
  9
$TILEMODE
 70
     1
  9
$MAXACTVP
 70
    16
  9
$PLIMCHECK
 70
     0
  9
$PEXTMIN
 10
1.0000000000000000E+020
 20
1.0000000000000000E+020
 30
1.0000000000000000E+020
  9
$PEXTMAX
 10
-1.0000000000000000E+020
 20
-1.0000000000000000E+020
 30
-1.0000000000000000E+020
  9
$PLIMMIN
 10
0.0
 20
0.0
  9
$PLIMMAX
 10
12.0
 20
9.0
  9
$UNITMODE
 70
     0
  9
$VISRETAIN
 70
     0
  9
$PLINEGEN
 70
     1
  9
$PSLTSCALE
 70
     0
  0
ENDSEC
  0
SECTION
  2
TABLES
  0
TABLE
  2
VPORT
 70
     1
  0
VPORT
  2
*ACTIVE
 70
     0
 10
0.0
 20
0.0
 11
1.0
 21
1.0
 12
447.4037824441088
 22
341.2826356981372
 13
0.0
 23
0.0
 14
5.0
 24
5.0
 15
10.0
 25
10.0
 16
0.0
 26
0.0
 36
1.0
 17
0.0
 27
0.0
 37
0.0
 40
694.74517102713276
 41
1.8318713450292401
 42
50.0
 43
0.0
 44
0.0
 50
0.0
 51
0.0
 71
     0
 72
   500
 73
     1
 74
     1
 75
     0
 76
     0
 77
     0
 78
     2
  0
ENDTAB
  0
TABLE
  2
LTYPE
 70
     3
  0
LTYPE
  2
CONTINUOUS
 70
     0
  3
実線
 72
    65
 73
     0
 40
0.0
  0
LTYPE
  2
CENTER
 70
     0
  3
____ _ ____ _ ____ _ ____ _ ____ _ ____ _ ____
 72
    65
 73
     4
 40
2.0
 49
1.25
 49
-0.25
 49
0.25
 49
-0.25
  0
LTYPE
  2
PHANTOM2
 70
     0
  3
___ _ _ ___ _ _ ___ _ _ ___ _ _
 72
    65
 73
     6
 40
1.25
 49
0.625
 49
-0.125
 49
0.125
 49
-0.125
 49
0.125
 49
-0.125
  0
ENDTAB
  0
TABLE
  2
LAYER
 70
     4
  0
LAYER
  2
0
 70
     0
 62
     7
  6
CONTINUOUS
  0
LAYER
  2
1
 70
     0
 62
     1
  6
CENTER
  0
LAYER
  2
DEFPOINTS
 70
     0
 62
     7
  6
CONTINUOUS
  0
LAYER
  2
3
 70
     0
 62
     3
  6
CONTINUOUS
  0
ENDTAB
  0
TABLE
  2
STYLE
 70
     3
  0
STYLE
  2
STANDARD
 70
     0
 40
0.0
 41
1.0
 50
0.0
 71
     0
 42
5.0
  3
simplex.shx
  4
bigfont.shx
  0
STYLE
  2
07500
 70
     0
 40
0.0
 41
0.75
 50
0.0
 71
     0
 42
0.2
  3
simplex.shx
  4
bigfont.shx
  0
STYLE
  2
STANDARD1
 70
     0
 40
0.0
 41
1.0
 50
0.0
 71
     0
 42
3.0
  3
txt
  4

  0
ENDTAB
  0
TABLE
  2
VIEW
 70
     2
  0
VIEW
  2
ALL
 70
     0
 40
270.0
 10
220.99159663865549
 20
135.0
 41
0.0
 11
0.0
 21
0.0
 31
1.0
 12
0.0
 22
0.0
 32
0.0
 42
0.0
 43
0.0
 44
0.0
 50
0.0
 71
     0
  0
VIEW
  2
OLE1
 70
     0
 40
168.2487151179721
 10
2892.3009567448912
 20
702.51600084347126
 41
162.5749581879237
 11
0.0
 21
0.0
 31
1.0
 12
0.0
 22
0.0
 32
0.0
 42
50.0
 43
0.0
 44
0.0
 50
0.0
 71
     0
  0
ENDTAB
  0
TABLE
  2
UCS
 70
     0
  0
ENDTAB
  0
TABLE
  2
APPID
 70
    48
  0
APPID
  2
ACAD
 70
     0
  0
APPID
  2
DCO15
 70
     0
  0
APPID
  2
GENIUS_GENOREF_13
 70
     0
  0
APPID
  2
GENIUS_GENOENT_13
 70
     0
  0
APPID
  2
GENIUS_GENBH_13
 70
     0
  0
APPID
  2
GENIUS_GENOBJ_13
 70
     0
  0
APPID
  2
GENIUS_GENODEF_13
 70
     0
  0
APPID
  2
GENIUS_GENOLIS_13
 70
     0
  0
APPID
  2
GENIUS_GENOBJ-NBEHI-BHF_13
 70
     0
  0
APPID
  2
GENIUS_GENOBJ-NBEHI-BHB_13
 70
     0
  0
APPID
  2
GENIUS_GENOBJ-F-PART_13
 70
     0
  0
APPID
  2
GENIUS_GEFSTDP_13
 70
     0
  0
APPID
  2
GENIUS_GENOBJ-N-RSSYM_13
 70
     0
  0
APPID
  2
GENIUS_GENSYMENT_13
 70
     0
  0
APPID
  2
GENIUS_GENOBJ-N-TIT_13
 70
     0
  0
APPID
  2
GENIUS_GENTITLE_13
 70
     0
  0
APPID
  2
GENIUS_GENZVEED_13
 70
     0
  0
APPID
  2
GENIUS_GENOBJ-N-LEADER_13
 70
     0
  0
APPID
  2
GENIUS_GENOBJ-N-FIL_13
 70
     0
  0
APPID
  2
GENIUS_GENOBJ-N-SEC_13
 70
     0
  0
APPID
  2
GENIUS_GENOBJ-N-CRS_13
 70
     0
  0
APPID
  2
GENIUS_GENOBJ-N-ZOO_13
 70
     0
  0
APPID
  2
GENIUS_GENZOO_13
 70
     0
  0
APPID
  2
GENIUS_GENOBJ-F-TOL_13
 70
     0
  0
APPID
  2
GENIUS_GENFIL_13
 70
     0
  0
APPID
  2
GENIUS_GENOBJ-N-CHA_13
 70
     0
  0
APPID
  2
_CALL_MAC$
 70
     0
  0
APPID
  2
ASM_BASE
 70
     0
  0
APPID
  2
ASM_EXPLO_VER_2_00
 70
     0
  0
APPID
  2
ASM_CADM_VER_12_00
 70
     0
  0
APPID
  2
ASM_BASEFORO
 70
     0
  0
APPID
  2
ASM_BASETRAVI
 70
     0
  0
APPID
  2
ASM_BASETRAVI1
 70
     0
  0
APPID
  2
ASM_GRUPPI
 70
     0
  0
APPID
  2
ASM_CADM_ALBERO
 70
     0
  0
APPID
  2
ASM_GOLE
 70
     0
  0
APPID
  2
ACAD_MLEADERVER
 70
     0
  0
APPID
  2
ACAD_DSTYLE_DIMJAG
 70
     0
  0
APPID
  2
ACAD_DSTYLE_DIMTALN
 70
     0
  0
APPID
  2
ACAD_EXEMPT_FROM_CAD_STANDARDS
 70
     0
  0
APPID
  2
ACAD_DSTYLE_DIMRADIAL_EXTENSION
 70
     0
  0
APPID
  2
ACAD_PSEXT
 70
     0
  0
APPID
  2
ACAD_DSTYLE_DIMBREAK
 70
     0
  0
APPID
  2
ACAECLAYERSTANDARD
 70
     0
  0
APPID
  2
ACCMTRANSPARENCY
 70
     0
  0
APPID
  2
GRADIENTCOLOR1ACI
 70
     0
  0
APPID
  2
GRADIENTCOLOR2ACI
 70
     0
  0
APPID
  2
ACAD_NAV_VCDISPLAY
 70
     0
  0
ENDTAB
  0
TABLE
  2
DIMSTYLE
 70
     1
  0
DIMSTYLE
  2
STANDARD
 70
     0
  3

  4

  5

  6

  7

 40
1.0
 41
0.18
 42
0.0625
 43
0.38
 44
0.18
 45
0.0
 46
0.0
 47
0.0
 48
0.0
140
0.18
141
0.09
142
0.0
143
25.399999999999999
144
1.0
145
0.0
146
1.0
147
0.09
 71
     0
 72
     0
 73
     1
 74
     1
 75
     0
 76
     0
 77
     0
 78
     0
170
     0
171
     2
172
     0
173
     0
174
     0
175
     0
176
     0
177
     0
178
     0
  0
ENDTAB
  0
ENDSEC
  0
SECTION
  2
BLOCKS
  0
BLOCK
  8
0
  2
$MODEL_SPACE
 70
     0
 10
0.0
 20
0.0
 30
0.0
  3
$MODEL_SPACE
  1

  0
ENDBLK
  5
36
  8
0
  0
BLOCK
 67
     1
  8
0
  2
$PAPER_SPACE
 70
     0
 10
0.0
 20
0.0
 30
0.0
  3
$PAPER_SPACE
  1

  0
ENDBLK
  5
34
 67
     1
  8
0
  0
ENDSEC
  0
SECTION
  2
ENTITIES
  0
LINE
  5
1BC76
  8
1
 10
486.03039257076898
 20
573.68349902177533
 30
0.0
 11
486.03039257076898
 21
683.40958513759267
 31
0.0
  0
LINE
  5
1BC77
  8
0
 10
480.21539257076893
 20
589.54654207968395
 30
0.0
 11
480.21539257076893
 21
588.94654207968415
 31
0.0
  0
LINE
  5
1BC78
  8
0
 10
491.84539257076892
 20
588.94654207968415
 30
0.0
 11
491.84539257076892
 21
589.54654207968395
 31
0.0
  0
LINE
  5
1BC79
  8
0
 10
482.03039257076898
 20
676.77954207968423
 30
0.0
 11
482.03039257076898
 21
675.54654207968395
 31
0.0
  0
LINE
  5
1BC7A
  8
0
 10
490.03039257076898
 20
675.54654207968395
 30
0.0
 11
490.03039257076898
 21
676.77954207968423
 31
0.0
  0
LINE
  5
1BC7B
  8
0
 10
482.79739257076892
 20
677.54654207968395
 30
0.0
 11
482.03039257076898
 21
676.77954207968423
 31
0.0
  0
LINE
  5
1BC7C
  8
0
 10
490.03039257076898
 20
676.77954207968423
 30
0.0
 11
489.26339257076887
 21
677.54654207968395
 31
0.0
  0
LINE
  5
1BC7D
  8
0
 10
480.21539257076893
 20
675.54654207968395
 30
0.0
 11
480.21539257076893
 21
673.04654207968395
 31
0.0
  0
LINE
  5
1BC7E
  8
0
 10
491.84539257076892
 20
673.04654207968395
 30
0.0
 11
491.84539257076892
 21
675.54654207968395
 31
0.0
  0
LINE
  5
1BC7F
  8
0
 10
490.03039257076898
 20
676.77954207968423
 30
0.0
 11
482.03039257076898
 21
676.77954207968423
 31
0.0
  0
LINE
  5
1BC80
  8
0
 10
489.26339257076887
 20
677.54654207968395
 30
0.0
 11
482.79739257076892
 21
677.54654207968395
 31
0.0
  0
LINE
  5
1BC81
  8
0
 10
492.28872590410231
 20
584.24654207968376
 30
0.0
 11
479.77205923743549
 21
584.24654207968376
 31
0.0
  0
LINE
  5
1BC82
  8
0
 10
492.28872590410231
 20
588.94654207968415
 30
0.0
 11
479.77205923743549
 21
588.94654207968415
 31
0.0
  0
LINE
  5
1BC83
  8
0
 10
492.28872590410231
 20
584.24654207968376
 30
0.0
 11
492.28872590410231
 21
588.94654207968415
 31
0.0
  0
POLYLINE
  5
1BC84
  8
0
 66
     1
 10
0.0
 20
0.0
 30
0.0
  0
VERTEX
  5
27096
  8
0
 10
482.9012259041022
 20
588.94654207968415
 30
0.0
  0
VERTEX
  5
27097
  8
0
 10
483.40366365601778
 20
588.93935194606399
 30
0.0
  0
VERTEX
  5
27098
  8
0
 10
484.41242419993017
 20
588.88257736227968
 30
0.0
  0
VERTEX
  5
27099
  8
0
 10
485.46821409265408
 20
588.76796702352647
 30
0.0
  0
VERTEX
  5
2709A
  8
0
 10
486.03039257076898
 20
588.6871223702683
 30
0.0
  0
SEQEND
  5
2709B
  8
0
  0
POLYLINE
  5
1BC85
  8
0
 66
     1
 10
0.0
 20
0.0
 30
0.0
  0
VERTEX
  5
2709C
  8
0
 10
486.03039257076898
 20
584.50596178909973
 30
0.0
  0
VERTEX
  5
2709D
  8
0
 10
485.46821409265408
 20
584.42511713584145
 30
0.0
  0
VERTEX
  5
2709E
  8
0
 10
484.41242419993017
 20
584.31050679708824
 30
0.0
  0
VERTEX
  5
2709F
  8
0
 10
483.40366365601778
 20
584.25373221330392
 30
0.0
  0
VERTEX
  5
270A0
  8
0
 10
482.9012259041022
 20
584.24654207968376
 30
0.0
  0
SEQEND
  5
270A1
  8
0
  0
POLYLINE
  5
1BC86
  8
0
 66
     1
 10
0.0
 20
0.0
 30
0.0
  0
VERTEX
  5
270A2
  8
0
 10
482.9012259041022
 20
584.24654207968376
 30
0.0
  0
VERTEX
  5
270A3
  8
0
 10
482.39878815218668
 20
584.25373221330392
 30
0.0
  0
VERTEX
  5
270A4
  8
0
 10
481.39002760827441
 20
584.31050679708824
 30
0.0
  0
VERTEX
  5
270A5
  8
0
 10
480.33423771555039
 20
584.42511713584145
 30
0.0
  0
VERTEX
  5
270A6
  8
0
 10
479.77205923743549
 20
584.50596178909973
 30
0.0
  0
SEQEND
  5
270A7
  8
0
  0
POLYLINE
  5
1BC87
  8
0
 66
     1
 10
0.0
 20
0.0
 30
0.0
  0
VERTEX
  5
270A8
  8
0
 10
479.77205923743549
 20
588.6871223702683
 30
0.0
  0
VERTEX
  5
270A9
  8
0
 10
480.33423771555039
 20
588.76796702352647
 30
0.0
  0
VERTEX
  5
270AA
  8
0
 10
481.39002760827441
 20
588.88257736227968
 30
0.0
  0
VERTEX
  5
270AB
  8
0
 10
482.39878815218668
 20
588.93935194606399
 30
0.0
  0
VERTEX
  5
270AC
  8
0
 10
482.9012259041022
 20
588.94654207968415
 30
0.0
  0
SEQEND
  5
270AD
  8
0
  0
POLYLINE
  5
1BC88
  8
0
 66
     1
 10
0.0
 20
0.0
 30
0.0
  0
VERTEX
  5
270AE
  8
0
 10
489.15955923743559
 20
588.94654207968415
 30
0.0
  0
VERTEX
  5
270AF
  8
0
 10
489.66199698935111
 20
588.93935194606399
 30
0.0
  0
VERTEX
  5
270B0
  8
0
 10
490.67075753326338
 20
588.88257736227968
 30
0.0
  0
VERTEX
  5
270B1
  8
0
 10
491.72654742598741
 20
588.76796702352647
 30
0.0
  0
VERTEX
  5
270B2
  8
0
 10
492.28872590410231
 20
588.6871223702683
 30
0.0
  0
SEQEND
  5
270B3
  8
0
  0
POLYLINE
  5
1BC89
  8
0
 66
     1
 10
0.0
 20
0.0
 30
0.0
  0
VERTEX
  5
270B4
  8
0
 10
492.28872590410231
 20
584.50596178909973
 30
0.0
  0
VERTEX
  5
270B5
  8
0
 10
491.72654742598741
 20
584.42511713584145
 30
0.0
  0
VERTEX
  5
270B6
  8
0
 10
490.67075753326338
 20
584.31050679708824
 30
0.0
  0
VERTEX
  5
270B7
  8
0
 10
489.66199698935111
 20
584.25373221330392
 30
0.0
  0
VERTEX
  5
270B8
  8
0
 10
489.15955923743559
 20
584.24654207968376
 30
0.0
  0
SEQEND
  5
270B9
  8
0
  0
POLYLINE
  5
1BC8A
  8
0
 66
     1
 10
0.0
 20
0.0
 30
0.0
  0
VERTEX
  5
270BA
  8
0
 10
489.15955923743559
 20
584.24654207968376
 30
0.0
  0
VERTEX
  5
270BB
  8
0
 10
488.65712148552012
 20
584.25373221330392
 30
0.0
  0
VERTEX
  5
270BC
  8
0
 10
487.64836094160768
 20
584.31050679708824
 30
0.0
  0
VERTEX
  5
270BD
  8
0
 10
486.59257104888371
 20
584.42511713584145
 30
0.0
  0
VERTEX
  5
270BE
  8
0
 10
486.03039257076898
 20
584.50596178909973
 30
0.0
  0
SEQEND
  5
270BF
  8
0
  0
LINE
  5
1BC8B
  8
0
 10
486.03039257076898
 20
584.50596178909973
 30
0.0
 11
486.03039257076898
 21
588.6871223702683
 31
0.0
  0
POLYLINE
  5
1BC8C
  8
0
 66
     1
 10
0.0
 20
0.0
 30
0.0
  0
VERTEX
  5
270C0
  8
0
 10
486.03039257076898
 20
588.6871223702683
 30
0.0
  0
VERTEX
  5
270C1
  8
0
 10
486.59257104888371
 20
588.76796702352647
 30
0.0
  0
VERTEX
  5
270C2
  8
0
 10
487.64836094160768
 20
588.88257736227968
 30
0.0
  0
VERTEX
  5
270C3
  8
0
 10
488.65712148552012
 20
588.93935194606399
 30
0.0
  0
VERTEX
  5
270C4
  8
0
 10
489.15955923743559
 20
588.94654207968415
 30
0.0
  0
SEQEND
  5
270C5
  8
0
  0
LINE
  5
1BC8D
  8
0
 10
479.77205923743549
 20
588.94654207968415
 30
0.0
 11
479.77205923743549
 21
584.24654207968376
 31
0.0
  0
LINE
  5
1BC8E
  8
0
 10
491.84539257076892
 20
675.54654207968395
 30
0.0
 11
480.21539257076893
 21
675.54654207968395
 31
0.0
  0
LINE
  5
1BC8F
  8
0
 10
492.28872590410231
 20
673.04654207968395
 30
0.0
 11
479.77205923743549
 21
673.04654207968395
 31
0.0
  0
LINE
  5
1BC90
  8
0
 10
492.28872590410231
 20
667.54654207968395
 30
0.0
 11
492.28872590410231
 21
673.04654207968395
 31
0.0
  0
POLYLINE
  5
1BC91
  8
0
 66
     1
 10
0.0
 20
0.0
 30
0.0
  0
VERTEX
  5
270C6
  8
0
 10
482.9012259041022
 20
673.04654207968395
 30
0.0
  0
VERTEX
  5
270C7
  8
0
 10
483.40366365601778
 20
673.03935194606402
 30
0.0
  0
VERTEX
  5
270C8
  8
0
 10
484.41242419993017
 20
672.98257736227959
 30
0.0
  0
VERTEX
  5
270C9
  8
0
 10
485.46821409265408
 20
672.86796702352649
 30
0.0
  0
VERTEX
  5
270CA
  8
0
 10
486.03039257076898
 20
672.78712237026855
 30
0.0
  0
SEQEND
  5
270CB
  8
0
  0
POLYLINE
  5
1BC92
  8
0
 66
     1
 10
0.0
 20
0.0
 30
0.0
  0
VERTEX
  5
270CC
  8
0
 10
486.03039257076898
 20
667.80596178909946
 30
0.0
  0
VERTEX
  5
270CD
  8
0
 10
485.4682140926692
 20
667.72511713584345
 30
0.0
  0
VERTEX
  5
270CE
  8
0
 10
484.41242419997269
 20
667.61050679709206
 30
0.0
  0
VERTEX
  5
270CF
  8
0
 10
483.40366365608719
 20
667.55373221330592
 30
0.0
  0
VERTEX
  5
270D0
  8
0
 10
482.90122590418628
 20
667.54654207968395
 30
0.0
  0
SEQEND
  5
270D1
  8
0
  0
POLYLINE
  5
1BC93
  8
0
 66
     1
 10
0.0
 20
0.0
 30
0.0
  0
VERTEX
  5
270D2
  8
0
 10
482.9012259041022
 20
667.54654207968395
 30
0.0
  0
VERTEX
  5
270D3
  8
0
 10
482.39878815218668
 20
667.5537322133041
 30
0.0
  0
VERTEX
  5
270D4
  8
0
 10
481.39002760827441
 20
667.61050679708842
 30
0.0
  0
VERTEX
  5
270D5
  8
0
 10
480.33423771555039
 20
667.72511713584163
 30
0.0
  0
VERTEX
  5
270D6
  8
0
 10
479.77205923743549
 20
667.80596178909946
 30
0.0
  0
SEQEND
  5
270D7
  8
0
  0
POLYLINE
  5
1BC94
  8
0
 66
     1
 10
0.0
 20
0.0
 30
0.0
  0
VERTEX
  5
270D8
  8
0
 10
479.77205923743549
 20
672.78712237026855
 30
0.0
  0
VERTEX
  5
270D9
  8
0
 10
480.33423771555039
 20
672.86796702352649
 30
0.0
  0
VERTEX
  5
270DA
  8
0
 10
481.39002760827441
 20
672.98257736227959
 30
0.0
  0
VERTEX
  5
270DB
  8
0
 10
482.39878815218668
 20
673.03935194606402
 30
0.0
  0
VERTEX
  5
270DC
  8
0
 10
482.9012259041022
 20
673.04654207968395
 30
0.0
  0
SEQEND
  5
270DD
  8
0
  0
POLYLINE
  5
1BC95
  8
0
 66
     1
 10
0.0
 20
0.0
 30
0.0
  0
VERTEX
  5
270DE
  8
0
 10
489.15955923743559
 20
673.04654207968395
 30
0.0
  0
VERTEX
  5
270DF
  8
0
 10
489.66199698935111
 20
673.03935194606402
 30
0.0
  0
VERTEX
  5
270E0
  8
0
 10
490.67075753326338
 20
672.98257736227959
 30
0.0
  0
VERTEX
  5
270E1
  8
0
 10
491.72654742598741
 20
672.86796702352649
 30
0.0
  0
VERTEX
  5
270E2
  8
0
 10
492.28872590410231
 20
672.78712237026855
 30
0.0
  0
SEQEND
  5
270E3
  8
0
  0
POLYLINE
  5
1BC96
  8
0
 66
     1
 10
0.0
 20
0.0
 30
0.0
  0
VERTEX
  5
270E4
  8
0
 10
492.28872590410231
 20
667.80596178909946
 30
0.0
  0
VERTEX
  5
270E5
  8
0
 10
491.72654742601321
 20
667.72511713584481
 30
0.0
  0
VERTEX
  5
270E6
  8
0
 10
490.67075753333569
 20
667.61050679709433
 30
0.0
  0
VERTEX
  5
270E7
  8
0
 10
489.661996989469
 20
667.55373221330728
 30
0.0
  0
VERTEX
  5
270E8
  8
0
 10
489.15955923757809
 20
667.54654207968395
 30
0.0
  0
SEQEND
  5
270E9
  8
0
  0
POLYLINE
  5
1BC97
  8
0
 66
     1
 10
0.0
 20
0.0
 30
0.0
  0
VERTEX
  5
270EA
  8
0
 10
489.15955923743559
 20
667.54654207968395
 30
0.0
  0
VERTEX
  5
270EB
  8
0
 10
488.65712148552012
 20
667.5537322133041
 30
0.0
  0
VERTEX
  5
270EC
  8
0
 10
487.64836094160768
 20
667.61050679708842
 30
0.0
  0
VERTEX
  5
270ED
  8
0
 10
486.59257104888371
 20
667.72511713584106
 30
0.0
  0
VERTEX
  5
270EE
  8
0
 10
486.03039257076898
 20
667.80596178909946
 30
0.0
  0
SEQEND
  5
270EF
  8
0
  0
LINE
  5
1BC98
  8
0
 10
486.03039257076898
 20
667.80596178909946
 30
0.0
 11
486.03039257076898
 21
672.78712237026855
 31
0.0
  0
POLYLINE
  5
1BC99
  8
0
 66
     1
 10
0.0
 20
0.0
 30
0.0
  0
VERTEX
  5
270F0
  8
0
 10
486.03039257076898
 20
672.78712237026855
 30
0.0
  0
VERTEX
  5
270F1
  8
0
 10
486.59257104888371
 20
672.86796702352649
 30
0.0
  0
VERTEX
  5
270F2
  8
0
 10
487.64836094160768
 20
672.98257736227959
 30
0.0
  0
VERTEX
  5
270F3
  8
0
 10
488.65712148552012
 20
673.03935194606402
 30
0.0
  0
VERTEX
  5
270F4
  8
0
 10
489.15955923743559
 20
673.04654207968395
 30
0.0
  0
SEQEND
  5
270F5
  8
0
  0
LINE
  5
1BC9A
  8
0
 10
479.77205923743549
 20
673.04654207968395
 30
0.0
 11
479.7720592374356
 21
667.54654207968395
 31
0.0
  0
LINE
  5
1BCEE
  8
1
 10
532.75539257076889
 20
592.04654207968406
 30
0.0
 11
544.30539257076884
 21
592.04654207968406
 31
0.0
  0
LINE
  5
1BCEF
  8
1
 10
538.53039257076887
 20
580.27154207968397
 30
0.0
 11
538.53039257076887
 21
597.82154207968415
 31
0.0
  0
LINE
  5
1BCF0
  8
1
 10
532.75539257076889
 20
586.04654207968395
 30
0.0
 11
544.30539257076884
 21
586.04654207968395
 31
0.0
  0
LINE
  5
1BCF1
  8
1
 10
532.75539257076889
 20
671.04654207968406
 30
0.0
 11
544.30539257076884
 21
671.04654207968406
 31
0.0
  0
LINE
  5
1BCF2
  8
1
 10
538.53039257076887
 20
659.27154207968397
 30
0.0
 11
538.53039257076887
 21
676.82154207968415
 31
0.0
  0
LINE
  5
1BCF3
  8
1
 10
532.75539257076889
 20
665.04654207968395
 30
0.0
 11
544.30539257076884
 21
665.04654207968395
 31
0.0
  0
LINE
  5
1BCF4
  8
1
 10
427.75539257076889
 20
592.04654207968406
 30
0.0
 11
439.3053925707689
 21
592.04654207968406
 31
0.0
  0
LINE
  5
1BCF5
  8
1
 10
433.53039257076892
 20
580.27154207968397
 30
0.0
 11
433.53039257076892
 21
597.82154207968415
 31
0.0
  0
LINE
  5
1BCF6
  8
1
 10
427.75539257076889
 20
586.04654207968395
 30
0.0
 11
439.3053925707689
 21
586.04654207968395
 31
0.0
  0
LINE
  5
1BCF7
  8
1
 10
427.75539257076889
 20
671.04654207968406
 30
0.0
 11
439.3053925707689
 21
671.04654207968406
 31
0.0
  0
LINE
  5
1BCF8
  8
1
 10
433.53039257076892
 20
659.27154207968397
 30
0.0
 11
433.53039257076892
 21
676.82154207968415
 31
0.0
  0
LINE
  5
1BCF9
  8
1
 10
427.75539257076889
 20
665.04654207968395
 30
0.0
 11
439.3053925707689
 21
665.04654207968395
 31
0.0
  0
LINE
  5
1BCFB
  8
0
 10
461.03039257076898
 20
619.90683939742519
 30
0.0
 11
511.03039257076898
 21
619.90683939742519
 31
0.0
  0
LINE
  5
1BCFC
  8
0
 10
461.03039257076898
 20
637.1862447619427
 30
0.0
 11
511.03039257076898
 21
637.1862447619427
 31
0.0
  0
LINE
  5
1BCFF
  8
0
 10
459.39068988851011
 20
635.54654207968395
 30
0.0
 11
459.39068988851011
 21
621.54654207968395
 31
0.0
  0
LINE
  5
1BD00
  8
0
 10
512.67009525302774
 20
635.54654207968395
 30
0.0
 11
512.67009525302774
 21
621.54654207968395
 31
0.0
  0
ARC
  5
1BD03
  8
0
 10
511.03039257076898
 20
621.54654207968395
 30
0.0
 40
1.6397026822587399
 50
270.0
 51
0.0
  0
LINE
  5
1BD06
  8
0
 10
454.61458503345938
 20
685.54654207968395
 30
0.0
 11
424.60476672856481
 21
685.54654207968395
 31
0.0
  0
ARC
  5
1BD07
  8
0
 10
454.61458503345938
 20
675.54654207968395
 30
0.0
 40
10.00000000000003
 50
30.000000000000121
 51
90.0
  0
LINE
  5
1BD08
  8
0
 10
466.30592798454933
 20
675.29654207968395
 30
0.0
 11
463.2748390713038
 21
680.54654207968395
 31
0.0
  0
ARC
  5
1BD09
  8
0
 10
479.72932174320812
 20
683.04654207968406
 30
0.0
 40
15.499999999999959
 50
210.00000000000011
 51
270.0
  0
LINE
  5
1BD0A
  8
0
 10
492.33146339832979
 20
667.54654207968395
 30
0.0
 11
479.72932174320812
 21
667.54654207968395
 31
0.0
  0
ARC
  5
1BD0B
  8
0
 10
492.33146339832979
 20
683.04654207968406
 30
0.0
 40
15.49999999999997
 50
270.0
 51
329.99999999999989
  0
LINE
  5
1BD0C
  8
0
 10
508.7859460702341
 20
680.54654207968395
 30
0.0
 11
505.75485715698858
 21
675.29654207968395
 31
0.0
  0
ARC
  5
1BD0D
  8
0
 10
517.44620010807853
 20
675.54654207968395
 30
0.0
 40
10.000000000000069
 50
90.0
 51
149.99999999999989
  0
LINE
  5
1BD0E
  8
0
 10
547.45601841297287
 20
685.54654207968395
 30
0.0
 11
517.44620010807853
 21
685.54654207968395
 31
0.0
  0
LINE
  5
1BD0F
  8
0
 10
556.03039257076898
 20
653.54654207968395
 30
0.0
 11
547.45601841297287
 21
685.54654207968395
 31
0.0
  0
LINE
  5
1BD10
  8
0
 10
556.03039257076898
 20
603.54654207968395
 30
0.0
 11
556.03039257076898
 21
653.54654207968395
 31
0.0
  0
LINE
  5
1BD11
  8
0
 10
547.45601841297287
 20
571.54654207968395
 30
0.0
 11
556.03039257076898
 21
603.54654207968395
 31
0.0
  0
LINE
  5
1BD12
  8
0
 10
517.44620010807853
 20
571.54654207968395
 30
0.0
 11
547.45601841297287
 21
571.54654207968395
 31
0.0
  0
ARC
  5
1BD13
  8
0
 10
517.44620010807853
 20
581.54654207968395
 30
0.0
 40
10.00000000000005
 50
210.00000000000011
 51
270.0
  0
LINE
  5
1BD14
  8
0
 10
505.75485715698858
 20
581.79654207968395
 30
0.0
 11
508.7859460702341
 21
576.54654207968395
 31
0.0
  0
ARC
  5
1BD15
  8
0
 10
492.33146339832979
 20
574.04654207968395
 30
0.0
 40
15.499999999999931
 50
30.000000000000121
 51
90.0
  0
LINE
  5
1BD16
  8
0
 10
479.72932174320812
 20
589.54654207968395
 30
0.0
 11
492.33146339832967
 21
589.54654207968395
 31
0.0
  0
ARC
  5
1BD17
  8
0
 10
479.72932174320812
 20
574.04654207968395
 30
0.0
 40
15.50000000000003
 50
90.0
 51
149.99999999999989
  0
LINE
  5
1BD18
  8
0
 10
463.2748390713038
 20
576.54654207968395
 30
0.0
 11
466.30592798454933
 21
581.79654207968395
 31
0.0
  0
ARC
  5
1BD19
  8
0
 10
454.61458503345938
 20
581.54654207968395
 30
0.0
 40
10.000000000000011
 50
270.0
 51
329.99999999999989
  0
LINE
  5
1BD1A
  8
0
 10
424.60476672856481
 20
571.54654207968395
 30
0.0
 11
454.61458503345938
 21
571.54654207968395
 31
0.0
  0
LINE
  5
1BD1B
  8
0
 10
416.03039257076892
 20
603.54654207968395
 30
0.0
 11
424.60476672856481
 21
571.54654207968395
 31
0.0
  0
LINE
  5
1BD1C
  8
0
 10
416.03039257076892
 20
653.54654207968395
 30
0.0
 11
416.03039257076892
 21
603.54654207968395
 31
0.0
  0
LINE
  5
1BD1D
  8
0
 10
424.60476672856481
 20
685.54654207968395
 30
0.0
 11
416.03039257076892
 21
653.54654207968395
 31
0.0
  0
ARC
  5
1BD1E
  8
0
 10
538.53039257076887
 20
592.04654207968406
 30
0.0
 40
5.5
 50
0.0
 51
180.0
  0
LINE
  5
1BD1F
  8
0
 10
533.03039257076887
 20
592.04654207968406
 30
0.0
 11
533.03039257076887
 21
586.04654207968395
 31
0.0
  0
ARC
  5
1BD20
  8
0
 10
538.53039257076887
 20
586.04654207968395
 30
0.0
 40
5.5
 50
180.0
 51
0.0
  0
LINE
  5
1BD21
  8
0
 10
544.03039257076898
 20
586.04654207968395
 30
0.0
 11
544.03039257076898
 21
592.04654207968406
 31
0.0
  0
LINE
  5
1BD22
  8
0
 10
544.03039257076898
 20
665.04654207968395
 30
0.0
 11
544.03039257076898
 21
671.04654207968406
 31
0.0
  0
ARC
  5
1BD23
  8
0
 10
538.53039257076887
 20
671.04654207968406
 30
0.0
 40
5.5
 50
0.0
 51
180.0
  0
LINE
  5
1BD24
  8
0
 10
533.03039257076887
 20
671.04654207968406
 30
0.0
 11
533.03039257076887
 21
665.04654207968395
 31
0.0
  0
ARC
  5
1BD25
  8
0
 10
538.53039257076887
 20
665.04654207968395
 30
0.0
 40
5.5
 50
180.0
 51
0.0
  0
LINE
  5
1BD26
  8
0
 10
439.03039257076898
 20
586.04654207968395
 30
0.0
 11
439.03039257076898
 21
592.04654207968406
 31
0.0
  0
ARC
  5
1BD27
  8
0
 10
433.53039257076892
 20
592.04654207968406
 30
0.0
 40
5.5
 50
0.0
 51
180.0
  0
LINE
  5
1BD28
  8
0
 10
428.03039257076898
 20
592.04654207968406
 30
0.0
 11
428.03039257076898
 21
586.04654207968395
 31
0.0
  0
ARC
  5
1BD29
  8
0
 10
433.53039257076892
 20
586.04654207968395
 30
0.0
 40
5.5
 50
180.0
 51
0.0
  0
ARC
  5
1BD2A
  8
0
 10
433.53039257076892
 20
671.04654207968406
 30
0.0
 40
5.5
 50
0.0
 51
180.0
  0
LINE
  5
1BD2B
  8
0
 10
428.03039257076898
 20
671.04654207968406
 30
0.0
 11
428.03039257076898
 21
665.04654207968395
 31
0.0
  0
ARC
  5
1BD2C
  8
0
 10
433.53039257076892
 20
665.04654207968395
 30
0.0
 40
5.5
 50
180.0
 51
0.0
  0
LINE
  5
1BD2D
  8
0
 10
439.03039257076898
 20
665.04654207968395
 30
0.0
 11
439.03039257076898
 21
671.04654207968406
 31
0.0
  0
LINE
  5
1BD2E
  8
0
 10
454.30064665794259
 20
621.54654207968395
 30
0.0
 11
454.30064665794259
 21
635.54654207968395
 31
0.0
  0
LINE
  5
1BD2F
  8
0
 10
511.03039257076898
 20
614.81679616685767
 30
0.0
 11
461.03039257076898
 21
614.81679616685767
 31
0.0
  0
ARC
  5
1BD30
  8
0
 10
511.03039257076898
 20
621.54654207968395
 30
0.0
 40
6.7297459128262087
 50
270.0
 51
0.0
  0
LINE
  5
1BD31
  8
0
 10
517.76013848359514
 20
621.54654207968395
 30
0.0
 11
517.76013848359514
 21
635.54654207968395
 31
0.0
  0
LINE
  5
1BD32
  8
0
 10
511.03039257076898
 20
642.27628799251033
 30
0.0
 11
461.03039257076898
 21
642.27628799251033
 31
0.0
  0
ARC
  5
1BD33
  8
0
 10
511.03039257076898
 20
635.54654207968395
 30
0.0
 40
1.6397026822587499
 50
0.0
 51
90.0
  0
ARC
  5
1BD36
  8
0
 10
511.03039257076898
 20
635.54654207968395
 30
0.0
 40
6.7297459128262238
 50
0.0
 51
90.0
  0
ARC
  5
1BD3E
  8
0
 10
461.03039257076898
 20
621.54654207968395
 30
0.0
 40
6.7297459128262096
 50
180.0
 51
270.0
  0
ARC
  5
1BD40
  8
0
 10
461.03039257076898
 20
621.54654207968395
 30
0.0
 40
1.6397026822587391
 50
180.0
 51
270.0
  0
ARC
  5
1BD46
  8
0
 10
461.03039257076898
 20
635.54654207968395
 30
0.0
 40
1.639702682258747
 50
90.0
 51
180.0
  0
ARC
  5
1BD48
  8
0
 10
461.03039257076898
 20
635.54654207968395
 30
0.0
 40
6.7297459128262203
 50
90.0
 51
179.99999914622629
  0
LINE
  5
1BDFB
  8
0
 10
396.03039257076898
 20
631.04654207968395
 30
0.0
 11
396.03039257076898
 21
626.04654207968395
 31
0.0
  0
LINE
  5
1BDFC
  8
0
 10
576.03039257076887
 20
626.04654207968395
 30
0.0
 11
576.03039257076887
 21
631.04654207968395
 31
0.0
  0
ARC
  5
1BDFD
  8
0
 10
575.78039257076898
 20
631.04654207968395
 30
0.0
 40
0.25
 50
0.0
 51
90.0
  0
ARC
  5
1BDFE
  8
0
 10
396.28039257076898
 20
631.04654207968395
 30
0.0
 40
0.2499999999999951
 50
90.0
 51
180.0
  0
LINE
  5
1BDFF
  8
0
 10
396.28039257076898
 20
633.29654207968395
 30
0.0
 11
396.28039257076898
 21
631.29654207968406
 31
0.0
  0
LINE
  5
1BE00
  8
0
 10
575.78039257076898
 20
631.29654207968406
 30
0.0
 11
575.78039257076898
 21
633.29654207968395
 31
0.0
  0
ARC
  5
1BE01
  8
0
 10
575.78039257076898
 20
633.54654207968406
 30
0.0
 40
0.2499999999999973
 50
270.0
 51
0.0
  0
ARC
  5
1BE02
  8
0
 10
396.28039257076898
 20
633.54654207968406
 30
0.0
 40
0.25
 50
180.0
 51
270.0
  0
LINE
  5
1BE03
  8
0
 10
396.03039257076898
 20
638.05633711134158
 30
0.0
 11
396.03039257076898
 21
633.54654207968406
 31
0.0
  0
LINE
  5
1BE04
  8
0
 10
576.03039257076887
 20
633.54654207968406
 30
0.0
 11
576.03039257076887
 21
638.05633711134158
 31
0.0
  0
ARC
  5
1BE05
  8
0
 10
575.1970592374355
 20
638.05633711134158
 30
0.0
 40
0.8333333333333712
 50
0.0000008537736463
 51
70.999999999994301
  0
ARC
  5
1BE06
  8
0
 10
396.8637259041023
 20
638.05633711134158
 30
0.0
 40
0.8333333333333488
 50
109.0000000000057
 51
180.0
  0
LINE
  5
1BE07
  8
0
 10
404.92219607430218
 20
641.71244147946845
 30
0.0
 11
396.59241910872129
 21
638.84426925767445
 31
0.0
  0
LINE
  5
1BE08
  8
0
 10
575.46836603281645
 20
638.84426925767445
 30
0.0
 11
567.13858906723567
 21
641.71244147946845
 31
0.0
  0
ARC
  5
1BE09
  8
0
 10
566.32466868109282
 20
639.34864504046982
 30
0.0
 40
2.5000000000002358
 50
70.999999999996604
 51
90.0
  0
ARC
  5
1BE0A
  8
0
 10
405.73611646044509
 20
639.34864504046982
 30
0.0
 40
2.5000000000002292
 50
90.0
 51
109.0000000000034
  0
ARC
  5
1BE0B
  8
0
 10
564.56486704553947
 20
642.59864504047016
 30
0.0
 40
0.75
 50
270.0
 51
90.0
  0
ARC
  5
1BE0C
  8
0
 10
407.49591809599832
 20
642.59864504047016
 30
0.0
 40
0.75
 50
90.0
 51
270.0
  0
ARC
  5
1BE0D
  8
0
 10
560.20855072902566
 20
644.09864504047016
 30
0.0
 40
0.75
 50
270.0
 51
90.0
  0
ARC
  5
1BE0E
  8
0
 10
411.85223441251202
 20
644.09864504047016
 30
0.0
 40
0.75
 50
90.0
 51
270.0
  0
LINE
  5
1BE0F
  8
0
 10
416.03039257076892
 20
645.53730026704943
 30
0.0
 11
414.03039257076892
 21
644.84864504047016
 31
0.0
  0
LINE
  5
1BE10
  8
0
 10
558.03039257076887
 20
644.84864504047016
 30
0.0
 11
556.03039257076898
 21
645.53730026704943
 31
0.0
  0
LINE
  5
1BE11
  8
0
 10
414.03039257076892
 20
612.24443911889784
 30
0.0
 11
416.03039257076892
 21
611.55578389231857
 31
0.0
  0
LINE
  5
1BE12
  8
0
 10
556.03039257076898
 20
611.55578389231857
 30
0.0
 11
558.03039257076887
 21
612.24443911889784
 31
0.0
  0
ARC
  5
1BE13
  8
0
 10
560.20855072902566
 20
612.99443911889784
 30
0.0
 40
0.75
 50
270.0
 51
90.0
  0
ARC
  5
1BE14
  8
0
 10
411.85223441251202
 20
612.99443911889784
 30
0.0
 40
0.75
 50
90.0
 51
270.0
  0
ARC
  5
1BE15
  8
0
 10
564.56486704553947
 20
614.49443911889784
 30
0.0
 40
0.75
 50
270.0
 51
90.0
  0
ARC
  5
1BE16
  8
0
 10
407.49591809599832
 20
614.49443911889784
 30
0.0
 40
0.75
 50
90.0
 51
270.0
  0
ARC
  5
1BE17
  8
0
 10
566.32466868109282
 20
617.74443911889875
 30
0.0
 40
2.5000000000006568
 50
270.0
 51
289.00000000000341
  0
ARC
  5
1BE18
  8
0
 10
405.73611646044509
 20
617.74443911889875
 30
0.0
 40
2.5000000000006599
 50
250.99999999999659
 51
270.0
  0
LINE
  5
1BE19
  8
0
 10
396.59241910872129
 20
618.24881490169355
 30
0.0
 11
404.92219607430218
 21
615.38064267989955
 31
0.0
  0
LINE
  5
1BE1A
  8
0
 10
567.13858906723567
 20
615.38064267989955
 30
0.0
 11
575.46836603281645
 21
618.24881490169355
 31
0.0
  0
ARC
  5
1BE1B
  8
0
 10
575.1970592374355
 20
619.03674704802597
 30
0.0
 40
0.8333333333333698
 50
289.00000000000568
 51
0.0000008537736463
  0
ARC
  5
1BE1C
  8
0
 10
396.86372590410241
 20
619.03674704802597
 30
0.0
 40
0.8333333333333712
 50
179.99999914622629
 51
250.99999999999341
  0
LINE
  5
1BE1D
  8
0
 10
396.03039257076898
 20
623.54654207968395
 30
0.0
 11
396.03039257076898
 21
619.03674704802597
 31
0.0
  0
LINE
  5
1BE1E
  8
0
 10
576.03039257076887
 20
619.03674704802597
 30
0.0
 11
576.03039257076887
 21
623.54654207968395
 31
0.0
  0
ARC
  5
1BE1F
  8
0
 10
575.78039257076898
 20
623.54654207968395
 30
0.0
 40
0.25
 50
0.0
 51
90.0
  0
ARC
  5
1BE20
  8
0
 10
396.28039257076898
 20
623.54654207968395
 30
0.0
 40
0.2499999999999947
 50
90.0
 51
180.0
  0
LINE
  5
1BE21
  8
0
 10
396.28039257076898
 20
625.79654207968395
 30
0.0
 11
396.28039257076898
 21
623.79654207968395
 31
0.0
  0
LINE
  5
1BE22
  8
0
 10
575.78039257076898
 20
623.79654207968395
 30
0.0
 11
575.78039257076898
 21
625.79654207968395
 31
0.0
  0
ARC
  5
1BE23
  8
0
 10
575.78039257076898
 20
626.04654207968395
 30
0.0
 40
0.2499999999999978
 50
270.0
 51
0.0
  0
ARC
  5
1BE24
  8
0
 10
396.28039257076898
 20
626.04654207968395
 30
0.0
 40
0.25
 50
180.0
 51
270.0
  0
LINE
  5
1BE27
  8
0
 10
575.78039257076898
 20
631.29654207968406
 30
0.0
 11
556.06636286256844
 21
631.29654207968406
 31
0.0
  0
LINE
  5
1BE28
  8
0
 10
415.99442227896941
 20
631.29654207968406
 30
0.0
 11
396.28039257076898
 21
631.29654207968406
 31
0.0
  0
LINE
  5
1BE29
  8
0
 10
575.78039257076898
 20
633.29654207968395
 30
0.0
 11
556.06636286256844
 21
633.29654207968395
 31
0.0
  0
LINE
  5
1BE2A
  8
0
 10
415.99442227896941
 20
633.29654207968395
 30
0.0
 11
396.28039257076898
 21
633.29654207968395
 31
0.0
  0
LINE
  5
1BE33
  8
0
 10
566.32466868109282
 20
641.84864504047016
 30
0.0
 11
556.08394315586929
 21
641.84864504047016
 31
0.0
  0
LINE
  5
1BE34
  8
0
 10
415.97684198566861
 20
641.84864504047016
 30
0.0
 11
405.73611646044498
 21
641.84864504047016
 31
0.0
  0
LINE
  5
1BE35
  8
0
 10
564.56486704553947
 20
643.34864504047027
 30
0.0
 11
556.08963145784128
 21
643.34864504047027
 31
0.0
  0
LINE
  5
1BE36
  8
0
 10
415.9711536836964
 20
643.34864504047027
 30
0.0
 11
407.49591809599832
 21
643.34864504047027
 31
0.0
  0
LINE
  5
1BE37
  8
0
 10
560.20855072902566
 20
644.84864504047016
 30
0.0
 11
556.11133301563621
 21
644.84864504047016
 31
0.0
  0
LINE
  5
1BE38
  8
0
 10
415.94945212590159
 20
644.84864504047016
 30
0.0
 11
411.85223441251202
 21
644.84864504047016
 31
0.0
  0
LINE
  5
1BE39
  8
0
 10
560.20855072902566
 20
612.24443911889784
 30
0.0
 11
556.11133301563621
 21
612.24443911889784
 31
0.0
  0
LINE
  5
1BE3A
  8
0
 10
415.94945212590159
 20
612.24443911889784
 30
0.0
 11
411.85223441251202
 21
612.24443911889784
 31
0.0
  0
LINE
  5
1BE3B
  8
0
 10
564.56486704553947
 20
613.74443911889784
 30
0.0
 11
556.08963145784128
 21
613.74443911889784
 31
0.0
  0
LINE
  5
1BE3C
  8
0
 10
415.9711536836964
 20
613.74443911889784
 30
0.0
 11
407.49591809599832
 21
613.74443911889784
 31
0.0
  0
LINE
  5
1BE3D
  8
0
 10
566.32466868109282
 20
615.24443911889784
 30
0.0
 11
556.08394315586929
 21
615.24443911889784
 31
0.0
  0
LINE
  5
1BE3E
  8
0
 10
415.97684198566861
 20
615.24443911889784
 30
0.0
 11
405.73611646044498
 21
615.24443911889784
 31
0.0
  0
LINE
  5
1BE47
  8
0
 10
575.78039257076898
 20
623.79654207968395
 30
0.0
 11
556.06636286256844
 21
623.79654207968395
 31
0.0
  0
LINE
  5
1BE48
  8
0
 10
415.99442227896941
 20
623.79654207968395
 30
0.0
 11
396.28039257076898
 21
623.79654207968395
 31
0.0
  0
LINE
  5
1BE4B
  8
0
 10
575.78039257076898
 20
625.79654207968395
 30
0.0
 11
556.06636286256844
 21
625.79654207968395
 31
0.0
  0
LINE
  5
1BE4C
  8
0
 10
415.99442227896941
 20
625.79654207968395
 30
0.0
 11
396.28039257076898
 21
625.79654207968395
 31
0.0
  0
LINE
  5
1BE8F
  8
0
 10
838.75543782997295
 20
278.68149017266802
 30
0.0
 11
839.98843782997312
 21
278.68149017266802
 31
0.0
  0
LINE
  5
1BE90
  8
0
 10
839.98843782997312
 20
278.68149017266802
 30
0.0
 11
840.75543782997295
 21
279.44849017266779
 31
0.0
  0
LINE
  5
1BE91
  8
0
 10
747.45543782997311
 20
276.42315683933481
 30
0.0
 11
747.7148575393885
 21
275.45498930331132
 31
0.0
  0
LINE
  5
1BE93
  8
0
 10
836.25543782997295
 20
276.86649017266791
 30
0.0
 11
838.75543782997295
 21
276.86649017266791
 31
0.0
  0
LINE
  5
1BE94
  8
0
 10
835.99601812055755
 20
275.45498930331132
 30
0.0
 11
836.25543782997295
 21
276.42315683933481
 31
0.0
  0
LINE
  5
1BE96
  8
0
 10
828.75543782997306
 20
292.68149017266802
 30
0.0
 11
814.25543782997306
 21
292.68149017266802
 31
0.0
  0
LINE
  5
1BE97
  8
0
 10
769.25543782997295
 20
292.68149017266802
 30
0.0
 11
754.75543782997295
 21
292.68149017266802
 31
0.0
  0
LINE
  5
1BE98
  8
0
 10
754.75543782997295
 20
272.68149017266802
 30
0.0
 11
769.25543782997295
 21
272.68149017266802
 31
0.0
  0
LINE
  5
1BE99
  8
0
 10
814.25543782997306
 20
272.68149017266802
 30
0.0
 11
828.75543782997306
 21
272.68149017266802
 31
0.0
  0
LINE
  5
1BE9A
  8
0
 10
839.98843782997312
 20
278.68149017266802
 30
0.0
 11
839.98843782997312
 21
282.57940083554871
 31
0.0
  0
LINE
  5
1BE9B
  8
0
 10
840.75543782997295
 20
279.44849017266779
 30
0.0
 11
840.75543782997295
 21
283.34690976324742
 31
0.0
  0
LINE
  5
1BE9C
  8
0
 10
747.45543782997311
 20
276.42315683933481
 30
0.0
 11
747.45543782997311
 21
278.05721806209613
 31
0.0
  0
LINE
  5
1BE9D
  8
0
 10
747.7148575393885
 20
275.45498930331132
 30
0.0
 11
748.99281778409284
 21
275.45498930331132
 31
0.0
  0
POLYLINE
  5
1BE9E
  8
0
 66
     1
 10
0.0
 20
0.0
 30
0.0
  0
VERTEX
  5
270F6
  8
0
 10
747.7148575393885
 20
275.45498930331132
 30
0.0
  0
VERTEX
  5
270F7
  8
0
 10
747.63401288613045
 20
275.7795631989834
 30
0.0
  0
VERTEX
  5
270F8
  8
0
 10
747.51940254737735
 20
276.38912377775517
 30
0.0
  0
VERTEX
  5
270F9
  8
0
 10
747.46262796359304
 20
276.97153194933071
 30
0.0
  0
VERTEX
  5
270FA
  8
0
 10
747.45543782997311
 20
277.26161452065031
 30
0.0
  0
SEQEND
  5
270FB
  8
0
  0
POLYLINE
  5
1BE9F
  8
0
 66
     1
 10
0.0
 20
0.0
 30
0.0
  0
VERTEX
  5
270FC
  8
0
 10
747.45543782997311
 20
277.26161452065031
 30
0.0
  0
VERTEX
  5
270FD
  8
0
 10
747.45670801008794
 20
277.38343014618158
 30
0.0
  0
VERTEX
  5
270FE
  8
0
 10
747.46676722052041
 20
277.6259686470616
 30
0.0
  0
VERTEX
  5
270FF
  8
0
 10
747.48672030130479
 20
277.8688465589853
 30
0.0
  0
VERTEX
  5
27100
  8
0
 10
747.50039937662314
 20
277.99107284395041
 30
0.0
  0
SEQEND
  5
27101
  8
0
  0
LINE
  5
1BEA0
  8
0
 10
838.75543782997295
 20
276.86649017266791
 30
0.0
 11
838.75543782997295
 21
281.34500939830468
 31
0.0
  0
LINE
  5
1BEA1
  8
0
 10
836.25543782997295
 20
276.42315683933481
 30
0.0
 11
836.25543782997295
 21
278.35902211905892
 31
0.0
  0
LINE
  5
1BEA2
  8
0
 10
834.51805154053534
 20
275.45498930331132
 30
0.0
 11
835.99601812055755
 21
275.45498930331132
 31
0.0
  0
POLYLINE
  5
1BEA3
  8
0
 66
     1
 10
0.0
 20
0.0
 30
0.0
  0
VERTEX
  5
27102
  8
0
 10
836.17558992540967
 20
278.2386922993378
 30
0.0
  0
VERTEX
  5
27103
  8
0
 10
836.19994672006635
 20
278.07325417561151
 30
0.0
  0
VERTEX
  5
27104
  8
0
 10
836.23535334729229
 20
277.74736692486698
 30
0.0
  0
VERTEX
  5
27105
  8
0
 10
836.25318234256235
 20
277.42396527462779
 30
0.0
  0
VERTEX
  5
27106
  8
0
 10
836.25543782997295
 20
277.26161452065031
 30
0.0
  0
SEQEND
  5
27107
  8
0
  0
POLYLINE
  5
1BEA4
  8
0
 66
     1
 10
0.0
 20
0.0
 30
0.0
  0
VERTEX
  5
27108
  8
0
 10
836.25543782997295
 20
277.26161452065031
 30
0.0
  0
VERTEX
  5
27109
  8
0
 10
836.24824769635313
 20
276.97153194933071
 30
0.0
  0
VERTEX
  5
2710A
  8
0
 10
836.19147311256881
 20
276.38912377775517
 30
0.0
  0
VERTEX
  5
2710B
  8
0
 10
836.07686277381561
 20
275.7795631989834
 30
0.0
  0
VERTEX
  5
2710C
  8
0
 10
835.99601812055755
 20
275.45498930331132
 30
0.0
  0
SEQEND
  5
2710D
  8
0
  0
LINE
  5
1BEDA
  8
0
 10
736.75543782997295
 20
409.68149017266791
 30
0.0
 11
846.75543782997318
 21
409.68149017266791
 31
0.0
  0
LINE
  5
1BEDB
  8
0
 10
846.75543782997295
 20
409.68149017266791
 30
0.0
 11
846.75543782997295
 21
295.98597459960592
 31
0.0
  0
LINE
  5
1BEDE
  8
0
 10
828.75543782997306
 20
409.68149017266791
 30
0.0
 11
828.75543782997306
 21
271.18149017266791
 31
0.0
  0
LINE
  5
1BEDF
  8
0
 10
754.75543782997295
 20
409.68149017266791
 30
0.0
 11
754.75543782997295
 21
271.18149017266791
 31
0.0
  0
LINE
  5
1BEE4
  8
0
 10
736.75543782997295
 20
409.68149017266791
 30
0.0
 11
736.75543782997295
 21
295.98597459960553
 31
0.0
  0
POLYLINE
  5
1BEE5
  8
0
 66
     1
 10
0.0
 20
0.0
 30
0.0
  0
VERTEX
  5
2710E
  8
0
 10
736.75543782997295
 20
295.98597459960553
 30
0.0
  0
VERTEX
  5
2710F
  8
0
 10
736.75554908373317
 20
295.89912495376569
 30
0.0
  0
VERTEX
  5
27110
  8
0
 10
736.75647745711331
 20
295.72687888172231
 30
0.0
  0
VERTEX
  5
27111
  8
0
 10
736.75843255396103
 20
295.55666594364811
 30
0.0
  0
VERTEX
  5
27112
  8
0
 10
736.75982730079113
 20
295.47235715159968
 30
0.0
  0
VERTEX
  5
27113
  8
0
 10
736.76151734234622
 20
295.3885985923875
 30
0.0
  0
VERTEX
  5
27114
  8
0
 10
736.76583464459895
 20
295.22278628299858
 30
0.0
  0
VERTEX
  5
27115
  8
0
 10
736.77148662097795
 20
295.05933489074232
 30
0.0
  0
VERTEX
  5
27116
  8
0
 10
736.77857434221505
 20
294.89834465480999
 30
0.0
  0
VERTEX
  5
27117
  8
0
 10
736.78719737700635
 20
294.73990991216579
 30
0.0
  0
VERTEX
  5
27118
  8
0
 10
736.79745302541835
 20
294.5841242641668
 30
0.0
  0
VERTEX
  5
27119
  8
0
 10
736.80322272252567
 20
294.50725351811298
 30
0.0
  0
VERTEX
  5
2711A
  8
0
 10
736.80943573576758
 20
294.431079102345
 30
0.0
  0
VERTEX
  5
2711B
  8
0
 10
736.82323651269803
 20
294.28086283957242
 30
0.0
  0
VERTEX
  5
2711C
  8
0
 10
736.83894234624699
 20
294.13356016561238
 30
0.0
  0
VERTEX
  5
2711D
  8
0
 10
736.85663567451218
 20
293.98925130810949
 30
0.0
  0
VERTEX
  5
2711E
  8
0
 10
736.87639389357321
 20
293.84801129823518
 30
0.0
  0
VERTEX
  5
2711F
  8
0
 10
736.89828893018773
 20
293.70990924129961
 30
0.0
  0
VERTEX
  5
27120
  8
0
 10
736.91005864931435
 20
293.64205474217943
 30
0.0
  0
VERTEX
  5
27121
  8
0
 10
736.92240066684724
 20
293.57493481346643
 30
0.0
  0
VERTEX
  5
27122
  8
0
 10
736.94925106476387
 20
293.44098582903189
 30
0.0
  0
VERTEX
  5
27123
  8
0
 10
736.97921221410093
 20
293.30746026399578
 30
0.0
  0
VERTEX
  5
27124
  8
0
 10
736.99541286865497
 20
293.24101525265309
 30
0.0
  0
SEQEND
  5
27125
  8
0
  0
POLYLINE
  5
1BEE6
  8
0
 66
     1
 10
0.0
 20
0.0
 30
0.0
  0
VERTEX
  5
27126
  8
0
 10
734.94636104363485
 20
293.24101525265309
 30
0.0
  0
VERTEX
  5
27127
  8
0
 10
734.93396822631655
 20
293.30517947852331
 30
0.0
  0
VERTEX
  5
27128
  8
0
 10
734.910666015483
 20
293.4358554445962
 30
0.0
  0
VERTEX
  5
27129
  8
0
 10
734.88929975999838
 20
293.56962004836208
 30
0.0
  0
VERTEX
  5
2712A
  8
0
 10
734.87932577902905
 20
293.63764367669501
 30
0.0
  0
VERTEX
  5
2712B
  8
0
 10
734.86981501007801
 20
293.70641847208071
 30
0.0
  0
VERTEX
  5
2712C
  8
0
 10
734.85215280746525
 20
293.8461904852557
 30
0.0
  0
VERTEX
  5
2712D
  8
0
 10
734.83624996179833
 20
293.98887099999962
 30
0.0
  0
VERTEX
  5
2712E
  8
0
 10
734.82203937797294
 20
294.13439064271961
 30
0.0
  0
VERTEX
  5
2712F
  8
0
 10
734.80945042403982
 20
294.28267634034552
 30
0.0
  0
VERTEX
  5
27130
  8
0
 10
734.79840933013202
 20
294.43365192002739
 30
0.0
  0
VERTEX
  5
27131
  8
0
 10
734.79344542294598
 20
294.51012391454879
 30
0.0
  0
VERTEX
  5
27132
  8
0
 10
734.78883960985058
 20
294.58723872185828
 30
0.0
  0
VERTEX
  5
27133
  8
0
 10
734.78066248406458
 20
294.74335648357152
 30
0.0
  0
VERTEX
  5
27134
  8
0
 10
734.77379731140604
 20
294.90192461455939
 30
0.0
  0
VERTEX
  5
27135
  8
0
 10
734.76816227733934
 20
295.0628561047356
 30
0.0
  0
VERTEX
  5
27136
  8
0
 10
734.76367459016001
 20
295.22605937691469
 30
0.0
  0
VERTEX
  5
27137
  8
0
 10
734.76025079006638
 20
295.39143939796082
 30
0.0
  0
VERTEX
  5
27138
  8
0
 10
734.75891167264808
 20
295.4749151594774
 30
0.0
  0
VERTEX
  5
27139
  8
0
 10
734.75780711103766
 20
295.55889813882322
 30
0.0
  0
VERTEX
  5
2713A
  8
0
 10
734.75625985198371
 20
295.72833504501159
 30
0.0
  0
VERTEX
  5
2713B
  8
0
 10
734.75552575190432
 20
295.89964752035121
 30
0.0
  0
VERTEX
  5
2713C
  8
0
 10
734.75543782997295
 20
295.98597459960592
 30
0.0
  0
SEQEND
  5
2713D
  8
0
  0
LINE
  5
1BEE7
  8
0
 10
734.75543782997295
 20
295.98597459960592
 30
0.0
 11
734.75543782997295
 21
411.68149017266791
 31
0.0
  0
POLYLINE
  5
1BEE9
  8
0
 66
     1
 10
0.0
 20
0.0
 30
0.0
  0
VERTEX
  5
2713E
  8
0
 10
736.99541286865497
 20
293.24101525265309
 30
0.0
  0
VERTEX
  5
2713F
  8
0
 10
737.0406384481953
 20
293.06871211152071
 30
0.0
  0
VERTEX
  5
27140
  8
0
 10
737.14254119180976
 20
292.7273398836428
 30
0.0
  0
VERTEX
  5
27141
  8
0
 10
737.2595411619975
 20
292.39084296820641
 30
0.0
  0
VERTEX
  5
27142
  8
0
 10
737.32363125687471
 20
292.22463170135728
 30
0.0
  0
VERTEX
  5
27143
  8
0
 10
737.39140633471561
 20
292.0598886762773
 30
0.0
  0
VERTEX
  5
27144
  8
0
 10
737.53787520655919
 20
291.73513332727862
 30
0.0
  0
VERTEX
  5
27145
  8
0
 10
737.69865731335312
 20
291.41722094743591
 30
0.0
  0
VERTEX
  5
27146
  8
0
 10
737.87343380617415
 20
291.10678199260019
 30
0.0
  0
VERTEX
  5
27147
  8
0
 10
738.06185808366445
 20
290.80443209798381
 30
0.0
  0
VERTEX
  5
27148
  8
0
 10
738.26355647938067
 20
290.51077085728679
 30
0.0
  0
VERTEX
  5
27149
  8
0
 10
738.36925948148462
 20
290.36738117552699
 30
0.0
  0
VERTEX
  5
2714A
  8
0
 10
738.47812900281713
 20
290.22638063363502
 30
0.0
  0
VERTEX
  5
2714B
  8
0
 10
738.70515013263014
 20
289.95182540469068
 30
0.0
  0
VERTEX
  5
2714C
  8
0
 10
738.94416966049607
 20
289.68764964421871
 30
0.0
  0
VERTEX
  5
2714D
  8
0
 10
739.19471358392457
 20
289.43437724233632
 30
0.0
  0
VERTEX
  5
2714E
  8
0
 10
739.4562850462579
 20
289.19251046657882
 30
0.0
  0
VERTEX
  5
2714F
  8
0
 10
739.72836532199381
 20
288.96252896584929
 30
0.0
  0
VERTEX
  5
27150
  8
0
 10
739.86817843570373
 20
288.85213866408498
 30
0.0
  0
VERTEX
  5
27151
  8
0
 10
740.01041484547613
 20
288.74488881921798
 30
0.0
  0
VERTEX
  5
27152
  8
0
 10
740.30187428091415
 20
288.54002163146828
 30
0.0
  0
VERTEX
  5
27153
  8
0
 10
740.60216563160805
 20
288.34833367717653
 30
0.0
  0
VERTEX
  5
27154
  8
0
 10
740.75543782997295
 20
288.25755174782171
 30
0.0
  0
SEQEND
  5
27155
  8
0
  0
LINE
  5
1BEEA
  8
0
 10
740.75543782997295
 20
288.25755174782171
 30
0.0
 11
741.71963685905371
 21
287.70087117882991
 31
0.0
  0
POLYLINE
  5
1BEEB
  8
0
 66
     1
 10
0.0
 20
0.0
 30
0.0
  0
VERTEX
  5
27156
  8
0
 10
738.12395877085953
 20
287.70087117882991
 30
0.0
  0
VERTEX
  5
27157
  8
0
 10
737.98989131981489
 20
287.82183072408139
 30
0.0
  0
VERTEX
  5
27158
  8
0
 10
737.72841719035387
 20
288.0709126797492
 30
0.0
  0
VERTEX
  5
27159
  8
0
 10
737.4761070365264
 20
288.32927313975051
 30
0.0
  0
VERTEX
  5
2715A
  8
0
 10
737.35349175384408
 20
288.4618279792312
 30
0.0
  0
VERTEX
  5
2715B
  8
0
 10
737.2332898973691
 20
288.59657517481219
 30
0.0
  0
VERTEX
  5
2715C
  8
0
 10
737.00028243202655
 20
288.872470194904
 30
0.0
  0
VERTEX
  5
2715D
  8
0
 10
736.77738850679532
 20
289.15659840383751
 30
0.0
  0
VERTEX
  5
2715E
  8
0
 10
736.56489879884884
 20
289.44858926847792
 30
0.0
  0
VERTEX
  5
2715F
  8
0
 10
736.36309041716515
 20
289.74806200195962
 30
0.0
  0
VERTEX
  5
27160
  8
0
 10
736.17222654114676
 20
290.05462606026998
 30
0.0
  0
VERTEX
  5
27161
  8
0
 10
736.08097714261419
 20
290.21044274835089
 30
0.0
  0
VERTEX
  5
27162
  8
0
 10
735.99255607740645
 20
290.36788165156258
 30
0.0
  0
VERTEX
  5
27163
  8
0
 10
735.82431333516831
 20
290.6874202575259
 30
0.0
  0
VERTEX
  5
27164
  8
0
 10
735.66771772070285
 20
291.01282516613492
 30
0.0
  0
VERTEX
  5
27165
  8
0
 10
735.52297345119791
 20
291.34367201508798
 30
0.0
  0
VERTEX
  5
27166
  8
0
 10
735.3902692884385
 20
291.67952934521958
 30
0.0
  0
VERTEX
  5
27167
  8
0
 10
735.26977829264115
 20
292.0199591631681
 30
0.0
  0
VERTEX
  5
27168
  8
0
 10
735.21416246430795
 20
292.1917502358578
 30
0.0
  0
VERTEX
  5
27169
  8
0
 10
735.16165759676539
 20
292.36451751256618
 30
0.0
  0
VERTEX
  5
2716A
  8
0
 10
735.066048201596
 20
292.71275505300667
 30
0.0
  0
VERTEX
  5
2716B
  8
0
 10
734.98307479186201
 20
293.06421764602868
 30
0.0
  0
VERTEX
  5
2716C
  8
0
 10
734.94636104363485
 20
293.24101525265309
 30
0.0
  0
SEQEND
  5
2716D
  8
0
  0
POLYLINE
  5
1BEED
  8
0
 66
     1
 10
0.0
 20
0.0
 30
0.0
  0
VERTEX
  5
2716E
  8
0
 10
741.71963685905371
 20
287.70087117882991
 30
0.0
  0
VERTEX
  5
2716F
  8
0
 10
741.8083781828982
 20
287.64926240006798
 30
0.0
  0
VERTEX
  5
27170
  8
0
 10
741.98389898358027
 20
287.54493392478707
 30
0.0
  0
VERTEX
  5
27171
  8
0
 10
742.15677310517447
 20
287.43914264944033
 30
0.0
  0
VERTEX
  5
27172
  8
0
 10
742.24220621137977
 20
287.38570544312103
 30
0.0
  0
VERTEX
  5
27173
  8
0
 10
742.32696397855545
 20
287.33191095270598
 30
0.0
  0
VERTEX
  5
27174
  8
0
 10
742.49443560220175
 20
287.22326151796511
 30
0.0
  0
VERTEX
  5
27175
  8
0
 10
742.65915254981144
 20
287.1132173284991
 30
0.0
  0
VERTEX
  5
27176
  8
0
 10
742.82107997779633
 20
287.00180166263232
 30
0.0
  0
VERTEX
  5
27177
  8
0
 10
742.98018363265237
 20
286.88903808880468
 30
0.0
  0
VERTEX
  5
27178
  8
0
 10
743.13642985820582
 20
286.77495046058903
 30
0.0
  0
VERTEX
  5
27179
  8
0
 10
743.21347108252667
 20
286.7174176570515
 30
0.0
  0
VERTEX
  5
2717A
  8
0
 10
743.2897856027322
 20
286.65956291164139
 30
0.0
  0
VERTEX
  5
2717B
  8
0
 10
743.44021842594827
 20
286.54289985060001
 30
0.0
  0
VERTEX
  5
2717C
  8
0
 10
743.58769650587465
 20
286.424985955919
 30
0.0
  0
VERTEX
  5
2717D
  8
0
 10
743.73218864556657
 20
286.30584617064869
 30
0.0
  0
VERTEX
  5
2717E
  8
0
 10
743.87366427971392
 20
286.18550569716041
 30
0.0
  0
VERTEX
  5
2717F
  8
0
 10
744.01209348110604
 20
286.0639899918142
 30
0.0
  0
VERTEX
  5
27180
  8
0
 10
744.08015649330684
 20
286.00279945043258
 30
0.0
  0
VERTEX
  5
27181
  8
0
 10
744.14744696696323
 20
285.94132475957349
 30
0.0
  0
VERTEX
  5
27182
  8
0
 10
744.27969610513082
 20
285.81753594856951
 30
0.0
  0
VERTEX
  5
27183
  8
0
 10
744.40881292013603
 20
285.69264974460981
 30
0.0
  0
VERTEX
  5
27184
  8
0
 10
744.47218814513781
 20
285.6298033669641
 30
0.0
  0
SEQEND
  5
27185
  8
0
  0
POLYLINE
  5
1BEEE
  8
0
 66
     1
 10
0.0
 20
0.0
 30
0.0
  0
VERTEX
  5
27186
  8
0
 10
740.47218814513792
 20
285.6298033669641
 30
0.0
  0
VERTEX
  5
27187
  8
0
 10
740.35889339761638
 20
285.74142433380121
 30
0.0
  0
VERTEX
  5
27188
  8
0
 10
740.12484815877565
 20
285.96208100804603
 30
0.0
  0
VERTEX
  5
27189
  8
0
 10
739.88099319471337
 20
286.17916780634908
 30
0.0
  0
VERTEX
  5
2718A
  8
0
 10
739.75543782997295
 20
286.28632698843148
 30
0.0
  0
SEQEND
  5
2718B
  8
0
  0
LINE
  5
1BEF0
  8
0
 10
744.47218814513781
 20
285.6298033669641
 30
0.0
 11
746.00543782997295
 21
284.09655368212913
 31
0.0
  0
POLYLINE
  5
1BEF1
  8
0
 66
     1
 10
0.0
 20
0.0
 30
0.0
  0
VERTEX
  5
2718C
  8
0
 10
746.00543782997295
 20
284.09655368212913
 30
0.0
  0
VERTEX
  5
2718D
  8
0
 10
746.17226844943423
 20
283.92758884393839
 30
0.0
  0
VERTEX
  5
2718E
  8
0
 10
746.50264710933243
 20
283.5801379958462
 30
0.0
  0
VERTEX
  5
2718F
  8
0
 10
746.82851491996712
 20
283.22013413674949
 30
0.0
  0
VERTEX
  5
27190
  8
0
 10
746.98970749358728
 20
283.03547947002471
 30
0.0
  0
VERTEX
  5
27191
  8
0
 10
747.14971292088558
 20
282.84775287888851
 30
0.0
  0
VERTEX
  5
27192
  8
0
 10
747.46608442959882
 20
282.46317587228032
 30
0.0
  0
VERTEX
  5
27193
  8
0
 10
747.77747511801249
 20
282.06659071610829
 30
0.0
  0
VERTEX
  5
27194
  8
0
 10
748.08373308770865
 20
281.65819086720921
 30
0.0
  0
VERTEX
  5
27195
  8
0
 10
748.38470894404384
 20
281.23817554570502
 30
0.0
  0
VERTEX
  5
27196
  8
0
 10
748.68025586902343
 20
280.80674963782121
 30
0.0
  0
VERTEX
  5
27197
  8
0
 10
748.82594832383541
 20
280.58682326571721
 30
0.0
  0
VERTEX
  5
27198
  8
0
 10
748.97022969292118
 20
280.36412359594118
 30
0.0
  0
VERTEX
  5
27199
  8
0
 10
749.25448896460648
 20
279.91051333594811
 30
0.0
  0
VERTEX
  5
2719A
  8
0
 10
749.53289502054452
 20
279.44614013189857
 30
0.0
  0
VERTEX
  5
2719B
  8
0
 10
749.80531205243722
 20
278.97123050808301
 30
0.0
  0
VERTEX
  5
2719C
  8
0
 10
750.07160717347188
 20
278.48601612852741
 30
0.0
  0
VERTEX
  5
2719D
  8
0
 10
750.33165048314413
 20
277.99073368398467
 30
0.0
  0
VERTEX
  5
2719E
  8
0
 10
750.45928794700455
 20
277.73939224933429
 30
0.0
  0
VERTEX
  5
2719F
  8
0
 10
750.58531513062383
 20
277.48562477647511
 30
0.0
  0
VERTEX
  5
271A0
  8
0
 10
750.83247737663442
 20
276.97093580143382
 30
0.0
  0
VERTEX
  5
271A1
  8
0
 10
751.07301665381306
 20
276.44691782751352
 30
0.0
  0
VERTEX
  5
271A2
  8
0
 10
751.19076588361554
 20
276.18149017266802
 30
0.0
  0
SEQEND
  5
271A3
  8
0
  0
POLYLINE
  5
1BEF2
  8
0
 66
     1
 10
0.0
 20
0.0
 30
0.0
  0
VERTEX
  5
271A4
  8
0
 10
748.5776888412621
 20
276.18149017266802
 30
0.0
  0
VERTEX
  5
271A5
  8
0
 10
748.49044491305176
 20
276.34179219179708
 30
0.0
  0
VERTEX
  5
271A6
  8
0
 10
748.31369347575128
 20
276.65864942443932
 30
0.0
  0
VERTEX
  5
271A7
  8
0
 10
748.13396368592885
 20
276.97043993999802
 30
0.0
  0
VERTEX
  5
271A8
  8
0
 10
748.04299700507772
 20
277.1244088826133
 30
0.0
  0
VERTEX
  5
271A9
  8
0
 10
747.95130395073772
 20
277.27707976301599
 30
0.0
  0
VERTEX
  5
271AA
  8
0
 10
747.76576346646152
 20
277.57848630528912
 30
0.0
  0
VERTEX
  5
271AB
  8
0
 10
747.57739220526469
 20
277.87457838810542
 30
0.0
  0
VERTEX
  5
271AC
  8
0
 10
747.38624090173323
 20
278.1652762641134
 30
0.0
  0
VERTEX
  5
271AD
  8
0
 10
747.1923610392098
 20
278.45050163879978
 30
0.0
  0
VERTEX
  5
271AE
  8
0
 10
746.99580483592842
 20
278.73017769157468
 30
0.0
  0
VERTEX
  5
271AF
  8
0
 10
746.89653962219097
 20
278.86791112393757
 30
0.0
  0
VERTEX
  5
271B0
  8
0
 10
746.79662523094908
 20
279.00422909646431
 30
0.0
  0
VERTEX
  5
271B1
  8
0
 10
746.59487586990099
 20
279.27258204239803
 30
0.0
  0
VERTEX
  5
271B2
  8
0
 10
746.39061109053284
 20
279.5351642530868
 30
0.0
  0
VERTEX
  5
271B3
  8
0
 10
746.18388590807876
 20
279.79190500649202
 30
0.0
  0
VERTEX
  5
271B4
  8
0
 10
745.97475600044015
 20
280.04273515387058
 30
0.0
  0
VERTEX
  5
271B5
  8
0
 10
745.76327769318993
 20
280.28758713840222
 30
0.0
  0
VERTEX
  5
271B6
  8
0
 10
745.65667566482023
 20
280.40775064787113
 30
0.0
  0
VERTEX
  5
271B7
  8
0
 10
745.54950794440299
 20
280.52639501338081
 30
0.0
  0
VERTEX
  5
271B8
  8
0
 10
745.33350432931456
 20
280.75909445997922
 30
0.0
  0
VERTEX
  5
271B9
  8
0
 10
745.11532502481339
 20
280.98562280457099
 30
0.0
  0
VERTEX
  5
271BA
  8
0
 10
745.00543782997295
 20
281.09655368212913
 30
0.0
  0
SEQEND
  5
271BB
  8
0
  0
LINE
  5
1BEF3
  8
0
 10
745.00543782997295
 20
281.09655368212913
 30
0.0
 11
740.47218814513792
 21
285.6298033669641
 31
0.0
  0
POLYLINE
  5
1BEF5
  8
0
 66
     1
 10
0.0
 20
0.0
 30
0.0
  0
VERTEX
  5
271BC
  8
0
 10
751.19076588361554
 20
276.18149017266802
 30
0.0
  0
VERTEX
  5
271BD
  8
0
 10
751.30284978293287
 20
275.93154881201099
 30
0.0
  0
VERTEX
  5
271BE
  8
0
 10
751.53302685690721
 20
275.4491032923529
 30
0.0
  0
VERTEX
  5
271BF
  8
0
 10
751.7679751635435
 20
274.99154472953518
 30
0.0
  0
VERTEX
  5
271C0
  8
0
 10
751.88605488303494
 20
274.77267556165413
 30
0.0
  0
VERTEX
  5
271C1
  8
0
 10
752.00392826470056
 20
274.56070135149372
 30
0.0
  0
VERTEX
  5
271C2
  8
0
 10
752.23731974082136
 20
274.15820895837851
 30
0.0
  0
VERTEX
  5
271C3
  8
0
 10
752.47041603533182
 20
273.776558081855
 30
0.0
  0
VERTEX
  5
271C4
  8
0
 10
752.70505688435185
 20
273.41069003812032
 30
0.0
  0
VERTEX
  5
271C5
  8
0
 10
752.93811544659263
 20
273.06403579364718
 30
0.0
  0
VERTEX
  5
271C6
  8
0
 10
753.16654693558451
 20
272.73970986054837
 30
0.0
  0
VERTEX
  5
271C7
  8
0
 10
753.27811492820626
 20
272.58680669975729
 30
0.0
  0
VERTEX
  5
271C8
  8
0
 10
753.38744900700067
 20
272.44051739313448
 30
0.0
  0
VERTEX
  5
271C9
  8
0
 10
753.59807909330141
 20
272.1689993866753
 30
0.0
  0
VERTEX
  5
271CA
  8
0
 10
753.79592835091614
 20
271.92738277594532
 30
0.0
  0
VERTEX
  5
271CB
  8
0
 10
753.97888529071417
 20
271.71743044960249
 30
0.0
  0
VERTEX
  5
271CC
  8
0
 10
754.1450110157632
 20
271.54074267573651
 30
0.0
  0
VERTEX
  5
271CD
  8
0
 10
754.29264326665043
 20
271.39861572713698
 30
0.0
  0
VERTEX
  5
271CE
  8
0
 10
754.35911335171875
 20
271.34079728868659
 30
0.0
  0
VERTEX
  5
271CF
  8
0
 10
754.42051945845276
 20
271.29190325722129
 30
0.0
  0
VERTEX
  5
271D0
  8
0
 10
754.52778542748626
 20
271.2210055450505
 30
0.0
  0
VERTEX
  5
271D1
  8
0
 10
754.61399735249051
 20
271.18584315097308
 30
0.0
  0
VERTEX
  5
271D2
  8
0
 10
754.64919340109748
 20
271.18149017266791
 30
0.0
  0
SEQEND
  5
271D3
  8
0
  0
POLYLINE
  5
1BEF6
  8
0
 66
     1
 10
0.0
 20
0.0
 30
0.0
  0
VERTEX
  5
271D4
  8
0
 10
752.63538363182886
 20
271.18149017266791
 30
0.0
  0
VERTEX
  5
271D5
  8
0
 10
752.62904131768585
 20
271.18161518107132
 30
0.0
  0
VERTEX
  5
271D6
  8
0
 10
752.61584735217605
 20
271.1826167696745
 30
0.0
  0
VERTEX
  5
271D7
  8
0
 10
752.60197283286732
 20
271.18462361496768
 30
0.0
  0
VERTEX
  5
271D8
  8
0
 10
752.59477992096481
 20
271.18600509420457
 30
0.0
  0
VERTEX
  5
271D9
  8
0
 10
752.58741638776485
 20
271.1876391360874
 30
0.0
  0
VERTEX
  5
271DA
  8
0
 10
752.57217705054893
 20
271.19166631922008
 30
0.0
  0
VERTEX
  5
271DB
  8
0
 10
752.55625426187476
 20
271.1967077131963
 30
0.0
  0
VERTEX
  5
271DC
  8
0
 10
752.53964786938911
 20
271.20276542693631
 30
0.0
  0
VERTEX
  5
271DD
  8
0
 10
752.52235812648291
 20
271.20984112869161
 30
0.0
  0
VERTEX
  5
271DE
  8
0
 10
752.50438568980132
 20
271.21793604705181
 30
0.0
  0
VERTEX
  5
271DF
  8
0
 10
752.49514377587388
 20
271.22236597681058
 30
0.0
  0
VERTEX
  5
271E0
  8
0
 10
752.48573161553804
 20
271.2270509736764
 30
0.0
  0
VERTEX
  5
271E1
  8
0
 10
752.46639735453675
 20
271.23718626770329
 30
0.0
  0
VERTEX
  5
271E2
  8
0
 10
752.44638474623332
 20
271.24834186179493
 30
0.0
  0
VERTEX
  5
271E3
  8
0
 10
752.4256960114659
 20
271.26051726977857
 30
0.0
  0
VERTEX
  5
271E4
  8
0
 10
752.40433374418876
 20
271.27371159583208
 30
0.0
  0
VERTEX
  5
271E5
  8
0
 10
752.38230090212551
 20
271.28792354517282
 30
0.0
  0
VERTEX
  5
271E6
  8
0
 10
752.37103403677304
 20
271.29541061782447
 30
0.0
  0
VERTEX
  5
271E7
  8
0
 10
752.35960079639415
 20
271.30315143619958
 30
0.0
  0
VERTEX
  5
271E8
  8
0
 10
752.33623708015023
 20
271.31939321404798
 30
0.0
  0
VERTEX
  5
271E9
  8
0
 10
752.31221373627943
 20
271.33664646550233
 30
0.0
  0
VERTEX
  5
271EA
  8
0
 10
752.2999560355637
 20
271.34565154568372
 30
0.0
  0
VERTEX
  5
271EB
  8
0
 10
752.22300222937588
 20
271.40495553958408
 30
0.0
  0
VERTEX
  5
271EC
  8
0
 10
752.05204158064737
 20
271.55034124662961
 30
0.0
  0
VERTEX
  5
271ED
  8
0
 10
751.85958627670391
 20
271.73046075460388
 30
0.0
  0
VERTEX
  5
271EE
  8
0
 10
751.64750425638442
 20
271.94377227118048
 30
0.0
  0
VERTEX
  5
271EF
  8
0
 10
751.4179543441436
 20
272.18844714498749
 30
0.0
  0
VERTEX
  5
271F0
  8
0
 10
751.17326821644133
 20
272.46251822680551
 30
0.0
  0
VERTEX
  5
271F1
  8
0
 10
751.04610616301954
 20
272.60983495493429
 30
0.0
  0
VERTEX
  5
271F2
  8
0
 10
750.91622543588596
 20
272.76357059411021
 30
0.0
  0
VERTEX
  5
271F3
  8
0
 10
750.64987070348275
 20
273.0889001924952
 30
0.0
  0
VERTEX
  5
271F4
  8
0
 10
750.37743952330175
 20
273.43556662346867
 30
0.0
  0
VERTEX
  5
271F5
  8
0
 10
750.1023493853686
 20
273.80035242915028
 30
0.0
  0
VERTEX
  5
271F6
  8
0
 10
749.82814268889683
 20
274.1797595655612
 30
0.0
  0
VERTEX
  5
271F7
  8
0
 10
749.55233914023097
 20
274.5790073012904
 30
0.0
  0
VERTEX
  5
271F8
  8
0
 10
749.41247889276121
 20
274.78899777720432
 30
0.0
  0
VERTEX
  5
271F9
  8
0
 10
749.27195258644849
 20
275.00564739833231
 30
0.0
  0
VERTEX
  5
271FA
  8
0
 10
748.99094795251267
 20
275.45810546221219
 30
0.0
  0
VERTEX
  5
271FB
  8
0
 10
748.71359235668672
 20
275.93469364001879
 30
0.0
  0
VERTEX
  5
271FC
  8
0
 10
748.5776888412621
 20
276.18149017266802
 30
0.0
  0
SEQEND
  5
271FD
  8
0
  0
LINE
  5
1BEF7
  8
0
 10
754.75543782997295
 20
271.18149017266791
 30
0.0
 11
752.63538363182886
 21
271.18149017266791
 31
0.0
  0
LINE
  5
1BEF9
  8
0
 10
738.12395877085953
 20
287.70087117882991
 30
0.0
 11
739.75543782997295
 21
286.28632698843148
 31
0.0
  0
POLYLINE
  5
1BEFA
  8
0
 66
     1
 10
0.0
 20
0.0
 30
0.0
  0
VERTEX
  5
271FE
  8
0
 10
734.94636104363485
 20
293.24101525265309
 30
0.0
  0
VERTEX
  5
271FF
  8
0
 10
734.98307479186201
 20
293.06421764602868
 30
0.0
  0
VERTEX
  5
27200
  8
0
 10
735.066048201596
 20
292.71275505300667
 30
0.0
  0
VERTEX
  5
27201
  8
0
 10
735.16165759676539
 20
292.36451751256618
 30
0.0
  0
VERTEX
  5
27202
  8
0
 10
735.21416246430795
 20
292.1917502358578
 30
0.0
  0
VERTEX
  5
27203
  8
0
 10
735.26977829264115
 20
292.0199591631681
 30
0.0
  0
VERTEX
  5
27204
  8
0
 10
735.39026928843839
 20
291.67952934521958
 30
0.0
  0
VERTEX
  5
27205
  8
0
 10
735.52297345119791
 20
291.34367201508798
 30
0.0
  0
VERTEX
  5
27206
  8
0
 10
735.66771772070274
 20
291.01282516613492
 30
0.0
  0
VERTEX
  5
27207
  8
0
 10
735.82431333516831
 20
290.6874202575259
 30
0.0
  0
VERTEX
  5
27208
  8
0
 10
735.99255607740645
 20
290.36788165156258
 30
0.0
  0
VERTEX
  5
27209
  8
0
 10
736.08097714261419
 20
290.21044274835089
 30
0.0
  0
VERTEX
  5
2720A
  8
0
 10
736.17222654114664
 20
290.05462606026998
 30
0.0
  0
VERTEX
  5
2720B
  8
0
 10
736.36309041716515
 20
289.74806200195962
 30
0.0
  0
VERTEX
  5
2720C
  8
0
 10
736.56489879884884
 20
289.44858926847792
 30
0.0
  0
VERTEX
  5
2720D
  8
0
 10
736.77738850679532
 20
289.15659840383751
 30
0.0
  0
VERTEX
  5
2720E
  8
0
 10
737.00028243202655
 20
288.872470194904
 30
0.0
  0
VERTEX
  5
2720F
  8
0
 10
737.23328989736899
 20
288.59657517481219
 30
0.0
  0
VERTEX
  5
27210
  8
0
 10
737.35349175384408
 20
288.4618279792312
 30
0.0
  0
VERTEX
  5
27211
  8
0
 10
737.4761070365264
 20
288.32927313975051
 30
0.0
  0
VERTEX
  5
27212
  8
0
 10
737.72841719035387
 20
288.0709126797492
 30
0.0
  0
VERTEX
  5
27213
  8
0
 10
737.98989131981489
 20
287.82183072408139
 30
0.0
  0
VERTEX
  5
27214
  8
0
 10
738.12395877085953
 20
287.70087117882991
 30
0.0
  0
SEQEND
  5
27215
  8
0
  0
POLYLINE
  5
1BEFB
  8
0
 66
     1
 10
0.0
 20
0.0
 30
0.0
  0
VERTEX
  5
27216
  8
0
 10
734.75543782997295
 20
295.98597459960592
 30
0.0
  0
VERTEX
  5
27217
  8
0
 10
734.75552575190432
 20
295.89964752035121
 30
0.0
  0
VERTEX
  5
27218
  8
0
 10
734.75625985198371
 20
295.72833504501159
 30
0.0
  0
VERTEX
  5
27219
  8
0
 10
734.75780711103766
 20
295.55889813882322
 30
0.0
  0
VERTEX
  5
2721A
  8
0
 10
734.75891167264808
 20
295.4749151594774
 30
0.0
  0
VERTEX
  5
2721B
  8
0
 10
734.76025079006638
 20
295.39143939796082
 30
0.0
  0
VERTEX
  5
2721C
  8
0
 10
734.76367459016001
 20
295.22605937691469
 30
0.0
  0
VERTEX
  5
2721D
  8
0
 10
734.76816227733934
 20
295.0628561047356
 30
0.0
  0
VERTEX
  5
2721E
  8
0
 10
734.77379731140604
 20
294.90192461455939
 30
0.0
  0
VERTEX
  5
2721F
  8
0
 10
734.78066248406458
 20
294.74335648357192
 30
0.0
  0
VERTEX
  5
27220
  8
0
 10
734.78883960985058
 20
294.58723872185828
 30
0.0
  0
VERTEX
  5
27221
  8
0
 10
734.79344542294598
 20
294.51012391454879
 30
0.0
  0
VERTEX
  5
27222
  8
0
 10
734.79840933013202
 20
294.43365192002739
 30
0.0
  0
VERTEX
  5
27223
  8
0
 10
734.80945042403982
 20
294.28267634034552
 30
0.0
  0
VERTEX
  5
27224
  8
0
 10
734.82203937797294
 20
294.13439064271961
 30
0.0
  0
VERTEX
  5
27225
  8
0
 10
734.83624996179833
 20
293.98887099999962
 30
0.0
  0
VERTEX
  5
27226
  8
0
 10
734.85215280746536
 20
293.8461904852557
 30
0.0
  0
VERTEX
  5
27227
  8
0
 10
734.86981501007801
 20
293.70641847208071
 30
0.0
  0
VERTEX
  5
27228
  8
0
 10
734.87932577902905
 20
293.63764367669501
 30
0.0
  0
VERTEX
  5
27229
  8
0
 10
734.88929975999838
 20
293.56962004836208
 30
0.0
  0
VERTEX
  5
2722A
  8
0
 10
734.910666015483
 20
293.4358554445962
 30
0.0
  0
VERTEX
  5
2722B
  8
0
 10
734.93396822631655
 20
293.30517947852331
 30
0.0
  0
VERTEX
  5
2722C
  8
0
 10
734.94636104363485
 20
293.24101525265309
 30
0.0
  0
SEQEND
  5
2722D
  8
0
  0
POLYLINE
  5
1BEFD
  8
0
 66
     1
 10
0.0
 20
0.0
 30
0.0
  0
VERTEX
  5
2722E
  8
0
 10
848.75543782997295
 20
295.98597459960553
 30
0.0
  0
VERTEX
  5
2722F
  8
0
 10
848.75534990804192
 20
295.89964752035121
 30
0.0
  0
VERTEX
  5
27230
  8
0
 10
848.75461580796252
 20
295.72833504501159
 30
0.0
  0
VERTEX
  5
27231
  8
0
 10
848.75306854890835
 20
295.55889813882322
 30
0.0
  0
VERTEX
  5
27232
  8
0
 10
848.75196398729815
 20
295.4749151594774
 30
0.0
  0
VERTEX
  5
27233
  8
0
 10
848.75062486987963
 20
295.39143939796082
 30
0.0
  0
VERTEX
  5
27234
  8
0
 10
848.74720106978623
 20
295.22605937691469
 30
0.0
  0
VERTEX
  5
27235
  8
0
 10
848.74271338260678
 20
295.0628561047356
 30
0.0
  0
VERTEX
  5
27236
  8
0
 10
848.73707834854008
 20
294.90192461455939
 30
0.0
  0
VERTEX
  5
27237
  8
0
 10
848.73021317588154
 20
294.74335648357152
 30
0.0
  0
VERTEX
  5
27238
  8
0
 10
848.72203605009554
 20
294.58723872185828
 30
0.0
  0
VERTEX
  5
27239
  8
0
 10
848.71743023700003
 20
294.51012391454879
 30
0.0
  0
VERTEX
  5
2723A
  8
0
 10
848.71246632981411
 20
294.43365192002739
 30
0.0
  0
VERTEX
  5
2723B
  8
0
 10
848.7014252359063
 20
294.28267634034552
 30
0.0
  0
VERTEX
  5
2723C
  8
0
 10
848.68883628197329
 20
294.13439064271961
 30
0.0
  0
VERTEX
  5
2723D
  8
0
 10
848.67462569814791
 20
293.98887099999962
 30
0.0
  0
VERTEX
  5
2723E
  8
0
 10
848.65872285248076
 20
293.8461904852557
 30
0.0
  0
VERTEX
  5
2723F
  8
0
 10
848.64106064986811
 20
293.70641847208071
 30
0.0
  0
VERTEX
  5
27240
  8
0
 10
848.63154988091708
 20
293.63764367669501
 30
0.0
  0
VERTEX
  5
27241
  8
0
 10
848.62157589994774
 20
293.56962004836208
 30
0.0
  0
VERTEX
  5
27242
  8
0
 10
848.60020964446323
 20
293.4358554445962
 30
0.0
  0
VERTEX
  5
27243
  8
0
 10
848.57690743362957
 20
293.30517947852331
 30
0.0
  0
VERTEX
  5
27244
  8
0
 10
848.56451461631127
 20
293.24101525265309
 30
0.0
  0
SEQEND
  5
27245
  8
0
  0
POLYLINE
  5
1BEFE
  8
0
 66
     1
 10
0.0
 20
0.0
 30
0.0
  0
VERTEX
  5
27246
  8
0
 10
846.51546279129116
 20
293.24101525265309
 30
0.0
  0
VERTEX
  5
27247
  8
0
 10
846.53166344584508
 20
293.30746026399578
 30
0.0
  0
VERTEX
  5
27248
  8
0
 10
846.56162459518214
 20
293.44098582903189
 30
0.0
  0
VERTEX
  5
27249
  8
0
 10
846.58847499309888
 20
293.57493481346643
 30
0.0
  0
VERTEX
  5
2724A
  8
0
 10
846.60081701063166
 20
293.64205474217943
 30
0.0
  0
VERTEX
  5
2724B
  8
0
 10
846.61258672975839
 20
293.70990924129961
 30
0.0
  0
VERTEX
  5
2724C
  8
0
 10
846.63448176637291
 20
293.84801129823518
 30
0.0
  0
VERTEX
  5
2724D
  8
0
 10
846.65423998543395
 20
293.98925130810949
 30
0.0
  0
VERTEX
  5
2724E
  8
0
 10
846.67193331369924
 20
294.13356016561238
 30
0.0
  0
VERTEX
  5
2724F
  8
0
 10
846.68763914724821
 20
294.28086283957242
 30
0.0
  0
VERTEX
  5
27250
  8
0
 10
846.70143992417854
 20
294.431079102345
 30
0.0
  0
VERTEX
  5
27251
  8
0
 10
846.70765293742033
 20
294.50725351811298
 30
0.0
  0
VERTEX
  5
27252
  8
0
 10
846.71342263452755
 20
294.5841242641668
 30
0.0
  0
VERTEX
  5
27253
  8
0
 10
846.72367828293966
 20
294.73990991216618
 30
0.0
  0
VERTEX
  5
27254
  8
0
 10
846.73230131773119
 20
294.89834465480999
 30
0.0
  0
VERTEX
  5
27255
  8
0
 10
846.73938903896828
 20
295.05933489074232
 30
0.0
  0
VERTEX
  5
27256
  8
0
 10
846.74504101534706
 20
295.22278628299858
 30
0.0
  0
VERTEX
  5
27257
  8
0
 10
846.7493583175999
 20
295.3885985923875
 30
0.0
  0
VERTEX
  5
27258
  8
0
 10
846.75104835915511
 20
295.47235715160019
 30
0.0
  0
VERTEX
  5
27259
  8
0
 10
846.75244310598509
 20
295.55666594364811
 30
0.0
  0
VERTEX
  5
2725A
  8
0
 10
846.75439820283293
 20
295.72687888172231
 30
0.0
  0
VERTEX
  5
2725B
  8
0
 10
846.75532657621295
 20
295.89912495376569
 30
0.0
  0
VERTEX
  5
2725C
  8
0
 10
846.75543782997295
 20
295.98597459960592
 30
0.0
  0
SEQEND
  5
2725D
  8
0
  0
POLYLINE
  5
1BF00
  8
0
 66
     1
 10
0.0
 20
0.0
 30
0.0
  0
VERTEX
  5
2725E
  8
0
 10
842.75543782997295
 20
288.25755174782171
 30
0.0
  0
VERTEX
  5
2725F
  8
0
 10
842.90871002833785
 20
288.34833367717653
 30
0.0
  0
VERTEX
  5
27260
  8
0
 10
843.20900137903175
 20
288.54002163146828
 30
0.0
  0
VERTEX
  5
27261
  8
0
 10
843.50046081446999
 20
288.74488881921798
 30
0.0
  0
VERTEX
  5
27262
  8
0
 10
843.64269722424262
 20
288.85213866408498
 30
0.0
  0
VERTEX
  5
27263
  8
0
 10
843.78251033795232
 20
288.96252896584929
 30
0.0
  0
VERTEX
  5
27264
  8
0
 10
844.05459061368833
 20
289.19251046657928
 30
0.0
  0
VERTEX
  5
27265
  8
0
 10
844.31616207602144
 20
289.43437724233632
 30
0.0
  0
VERTEX
  5
27266
  8
0
 10
844.56670599945005
 20
289.68764964421871
 30
0.0
  0
VERTEX
  5
27267
  8
0
 10
844.8057255273161
 20
289.95182540469068
 30
0.0
  0
VERTEX
  5
27268
  8
0
 10
845.03274665712911
 20
290.22638063363547
 30
0.0
  0
VERTEX
  5
27269
  8
0
 10
845.1416161784615
 20
290.36738117552699
 30
0.0
  0
VERTEX
  5
2726A
  8
0
 10
845.24731918056534
 20
290.51077085728679
 30
0.0
  0
VERTEX
  5
2726B
  8
0
 10
845.44901757628168
 20
290.80443209798381
 30
0.0
  0
VERTEX
  5
2726C
  8
0
 10
845.63744185377197
 20
291.10678199260019
 30
0.0
  0
VERTEX
  5
2726D
  8
0
 10
845.81221834659289
 20
291.41722094743591
 30
0.0
  0
VERTEX
  5
2726E
  8
0
 10
845.97300045338682
 20
291.73513332727862
 30
0.0
  0
VERTEX
  5
2726F
  8
0
 10
846.11946932523063
 20
292.0598886762773
 30
0.0
  0
VERTEX
  5
27270
  8
0
 10
846.18724440307153
 20
292.22463170135728
 30
0.0
  0
VERTEX
  5
27271
  8
0
 10
846.25133449794862
 20
292.39084296820641
 30
0.0
  0
VERTEX
  5
27272
  8
0
 10
846.36833446813648
 20
292.72733988364331
 30
0.0
  0
VERTEX
  5
27273
  8
0
 10
846.47023721175071
 20
293.06871211152071
 30
0.0
  0
VERTEX
  5
27274
  8
0
 10
846.51546279129116
 20
293.24101525265309
 30
0.0
  0
SEQEND
  5
27275
  8
0
  0
POLYLINE
  5
1BF02
  8
0
 66
     1
 10
0.0
 20
0.0
 30
0.0
  0
VERTEX
  5
27276
  8
0
 10
848.56451461631127
 20
293.24101525265309
 30
0.0
  0
VERTEX
  5
27277
  8
0
 10
848.52780086808411
 20
293.06421764602868
 30
0.0
  0
VERTEX
  5
27278
  8
0
 10
848.44482745835035
 20
292.71275505300667
 30
0.0
  0
VERTEX
  5
27279
  8
0
 10
848.34921806318061
 20
292.36451751256618
 30
0.0
  0
VERTEX
  5
2727A
  8
0
 10
848.29671319563795
 20
292.1917502358578
 30
0.0
  0
VERTEX
  5
2727B
  8
0
 10
848.24109736730486
 20
292.0199591631681
 30
0.0
  0
VERTEX
  5
2727C
  8
0
 10
848.12060637150773
 20
291.67952934521958
 30
0.0
  0
VERTEX
  5
2727D
  8
0
 10
847.98790220874844
 20
291.34367201508798
 30
0.0
  0
VERTEX
  5
2727E
  8
0
 10
847.84315793924327
 20
291.01282516613492
 30
0.0
  0
VERTEX
  5
2727F
  8
0
 10
847.68656232477781
 20
290.6874202575259
 30
0.0
  0
VERTEX
  5
27280
  8
0
 10
847.51831958253979
 20
290.36788165156258
 30
0.0
  0
VERTEX
  5
27281
  8
0
 10
847.42989851733194
 20
290.21044274835089
 30
0.0
  0
VERTEX
  5
27282
  8
0
 10
847.33864911879937
 20
290.05462606026998
 30
0.0
  0
VERTEX
  5
27283
  8
0
 10
847.14778524278086
 20
289.74806200195962
 30
0.0
  0
VERTEX
  5
27284
  8
0
 10
846.94597686109705
 20
289.44858926847792
 30
0.0
  0
VERTEX
  5
27285
  8
0
 10
846.73348715315092
 20
289.15659840383751
 30
0.0
  0
VERTEX
  5
27286
  8
0
 10
846.51059322791946
 20
288.872470194904
 30
0.0
  0
VERTEX
  5
27287
  8
0
 10
846.27758576257713
 20
288.59657517481219
 30
0.0
  0
VERTEX
  5
27288
  8
0
 10
846.15738390610215
 20
288.4618279792312
 30
0.0
  0
VERTEX
  5
27289
  8
0
 10
846.03476862341972
 20
288.32927313975051
 30
0.0
  0
VERTEX
  5
2728A
  8
0
 10
845.78245846959226
 20
288.0709126797492
 30
0.0
  0
VERTEX
  5
2728B
  8
0
 10
845.52098434013135
 20
287.82183072408139
 30
0.0
  0
VERTEX
  5
2728C
  8
0
 10
845.38691688908659
 20
287.70087117882991
 30
0.0
  0
SEQEND
  5
2728D
  8
0
  0
LINE
  5
1BF03
  8
0
 10
841.7912388008923
 20
287.70087117882991
 30
0.0
 11
842.75543782997306
 21
288.25755174782171
 31
0.0
  0
POLYLINE
  5
1BF05
  8
0
 66
     1
 10
0.0
 20
0.0
 30
0.0
  0
VERTEX
  5
2728E
  8
0
 10
843.75543782997306
 20
286.28632698843148
 30
0.0
  0
VERTEX
  5
2728F
  8
0
 10
843.62988246523275
 20
286.17916780634908
 30
0.0
  0
VERTEX
  5
27290
  8
0
 10
843.38602750117059
 20
285.96208100804603
 30
0.0
  0
VERTEX
  5
27291
  8
0
 10
843.15198226232974
 20
285.74142433380121
 30
0.0
  0
VERTEX
  5
27292
  8
0
 10
843.03868751480843
 20
285.6298033669641
 30
0.0
  0
SEQEND
  5
27293
  8
0
  0
POLYLINE
  5
1BF06
  8
0
 66
     1
 10
0.0
 20
0.0
 30
0.0
  0
VERTEX
  5
27294
  8
0
 10
839.03868751480832
 20
285.6298033669641
 30
0.0
  0
VERTEX
  5
27295
  8
0
 10
839.10206273981021
 20
285.69264974460981
 30
0.0
  0
VERTEX
  5
27296
  8
0
 10
839.23117955481518
 20
285.81753594856951
 30
0.0
  0
VERTEX
  5
27297
  8
0
 10
839.36342869298289
 20
285.94132475957349
 30
0.0
  0
VERTEX
  5
27298
  8
0
 10
839.43071916663939
 20
286.00279945043258
 30
0.0
  0
VERTEX
  5
27299
  8
0
 10
839.49878217884009
 20
286.0639899918142
 30
0.0
  0
VERTEX
  5
2729A
  8
0
 10
839.63721138023232
 20
286.18550569716041
 30
0.0
  0
VERTEX
  5
2729B
  8
0
 10
839.77868701437956
 20
286.30584617064869
 30
0.0
  0
VERTEX
  5
2729C
  8
0
 10
839.92317915407136
 20
286.4249859559186
 30
0.0
  0
VERTEX
  5
2729D
  8
0
 10
840.07065723399774
 20
286.54289985060001
 30
0.0
  0
VERTEX
  5
2729E
  8
0
 10
840.22109005721393
 20
286.65956291164139
 30
0.0
  0
VERTEX
  5
2729F
  8
0
 10
840.29740457741934
 20
286.7174176570515
 30
0.0
  0
VERTEX
  5
272A0
  8
0
 10
840.37444580174031
 20
286.77495046058903
 30
0.0
  0
VERTEX
  5
272A1
  8
0
 10
840.53069202729375
 20
286.88903808880468
 30
0.0
  0
VERTEX
  5
272A2
  8
0
 10
840.68979568214968
 20
287.00180166263232
 30
0.0
  0
VERTEX
  5
272A3
  8
0
 10
840.85172311013469
 20
287.1132173284991
 30
0.0
  0
VERTEX
  5
272A4
  8
0
 10
841.01644005774426
 20
287.22326151796511
 30
0.0
  0
VERTEX
  5
272A5
  8
0
 10
841.18391168139055
 20
287.33191095270598
 30
0.0
  0
VERTEX
  5
272A6
  8
0
 10
841.26866944856624
 20
287.38570544312103
 30
0.0
  0
VERTEX
  5
272A7
  8
0
 10
841.35410255477154
 20
287.43914264944033
 30
0.0
  0
VERTEX
  5
272A8
  8
0
 10
841.52697667636585
 20
287.54493392478707
 30
0.0
  0
VERTEX
  5
272A9
  8
0
 10
841.70249747704804
 20
287.64926240006798
 30
0.0
  0
VERTEX
  5
272AA
  8
0
 10
841.7912388008923
 20
287.70087117882991
 30
0.0
  0
SEQEND
  5
272AB
  8
0
  0
LINE
  5
1BF0A
  8
0
 10
848.75543782997295
 20
411.68149017266791
 30
0.0
 11
848.747201069786
 21
295.22605937691111
 31
0.0
  0
LINE
  5
1BF0C
  8
0
 10
837.50543782997306
 20
284.09655368212913
 30
0.0
 11
839.03868751480832
 21
285.6298033669641
 31
0.0
  0
LINE
  5
1BF0E
  8
0
 10
843.03868751480843
 20
285.6298033669641
 30
0.0
 11
838.50543782997306
 21
281.09655368212913
 31
0.0
  0
POLYLINE
  5
1BF0F
  8
0
 66
     1
 10
0.0
 20
0.0
 30
0.0
  0
VERTEX
  5
272AC
  8
0
 10
838.50543782997306
 20
281.09655368212913
 30
0.0
  0
VERTEX
  5
272AD
  8
0
 10
838.39555063513251
 20
280.98562280457099
 30
0.0
  0
VERTEX
  5
272AE
  8
0
 10
838.17737133063156
 20
280.75909445997922
 30
0.0
  0
VERTEX
  5
272AF
  8
0
 10
837.96136771554313
 20
280.52639501338081
 30
0.0
  0
VERTEX
  5
272B0
  8
0
 10
837.8541999951259
 20
280.40775064787113
 30
0.0
  0
VERTEX
  5
272B1
  8
0
 10
837.74759796675608
 20
280.28758713840222
 30
0.0
  0
VERTEX
  5
272B2
  8
0
 10
837.53611965950608
 20
280.04273515387109
 30
0.0
  0
VERTEX
  5
272B3
  8
0
 10
837.32698975186725
 20
279.79190500649202
 30
0.0
  0
VERTEX
  5
272B4
  8
0
 10
837.12026456941328
 20
279.5351642530868
 30
0.0
  0
VERTEX
  5
272B5
  8
0
 10
836.91599979004513
 20
279.27258204239803
 30
0.0
  0
VERTEX
  5
272B6
  8
0
 10
836.71425042899705
 20
279.00422909646431
 30
0.0
  0
VERTEX
  5
272B7
  8
0
 10
836.61433603775515
 20
278.86791112393757
 30
0.0
  0
VERTEX
  5
272B8
  8
0
 10
836.5150708240177
 20
278.73017769157468
 30
0.0
  0
VERTEX
  5
272B9
  8
0
 10
836.31851462073644
 20
278.45050163879978
 30
0.0
  0
VERTEX
  5
272BA
  8
0
 10
836.12463475821289
 20
278.1652762641134
 30
0.0
  0
VERTEX
  5
272BB
  8
0
 10
835.93348345468144
 20
277.87457838810542
 30
0.0
  0
VERTEX
  5
272BC
  8
0
 10
835.74511219348449
 20
277.57848630528912
 30
0.0
  0
VERTEX
  5
272BD
  8
0
 10
835.5595717092084
 20
277.27707976301599
 30
0.0
  0
VERTEX
  5
272BE
  8
0
 10
835.46787865486851
 20
277.1244088826133
 30
0.0
  0
VERTEX
  5
272BF
  8
0
 10
835.37691197401728
 20
276.97043993999802
 30
0.0
  0
VERTEX
  5
272C0
  8
0
 10
835.19718218419484
 20
276.65864942443932
 30
0.0
  0
VERTEX
  5
272C1
  8
0
 10
835.02043074689425
 20
276.34179219179708
 30
0.0
  0
VERTEX
  5
272C2
  8
0
 10
834.93318681868402
 20
276.18149017266802
 30
0.0
  0
SEQEND
  5
272C3
  8
0
  0
POLYLINE
  5
1BF10
  8
0
 66
     1
 10
0.0
 20
0.0
 30
0.0
  0
VERTEX
  5
272C4
  8
0
 10
832.32010977633047
 20
276.18149017266802
 30
0.0
  0
VERTEX
  5
272C5
  8
0
 10
832.43785900613318
 20
276.44691782751352
 30
0.0
  0
VERTEX
  5
272C6
  8
0
 10
832.67839828331182
 20
276.97093580143382
 30
0.0
  0
VERTEX
  5
272C7
  8
0
 10
832.9255605293223
 20
277.48562477647511
 30
0.0
  0
VERTEX
  5
272C8
  8
0
 10
833.05158771294145
 20
277.73939224933429
 30
0.0
  0
VERTEX
  5
272C9
  8
0
 10
833.17922517680211
 20
277.99073368398467
 30
0.0
  0
VERTEX
  5
272CA
  8
0
 10
833.43926848647425
 20
278.48601612852741
 30
0.0
  0
VERTEX
  5
272CB
  8
0
 10
833.70556360750902
 20
278.97123050808301
 30
0.0
  0
VERTEX
  5
272CC
  8
0
 10
833.97798063940161
 20
279.44614013189857
 30
0.0
  0
VERTEX
  5
272CD
  8
0
 10
834.25638669533964
 20
279.91051333594811
 30
0.0
  0
VERTEX
  5
272CE
  8
0
 10
834.54064596702494
 20
280.36412359594118
 30
0.0
  0
VERTEX
  5
272CF
  8
0
 10
834.6849273361106
 20
280.58682326571721
 30
0.0
  0
VERTEX
  5
272D0
  8
0
 10
834.8306197909227
 20
280.80674963782121
 30
0.0
  0
VERTEX
  5
272D1
  8
0
 10
835.12616671590217
 20
281.23817554570502
 30
0.0
  0
VERTEX
  5
272D2
  8
0
 10
835.42714257223747
 20
281.65819086720921
 30
0.0
  0
VERTEX
  5
272D3
  8
0
 10
835.73340054193375
 20
282.06659071610829
 30
0.0
  0
VERTEX
  5
272D4
  8
0
 10
836.04479123034719
 20
282.46317587228032
 30
0.0
  0
VERTEX
  5
272D5
  8
0
 10
836.36116273906055
 20
282.84775287888851
 30
0.0
  0
VERTEX
  5
272D6
  8
0
 10
836.52116816635885
 20
283.03547947002471
 30
0.0
  0
VERTEX
  5
272D7
  8
0
 10
836.68236073997912
 20
283.22013413674949
 30
0.0
  0
VERTEX
  5
272D8
  8
0
 10
837.00822855061369
 20
283.5801379958462
 30
0.0
  0
VERTEX
  5
272D9
  8
0
 10
837.33860721051201
 20
283.92758884393839
 30
0.0
  0
VERTEX
  5
272DA
  8
0
 10
837.50543782997306
 20
284.09655368212913
 30
0.0
  0
SEQEND
  5
272DB
  8
0
  0
POLYLINE
  5
1BF12
  8
0
 66
     1
 10
0.0
 20
0.0
 30
0.0
  0
VERTEX
  5
272DC
  8
0
 10
834.93318681868402
 20
276.18149017266802
 30
0.0
  0
VERTEX
  5
272DD
  8
0
 10
834.79728330325963
 20
275.93469364001879
 30
0.0
  0
VERTEX
  5
272DE
  8
0
 10
834.51992770743345
 20
275.45810546221219
 30
0.0
  0
VERTEX
  5
272DF
  8
0
 10
834.23892307349763
 20
275.00564739833231
 30
0.0
  0
VERTEX
  5
272E0
  8
0
 10
834.09839676718491
 20
274.78899777720432
 30
0.0
  0
VERTEX
  5
272E1
  8
0
 10
833.95853651971515
 20
274.5790073012904
 30
0.0
  0
VERTEX
  5
272E2
  8
0
 10
833.68273297104929
 20
274.1797595655612
 30
0.0
  0
VERTEX
  5
272E3
  8
0
 10
833.4085262745773
 20
273.80035242915028
 30
0.0
  0
VERTEX
  5
272E4
  8
0
 10
833.13343613664438
 20
273.43556662346867
 30
0.0
  0
VERTEX
  5
272E5
  8
0
 10
832.86100495646338
 20
273.0889001924952
 30
0.0
  0
VERTEX
  5
272E6
  8
0
 10
832.59465022406005
 20
272.76357059411021
 30
0.0
  0
VERTEX
  5
272E7
  8
0
 10
832.46476949692658
 20
272.60983495493429
 30
0.0
  0
VERTEX
  5
272E8
  8
0
 10
832.33760744350479
 20
272.46251822680551
 30
0.0
  0
VERTEX
  5
272E9
  8
0
 10
832.09292131580253
 20
272.18844714498749
 30
0.0
  0
VERTEX
  5
272EA
  8
0
 10
831.86337140356181
 20
271.94377227118048
 30
0.0
  0
VERTEX
  5
272EB
  8
0
 10
831.65128938324222
 20
271.73046075460388
 30
0.0
  0
VERTEX
  5
272EC
  8
0
 10
831.45883407929875
 20
271.55034124662961
 30
0.0
  0
VERTEX
  5
272ED
  8
0
 10
831.28787343057024
 20
271.40495553958408
 30
0.0
  0
VERTEX
  5
272EE
  8
0
 10
831.2109196243822
 20
271.34565154568372
 30
0.0
  0
VERTEX
  5
272EF
  8
0
 10
831.1986619236668
 20
271.33664646550233
 30
0.0
  0
VERTEX
  5
272F0
  8
0
 10
831.17463857979601
 20
271.31939321404798
 30
0.0
  0
VERTEX
  5
272F1
  8
0
 10
831.15127486355175
 20
271.30315143619958
 30
0.0
  0
VERTEX
  5
272F2
  8
0
 10
831.1398416231732
 20
271.29541061782447
 30
0.0
  0
VERTEX
  5
272F3
  8
0
 10
831.12857475782073
 20
271.28792354517282
 30
0.0
  0
VERTEX
  5
272F4
  8
0
 10
831.10654191575713
 20
271.27371159583208
 30
0.0
  0
VERTEX
  5
272F5
  8
0
 10
831.08517964848022
 20
271.26051726977857
 30
0.0
  0
VERTEX
  5
272F6
  8
0
 10
831.0644909137128
 20
271.24834186179493
 30
0.0
  0
VERTEX
  5
272F7
  8
0
 10
831.04447830540926
 20
271.23718626770329
 30
0.0
  0
VERTEX
  5
272F8
  8
0
 10
831.02514404440819
 20
271.2270509736764
 30
0.0
  0
VERTEX
  5
272F9
  8
0
 10
831.01573188407224
 20
271.22236597681058
 30
0.0
  0
VERTEX
  5
272FA
  8
0
 10
831.0064899701448
 20
271.21793604705181
 30
0.0
  0
VERTEX
  5
272FB
  8
0
 10
830.98851753346332
 20
271.20984112869161
 30
0.0
  0
VERTEX
  5
272FC
  8
0
 10
830.9712277905569
 20
271.20276542693631
 30
0.0
  0
VERTEX
  5
272FD
  8
0
 10
830.95462139807148
 20
271.1967077131963
 30
0.0
  0
VERTEX
  5
272FE
  8
0
 10
830.93869860939719
 20
271.19166631922008
 30
0.0
  0
VERTEX
  5
272FF
  8
0
 10
830.92345927218139
 20
271.1876391360874
 30
0.0
  0
VERTEX
  5
27300
  8
0
 10
830.91609573898131
 20
271.18600509420457
 30
0.0
  0
VERTEX
  5
27301
  8
0
 10
830.9089028270788
 20
271.18462361496768
 30
0.0
  0
VERTEX
  5
27302
  8
0
 10
830.89502830777019
 20
271.1826167696745
 30
0.0
  0
VERTEX
  5
27303
  8
0
 10
830.88183434226005
 20
271.18161518107132
 30
0.0
  0
VERTEX
  5
27304
  8
0
 10
830.87549202811715
 20
271.18149017266791
 30
0.0
  0
SEQEND
  5
27305
  8
0
  0
POLYLINE
  5
1BF13
  8
0
 66
     1
 10
0.0
 20
0.0
 30
0.0
  0
VERTEX
  5
27306
  8
0
 10
828.86168225884865
 20
271.18149017266791
 30
0.0
  0
VERTEX
  5
27307
  8
0
 10
828.89687830745561
 20
271.18584315097308
 30
0.0
  0
VERTEX
  5
27308
  8
0
 10
828.98309023245986
 20
271.2210055450505
 30
0.0
  0
VERTEX
  5
27309
  8
0
 10
829.09035620149336
 20
271.29190325722129
 30
0.0
  0
VERTEX
  5
2730A
  8
0
 10
829.15176230822738
 20
271.34079728868659
 30
0.0
  0
VERTEX
  5
2730B
  8
0
 10
829.21823239329569
 20
271.39861572713698
 30
0.0
  0
VERTEX
  5
2730C
  8
0
 10
829.36586464418303
 20
271.54074267573651
 30
0.0
  0
VERTEX
  5
2730D
  8
0
 10
829.53199036923183
 20
271.71743044960249
 30
0.0
  0
VERTEX
  5
2730E
  8
0
 10
829.71494730902998
 20
271.92738277594532
 30
0.0
  0
VERTEX
  5
2730F
  8
0
 10
829.91279656664483
 20
272.1689993866753
 30
0.0
  0
VERTEX
  5
27310
  8
0
 10
830.12342665294545
 20
272.44051739313448
 30
0.0
  0
VERTEX
  5
27311
  8
0
 10
830.23276073173986
 20
272.58680669975729
 30
0.0
  0
VERTEX
  5
27312
  8
0
 10
830.34432872436173
 20
272.73970986054837
 30
0.0
  0
VERTEX
  5
27313
  8
0
 10
830.5727602133536
 20
273.06403579364718
 30
0.0
  0
VERTEX
  5
27314
  8
0
 10
830.80581877559428
 20
273.41069003812032
 30
0.0
  0
VERTEX
  5
27315
  8
0
 10
831.04045962461419
 20
273.776558081855
 30
0.0
  0
VERTEX
  5
27316
  8
0
 10
831.27355591912465
 20
274.15820895837851
 30
0.0
  0
VERTEX
  5
27317
  8
0
 10
831.50694739524545
 20
274.56070135149372
 30
0.0
  0
VERTEX
  5
27318
  8
0
 10
831.62482077691129
 20
274.77267556165413
 30
0.0
  0
VERTEX
  5
27319
  8
0
 10
831.74290049640285
 20
274.99154472953518
 30
0.0
  0
VERTEX
  5
2731A
  8
0
 10
831.9778488030388
 20
275.4491032923529
 30
0.0
  0
VERTEX
  5
2731B
  8
0
 10
832.20802587701326
 20
275.93154881201099
 30
0.0
  0
VERTEX
  5
2731C
  8
0
 10
832.32010977633047
 20
276.18149017266802
 30
0.0
  0
SEQEND
  5
2731D
  8
0
  0
LINE
  5
1BF14
  8
0
 10
828.75543782997306
 20
271.18149017266791
 30
0.0
 11
830.87549202811715
 21
271.18149017266791
 31
0.0
  0
LINE
  5
1BF16
  8
0
 10
843.75543782997306
 20
286.28632698843148
 30
0.0
 11
845.38691688908659
 21
287.70087117882991
 31
0.0
  0
POLYLINE
  5
1BF17
  8
0
 66
     1
 10
0.0
 20
0.0
 30
0.0
  0
VERTEX
  5
2731E
  8
0
 10
845.38691688908659
 20
287.70087117882991
 30
0.0
  0
VERTEX
  5
2731F
  8
0
 10
845.52098434013135
 20
287.82183072408139
 30
0.0
  0
VERTEX
  5
27320
  8
0
 10
845.78245846959226
 20
288.0709126797492
 30
0.0
  0
VERTEX
  5
27321
  8
0
 10
846.03476862341972
 20
288.32927313975051
 30
0.0
  0
VERTEX
  5
27322
  8
0
 10
846.15738390610215
 20
288.4618279792312
 30
0.0
  0
VERTEX
  5
27323
  8
0
 10
846.27758576257713
 20
288.59657517481219
 30
0.0
  0
VERTEX
  5
27324
  8
0
 10
846.51059322791946
 20
288.872470194904
 30
0.0
  0
VERTEX
  5
27325
  8
0
 10
846.73348715315092
 20
289.15659840383751
 30
0.0
  0
VERTEX
  5
27326
  8
0
 10
846.94597686109705
 20
289.44858926847792
 30
0.0
  0
VERTEX
  5
27327
  8
0
 10
847.14778524278086
 20
289.74806200195962
 30
0.0
  0
VERTEX
  5
27328
  8
0
 10
847.33864911879937
 20
290.05462606026998
 30
0.0
  0
VERTEX
  5
27329
  8
0
 10
847.42989851733194
 20
290.21044274835089
 30
0.0
  0
VERTEX
  5
2732A
  8
0
 10
847.51831958253979
 20
290.36788165156258
 30
0.0
  0
VERTEX
  5
2732B
  8
0
 10
847.68656232477781
 20
290.6874202575259
 30
0.0
  0
VERTEX
  5
2732C
  8
0
 10
847.84315793924327
 20
291.01282516613492
 30
0.0
  0
VERTEX
  5
2732D
  8
0
 10
847.98790220874844
 20
291.34367201508798
 30
0.0
  0
VERTEX
  5
2732E
  8
0
 10
848.12060637150773
 20
291.67952934521958
 30
0.0
  0
VERTEX
  5
2732F
  8
0
 10
848.24109736730486
 20
292.0199591631681
 30
0.0
  0
VERTEX
  5
27330
  8
0
 10
848.29671319563795
 20
292.1917502358578
 30
0.0
  0
VERTEX
  5
27331
  8
0
 10
848.34921806318061
 20
292.36451751256618
 30
0.0
  0
VERTEX
  5
27332
  8
0
 10
848.44482745835035
 20
292.71275505300667
 30
0.0
  0
VERTEX
  5
27333
  8
0
 10
848.52780086808411
 20
293.06421764602868
 30
0.0
  0
VERTEX
  5
27334
  8
0
 10
848.56451461631127
 20
293.24101525265309
 30
0.0
  0
SEQEND
  5
27335
  8
0
  0
POLYLINE
  5
1BF18
  8
0
 66
     1
 10
0.0
 20
0.0
 30
0.0
  0
VERTEX
  5
27336
  8
0
 10
848.56451461631127
 20
293.24101525265309
 30
0.0
  0
VERTEX
  5
27337
  8
0
 10
848.58291728391885
 20
293.33755613117143
 30
0.0
  0
VERTEX
  5
27338
  8
0
 10
848.6164129331022
 20
293.53589223878322
 30
0.0
  0
VERTEX
  5
27339
  8
0
 10
848.64564466592856
 20
293.74108516519118
 30
0.0
  0
VERTEX
  5
2733A
  8
0
 10
848.65872285248111
 20
293.84619048525838
 30
0.0
  0
SEQEND
  5
2733B
  8
0
  0
LINE
  5
1BF1D
  8
0
 10
784.74933734988429
 20
402.68149017266791
 30
0.0
 11
798.76153831006184
 21
402.68149017266791
 31
0.0
  0
POLYLINE
  5
1BF20
  8
0
 66
     1
 10
0.0
 20
0.0
 30
0.0
  0
VERTEX
  5
2733C
  8
0
 10
803.85158154062935
 20
408.81541756527889
 30
0.0
  0
VERTEX
  5
2733D
  8
0
 10
803.85836785516949
 20
408.82977202045998
 30
0.0
  0
VERTEX
  5
2733E
  8
0
 10
803.87235701741429
 20
408.85818748154088
 30
0.0
  0
VERTEX
  5
2733F
  8
0
 10
803.8868730077163
 20
408.8861697067573
 30
0.0
  0
VERTEX
  5
27340
  8
0
 10
803.89431709064138
 20
408.89998324650048
 30
0.0
  0
VERTEX
  5
27341
  8
0
 10
803.90187875011452
 20
408.91367074307982
 30
0.0
  0
VERTEX
  5
27342
  8
0
 10
803.9173344223675
 20
408.94064598267278
 30
0.0
  0
VERTEX
  5
27343
  8
0
 10
803.93319798718903
 20
408.96705465630743
 30
0.0
  0
VERTEX
  5
27344
  8
0
 10
803.94942572218463
 20
408.9928601784099
 30
0.0
  0
VERTEX
  5
27345
  8
0
 10
803.96597274258647
 20
409.0180303709393
 30
0.0
  0
VERTEX
  5
27346
  8
0
 10
803.9827937776214
 20
409.04253796715278
 30
0.0
  0
VERTEX
  5
27347
  8
0
 10
803.99129352544344
 20
409.05453695247968
 30
0.0
  0
VERTEX
  5
27348
  8
0
 10
803.99984530515155
 20
409.06636282350382
 30
0.0
  0
VERTEX
  5
27349
  8
0
 10
804.017081713121
 20
409.08948572181077
 30
0.0
  0
VERTEX
  5
2734A
  8
0
 10
804.03445588162117
 20
409.11188913675818
 30
0.0
  0
VERTEX
  5
2734B
  8
0
 10
804.05191996783742
 20
409.13355807127112
 30
0.0
  0
VERTEX
  5
2734C
  8
0
 10
804.06942577668576
 20
409.1544802088024
 30
0.0
  0
VERTEX
  5
2734D
  8
0
 10
804.08692509453408
 20
409.17464596977959
 30
0.0
  0
VERTEX
  5
2734E
  8
0
 10
804.09565732126362
 20
409.1844429603193
 30
0.0
  0
VERTEX
  5
2734F
  8
0
 10
804.10436998592104
 20
409.19404849214959
 30
0.0
  0
VERTEX
  5
27350
  8
0
 10
804.12171305454603
 20
409.21268355319938
 30
0.0
  0
VERTEX
  5
27351
  8
0
 10
804.13890767080431
 20
409.23054944726158
 30
0.0
  0
VERTEX
  5
27352
  8
0
 10
804.14743499626809
 20
409.23919407447153
 30
0.0
  0
VERTEX
  5
27353
  8
0
 10
804.15590816892745
 20
409.24764683165313
 30
0.0
  0
VERTEX
  5
27354
  8
0
 10
804.17268968744395
 20
409.26399741928071
 30
0.0
  0
VERTEX
  5
27355
  8
0
 10
804.18941318309044
 20
409.27979434969018
 30
0.0
  0
VERTEX
  5
27356
  8
0
 10
804.19776866327516
 20
409.28750765457931
 30
0.0
  0
VERTEX
  5
27357
  8
0
 10
804.20611895505738
 20
409.29510016694297
 30
0.0
  0
VERTEX
  5
27358
  8
0
 10
804.22280109745407
 20
409.30993047010719
 30
0.0
  0
VERTEX
  5
27359
  8
0
 10
804.23945408378415
 20
409.32430010790898
 30
0.0
  0
VERTEX
  5
2735A
  8
0
 10
804.25607270888031
 20
409.33822321042129
 30
0.0
  0
VERTEX
  5
2735B
  8
0
 10
804.27265203798345
 20
409.35171322289852
 30
0.0
  0
VERTEX
  5
2735C
  8
0
 10
804.28918736252194
 20
409.36478294111112
 30
0.0
  0
VERTEX
  5
2735D
  8
0
 10
804.29743710402977
 20
409.37116401986208
 30
0.0
  0
VERTEX
  5
2735E
  8
0
 10
804.30567416212261
 20
409.37744454758962
 30
0.0
  0
VERTEX
  5
2735F
  8
0
 10
804.32210807237959
 20
409.38970964826831
 30
0.0
  0
VERTEX
  5
27360
  8
0
 10
804.33848485789179
 20
409.40158930906949
 30
0.0
  0
VERTEX
  5
27361
  8
0
 10
804.39529490986206
 20
409.44028113727421
 30
0.0
  0
VERTEX
  5
27362
  8
0
 10
804.49046208835546
 20
409.49707476934361
 30
0.0
  0
VERTEX
  5
27363
  8
0
 10
804.58219160972487
 20
409.54330721278927
 30
0.0
  0
VERTEX
  5
27364
  8
0
 10
804.66982750066722
 20
409.58044890825113
 30
0.0
  0
VERTEX
  5
27365
  8
0
 10
804.71191719665535
 20
409.59601242828552
 30
0.0
  0
VERTEX
  5
27366
  8
0
 10
804.75276326394226
 20
409.6097686751981
 30
0.0
  0
VERTEX
  5
27367
  8
0
 10
804.83047731271506
 20
409.63241042868179
 30
0.0
  0
VERTEX
  5
27368
  8
0
 10
804.90251522671235
 20
409.64941744492222
 30
0.0
  0
VERTEX
  5
27369
  8
0
 10
804.968485303948
 20
409.66174881790039
 30
0.0
  0
VERTEX
  5
2736A
  8
0
 10
805.02804847384652
 20
409.67028596875519
 30
0.0
  0
VERTEX
  5
2736B
  8
0
 10
805.08092848335741
 20
409.6758362353321
 30
0.0
  0
VERTEX
  5
2736C
  8
0
 10
805.10479587520626
 20
409.67772260831168
 30
0.0
  0
VERTEX
  5
2736D
  8
0
 10
805.12692115711377
 20
409.67912947448161
 30
0.0
  0
VERTEX
  5
2736E
  8
0
 10
805.16588986714555
 20
409.68081041018189
 30
0.0
  0
VERTEX
  5
2736F
  8
0
 10
805.19776671985312
 20
409.68143141635483
 30
0.0
  0
VERTEX
  5
27370
  8
0
 10
805.21104322118435
 20
409.68149017266791
 30
0.0
  0
SEQEND
  5
27371
  8
0
  0
LINE
  5
1BF21
  8
0
 10
801.93361556469017
 20
404.7023262565753
 30
0.0
 11
803.85158154062935
 21
408.81541756527889
 31
0.0
  0
POLYLINE
  5
1BF22
  8
0
 66
     1
 10
0.0
 20
0.0
 30
0.0
  0
VERTEX
  5
27372
  8
0
 10
798.76153831006184
 20
402.68149017266791
 30
0.0
  0
VERTEX
  5
27373
  8
0
 10
798.87181516843634
 20
402.68322788768859
 30
0.0
  0
VERTEX
  5
27374
  8
0
 10
799.09193098305468
 20
402.69711925647198
 30
0.0
  0
VERTEX
  5
27375
  8
0
 10
799.31073483016178
 20
402.72484683232909
 30
0.0
  0
VERTEX
  5
27376
  8
0
 10
799.41937295046228
 20
402.74386692602093
 30
0.0
  0
VERTEX
  5
27377
  8
0
 10
799.52735785411346
 20
402.76630051088517
 30
0.0
  0
VERTEX
  5
27378
  8
0
 10
799.74093985917034
 20
402.82131568231711
 30
0.0
  0
VERTEX
  5
27379
  8
0
 10
799.95063272527841
 20
402.88967388500839
 30
0.0
  0
VERTEX
  5
2737A
  8
0
 10
800.15560377589816
 20
402.97110367304458
 30
0.0
  0
VERTEX
  5
2737B
  8
0
 10
800.35503908450755
 20
403.06528169410922
 30
0.0
  0
VERTEX
  5
2737C
  8
0
 10
800.54814670665144
 20
403.17183397349248
 30
0.0
  0
VERTEX
  5
2737D
  8
0
 10
800.64208693927571
 20
403.22962011232272
 30
0.0
  0
VERTEX
  5
2737E
  8
0
 10
800.73415982469965
 20
403.2903373991212
 30
0.0
  0
VERTEX
  5
2737F
  8
0
 10
800.91233979283038
 20
403.4203214017088
 30
0.0
  0
VERTEX
  5
27380
  8
0
 10
801.08197907014323
 20
403.56126982335479
 30
0.0
  0
VERTEX
  5
27381
  8
0
 10
801.24240403025738
 20
403.71262296717481
 30
0.0
  0
VERTEX
  5
27382
  8
0
 10
801.39297763623836
 20
403.87377981981763
 30
0.0
  0
VERTEX
  5
27383
  8
0
 10
801.53310197022847
 20
404.04410043805137
 30
0.0
  0
VERTEX
  5
27384
  8
0
 10
801.59907009515757
 20
404.13248715447298
 30
0.0
  0
VERTEX
  5
27385
  8
0
 10
801.66222060774066
 20
404.22290848993629
 30
0.0
  0
VERTEX
  5
27386
  8
0
 10
801.73225155726402
 20
404.33085168746942
 30
0.0
  0
VERTEX
  5
27387
  8
0
 10
801.75152696188786
 20
404.36215846515819
 30
0.0
  0
VERTEX
  5
27388
  8
0
 10
801.77047245347001
 20
404.39366598650389
 30
0.0
  0
VERTEX
  5
27389
  8
0
 10
801.77982082718211
 20
404.40949394049221
 30
0.0
  0
VERTEX
  5
2738A
  8
0
 10
801.78908594157906
 20
404.42537077499168
 30
0.0
  0
VERTEX
  5
2738B
  8
0
 10
801.80736537241739
 20
404.45726933233931
 30
0.0
  0
VERTEX
  5
2738C
  8
0
 10
801.82530872904658
 20
404.489358138885
 30
0.0
  0
VERTEX
  5
2738D
  8
0
 10
801.84291403161058
 20
404.52163365397422
 30
0.0
  0
VERTEX
  5
2738E
  8
0
 10
801.86017933755375
 20
404.55409231635173
 30
0.0
  0
VERTEX
  5
2738F
  8
0
 10
801.87710274183576
 20
404.58673054455312
 30
0.0
  0
VERTEX
  5
27390
  8
0
 10
801.88543564583847
 20
404.60311587120208
 30
0.0
  0
VERTEX
  5
27391
  8
0
 10
801.89368237714132
 20
404.61954473730242
 30
0.0
  0
VERTEX
  5
27392
  8
0
 10
801.90991641408573
 20
404.65253127390628
 30
0.0
  0
VERTEX
  5
27393
  8
0
 10
801.92580306141849
 20
404.68568651465603
 30
0.0
  0
VERTEX
  5
27394
  8
0
 10
801.93361556469017
 20
404.7023262565753
 30
0.0
  0
SEQEND
  5
27395
  8
0
  0
POLYLINE
  5
1BF23
  8
0
 66
     1
 10
0.0
 20
0.0
 30
0.0
  0
VERTEX
  5
27396
  8
0
 10
781.57726009525595
 20
404.7023262565753
 30
0.0
  0
VERTEX
  5
27397
  8
0
 10
781.58507259852763
 20
404.68568651465603
 30
0.0
  0
VERTEX
  5
27398
  8
0
 10
781.60095924586028
 20
404.65253127390628
 30
0.0
  0
VERTEX
  5
27399
  8
0
 10
781.61719328280492
 20
404.61954473730242
 30
0.0
  0
VERTEX
  5
2739A
  8
0
 10
781.62544001410765
 20
404.60311587120208
 30
0.0
  0
VERTEX
  5
2739B
  8
0
 10
781.63377291811025
 20
404.58673054455312
 30
0.0
  0
VERTEX
  5
2739C
  8
0
 10
781.65069632239238
 20
404.55409231635173
 30
0.0
  0
VERTEX
  5
2739D
  8
0
 10
781.66796162833555
 20
404.52163365397422
 30
0.0
  0
VERTEX
  5
2739E
  8
0
 10
781.68556693089965
 20
404.489358138885
 30
0.0
  0
VERTEX
  5
2739F
  8
0
 10
781.70351028752884
 20
404.45726933233931
 30
0.0
  0
VERTEX
  5
273A0
  8
0
 10
781.72178971836706
 20
404.42537077499168
 30
0.0
  0
VERTEX
  5
273A1
  8
0
 10
781.73105483276402
 20
404.40949394049221
 30
0.0
  0
VERTEX
  5
273A2
  8
0
 10
781.74040320647623
 20
404.39366598650389
 30
0.0
  0
VERTEX
  5
273A3
  8
0
 10
781.75934869805815
 20
404.36215846515768
 30
0.0
  0
VERTEX
  5
273A4
  8
0
 10
781.77862410268187
 20
404.33085168746942
 30
0.0
  0
VERTEX
  5
273A5
  8
0
 10
781.84865505220534
 20
404.22290848993629
 30
0.0
  0
VERTEX
  5
273A6
  8
0
 10
781.91180556478855
 20
404.13248715447298
 30
0.0
  0
VERTEX
  5
273A7
  8
0
 10
781.97777368971765
 20
404.04410043805137
 30
0.0
  0
VERTEX
  5
273A8
  8
0
 10
782.11789802370777
 20
403.87377981981763
 30
0.0
  0
VERTEX
  5
273A9
  8
0
 10
782.26847162968875
 20
403.71262296717481
 30
0.0
  0
VERTEX
  5
273AA
  8
0
 10
782.42889658980289
 20
403.56126982335479
 30
0.0
  0
VERTEX
  5
273AB
  8
0
 10
782.59853586711563
 20
403.4203214017088
 30
0.0
  0
VERTEX
  5
273AC
  8
0
 10
782.77671583524648
 20
403.2903373991212
 30
0.0
  0
VERTEX
  5
273AD
  8
0
 10
782.86878872067041
 20
403.22962011232272
 30
0.0
  0
VERTEX
  5
273AE
  8
0
 10
782.9627289532948
 20
403.17183397349248
 30
0.0
  0
VERTEX
  5
273AF
  8
0
 10
783.15583657543857
 20
403.06528169410922
 30
0.0
  0
VERTEX
  5
273B0
  8
0
 10
783.35527188404797
 20
402.97110367304458
 30
0.0
  0
VERTEX
  5
273B1
  8
0
 10
783.56024293466771
 20
402.88967388500839
 30
0.0
  0
VERTEX
  5
273B2
  8
0
 10
783.76993580077578
 20
402.82131568231711
 30
0.0
  0
VERTEX
  5
273B3
  8
0
 10
783.98351780583266
 20
402.76630051088517
 30
0.0
  0
VERTEX
  5
273B4
  8
0
 10
784.09150270948396
 20
402.74386692602093
 30
0.0
  0
VERTEX
  5
273B5
  8
0
 10
784.20014082978423
 20
402.72484683232909
 30
0.0
  0
VERTEX
  5
273B6
  8
0
 10
784.41894467689144
 20
402.69711925647198
 30
0.0
  0
VERTEX
  5
273B7
  8
0
 10
784.63906049150967
 20
402.68322788768859
 30
0.0
  0
VERTEX
  5
273B8
  8
0
 10
784.74933734988429
 20
402.68149017266791
 30
0.0
  0
SEQEND
  5
273B9
  8
0
  0
LINE
  5
1BF24
  8
0
 10
779.65929411931688
 20
408.81541756527889
 30
0.0
 11
781.57726009525595
 21
404.7023262565753
 31
0.0
  0
POLYLINE
  5
1BF25
  8
0
 66
     1
 10
0.0
 20
0.0
 30
0.0
  0
VERTEX
  5
273BA
  8
0
 10
778.29983243876188
 20
409.68149017266791
 30
0.0
  0
VERTEX
  5
273BB
  8
0
 10
778.313108940093
 20
409.68143141635483
 30
0.0
  0
VERTEX
  5
273BC
  8
0
 10
778.34498579280057
 20
409.68081041018189
 30
0.0
  0
VERTEX
  5
273BD
  8
0
 10
778.38395450283235
 20
409.67912947448161
 30
0.0
  0
VERTEX
  5
273BE
  8
0
 10
778.40607978473986
 20
409.67772260831168
 30
0.0
  0
VERTEX
  5
273BF
  8
0
 10
778.42994717658871
 20
409.6758362353321
 30
0.0
  0
VERTEX
  5
273C0
  8
0
 10
778.4828271860996
 20
409.67028596875519
 30
0.0
  0
VERTEX
  5
273C1
  8
0
 10
778.54239035599812
 20
409.66174881790039
 30
0.0
  0
VERTEX
  5
273C2
  8
0
 10
778.60836043323388
 20
409.64941744492222
 30
0.0
  0
VERTEX
  5
273C3
  8
0
 10
778.68039834723095
 20
409.63241042868179
 30
0.0
  0
VERTEX
  5
273C4
  8
0
 10
778.75811239600398
 20
409.6097686751981
 30
0.0
  0
VERTEX
  5
273C5
  8
0
 10
778.79895846329077
 20
409.59601242828552
 30
0.0
  0
VERTEX
  5
273C6
  8
0
 10
778.84104815927901
 20
409.58044890825113
 30
0.0
  0
VERTEX
  5
273C7
  8
0
 10
778.92868405022125
 20
409.54330721278927
 30
0.0
  0
VERTEX
  5
273C8
  8
0
 10
779.02041357159067
 20
409.49707476934361
 30
0.0
  0
VERTEX
  5
273C9
  8
0
 10
779.11558075008406
 20
409.44028113727421
 30
0.0
  0
VERTEX
  5
273CA
  8
0
 10
779.17239080205434
 20
409.40158930906949
 30
0.0
  0
VERTEX
  5
273CB
  8
0
 10
779.18876758756653
 20
409.38970964826831
 30
0.0
  0
VERTEX
  5
273CC
  8
0
 10
779.20520149782328
 20
409.37744454758962
 30
0.0
  0
VERTEX
  5
273CD
  8
0
 10
779.21343855591635
 20
409.37116401986208
 30
0.0
  0
VERTEX
  5
273CE
  8
0
 10
779.22168829742418
 20
409.36478294111112
 30
0.0
  0
VERTEX
  5
273CF
  8
0
 10
779.23822362196256
 20
409.35171322289852
 30
0.0
  0
VERTEX
  5
273D0
  8
0
 10
779.25480295106593
 20
409.33822321042129
 30
0.0
  0
VERTEX
  5
273D1
  8
0
 10
779.27142157616197
 20
409.32430010790898
 30
0.0
  0
VERTEX
  5
273D2
  8
0
 10
779.28807456249206
 20
409.30993047010719
 30
0.0
  0
VERTEX
  5
273D3
  8
0
 10
779.30475670488875
 20
409.29510016694297
 30
0.0
  0
VERTEX
  5
273D4
  8
0
 10
779.31310699667108
 20
409.28750765457931
 30
0.0
  0
VERTEX
  5
273D5
  8
0
 10
779.32146247685557
 20
409.27979434969018
 30
0.0
  0
VERTEX
  5
273D6
  8
0
 10
779.33818597250206
 20
409.26399741928071
 30
0.0
  0
VERTEX
  5
273D7
  8
0
 10
779.35496749101867
 20
409.24764683165313
 30
0.0
  0
VERTEX
  5
273D8
  8
0
 10
779.36344066367803
 20
409.23919407447153
 30
0.0
  0
VERTEX
  5
273D9
  8
0
 10
779.37196798914192
 20
409.23054944726158
 30
0.0
  0
VERTEX
  5
273DA
  8
0
 10
779.38916260540009
 20
409.21268355319938
 30
0.0
  0
VERTEX
  5
273DB
  8
0
 10
779.4065056740252
 20
409.19404849214959
 30
0.0
  0
VERTEX
  5
273DC
  8
0
 10
779.41521833868262
 20
409.1844429603193
 30
0.0
  0
VERTEX
  5
273DD
  8
0
 10
779.42395056541204
 20
409.17464596977959
 30
0.0
  0
VERTEX
  5
273DE
  8
0
 10
779.44144988326025
 20
409.1544802088024
 30
0.0
  0
VERTEX
  5
273DF
  8
0
 10
779.45895569210882
 20
409.13355807127112
 30
0.0
  0
VERTEX
  5
273E0
  8
0
 10
779.47641977832484
 20
409.11188913675818
 30
0.0
  0
VERTEX
  5
273E1
  8
0
 10
779.49379394682489
 20
409.08948572181077
 30
0.0
  0
VERTEX
  5
273E2
  8
0
 10
779.51103035479468
 20
409.06636282350382
 30
0.0
  0
VERTEX
  5
273E3
  8
0
 10
779.51958213450268
 20
409.05453695247968
 30
0.0
  0
VERTEX
  5
273E4
  8
0
 10
779.52808188232461
 20
409.04253796715278
 30
0.0
  0
VERTEX
  5
273E5
  8
0
 10
779.54490291735965
 20
409.0180303709393
 30
0.0
  0
VERTEX
  5
273E6
  8
0
 10
779.56144993776149
 20
408.9928601784099
 30
0.0
  0
VERTEX
  5
273E7
  8
0
 10
779.57767767275709
 20
408.96705465630743
 30
0.0
  0
VERTEX
  5
273E8
  8
0
 10
779.59354123757873
 20
408.94064598267278
 30
0.0
  0
VERTEX
  5
273E9
  8
0
 10
779.6089969098316
 20
408.91367074307982
 30
0.0
  0
VERTEX
  5
273EA
  8
0
 10
779.61655856930474
 20
408.89998324650048
 30
0.0
  0
VERTEX
  5
273EB
  8
0
 10
779.62400265222971
 20
408.8861697067573
 30
0.0
  0
VERTEX
  5
273EC
  8
0
 10
779.63851864253195
 20
408.85818748154088
 30
0.0
  0
VERTEX
  5
273ED
  8
0
 10
779.65250780477663
 20
408.82977202045998
 30
0.0
  0
VERTEX
  5
273EE
  8
0
 10
779.65929411931688
 20
408.81541756527889
 30
0.0
  0
SEQEND
  5
273EF
  8
0
  0
LINE
  5
1BF26
  8
0
 10
734.75543782997295
 20
411.68149017266791
 30
0.0
 11
848.75543782997318
 21
411.68149017266791
 31
0.0
  0
LINE
  5
1BFAF
  8
0
 10
794.25543782997295
 20
372.68149017266802
 30
0.0
 11
789.25543782997295
 21
372.68149017266802
 31
0.0
  0
LINE
  5
1BFB0
  8
0
 10
789.25543782997295
 20
192.68149017266791
 30
0.0
 11
794.25543782997295
 21
192.68149017266791
 31
0.0
  0
ARC
  5
1BFB1
  8
0
 10
794.25543782997295
 20
192.93149017266791
 30
0.0
 40
0.25
 50
270.0
 51
0.0
  0
ARC
  5
1BFB2
  8
0
 10
794.25543782997295
 20
372.43149017266802
 30
0.0
 40
0.2499999999999951
 50
0.0
 51
90.0
  0
LINE
  5
1BFB3
  8
0
 10
796.50543782997295
 20
372.43149017266802
 30
0.0
 11
794.50543782997295
 21
372.43149017266802
 31
0.0
  0
LINE
  5
1BFB4
  8
0
 10
794.50543782997295
 20
192.93149017266791
 30
0.0
 11
796.50543782997295
 21
192.93149017266791
 31
0.0
  0
ARC
  5
1BFB5
  8
0
 10
796.75543782997295
 20
192.93149017266791
 30
0.0
 40
0.2499999999999973
 50
180.0
 51
270.0
  0
ARC
  5
1BFB6
  8
0
 10
796.75543782997295
 20
372.43149017266802
 30
0.0
 40
0.25
 50
90.0
 51
180.0
  0
LINE
  5
1BFB7
  8
0
 10
801.26523286163103
 20
372.68149017266802
 30
0.0
 11
796.75543782997295
 21
372.68149017266802
 31
0.0
  0
LINE
  5
1BFB8
  8
0
 10
796.75543782997295
 20
192.68149017266791
 30
0.0
 11
801.26523286163103
 21
192.68149017266791
 31
0.0
  0
ARC
  5
1BFB9
  8
0
 10
801.26523286163081
 20
193.51482350600139
 30
0.0
 40
0.8333333333333712
 50
270.0
 51
341.00000000001171
  0
ARC
  5
1BFBA
  8
0
 10
801.26523286163081
 20
371.84815683933448
 30
0.0
 40
0.8333333333333698
 50
18.999999999988251
 51
90.0
  0
LINE
  5
1BFBB
  8
0
 10
804.92133722975746
 20
363.78968666913488
 30
0.0
 11
802.0531650079638
 21
372.11946363471537
 31
0.0
  0
LINE
  5
1BFBC
  8
0
 10
802.0531650079638
 20
193.2435167106205
 30
0.0
 11
804.92133722975746
 21
201.57329367620099
 31
0.0
  0
ARC
  5
1BFBD
  8
0
 10
802.55754079075905
 20
202.3872140623439
 30
0.0
 40
2.5000000000002358
 50
341.00000000001188
 51
0.0
  0
ARC
  5
1BFBE
  8
0
 10
802.55754079075905
 20
362.97576628299203
 30
0.0
 40
2.5000000000002292
 50
0.0
 51
18.999999999988109
  0
ARC
  5
1BFBF
  8
0
 10
805.80754079075905
 20
204.1470156978971
 30
0.0
 40
0.75
 50
180.0
 51
0.0
  0
ARC
  5
1BFC0
  8
0
 10
805.80754079075905
 20
361.21596464743828
 30
0.0
 40
0.75
 50
0.0
 51
180.0
  0
ARC
  5
1BFC1
  8
0
 10
807.30754079075905
 20
208.5033320144112
 30
0.0
 40
0.7499999999999983
 50
180.0
 51
0.0
  0
ARC
  5
1BFC2
  8
0
 10
807.30754079075905
 20
356.85964833092481
 30
0.0
 40
0.75
 50
0.0
 51
180.0
  0
LINE
  5
1BFC3
  8
0
 10
814.11923426897135
 20
337.07705403610731
 30
0.0
 11
808.05754079075905
 21
354.68149017266802
 31
0.0
  0
LINE
  5
1BFC4
  8
0
 10
808.05754079075905
 20
210.68149017266791
 30
0.0
 11
814.11923426897135
 21
228.2859263092287
 31
0.0
  0
ARC
  5
1BFC5
  8
0
 10
811.75543782997295
 20
229.0998466953715
 30
0.0
 40
2.500000000000127
 50
341.00000000001188
 51
0.0000008537736463
  0
ARC
  5
1BFC6
  8
0
 10
811.75543782997295
 20
336.2631336499644
 30
0.0
 40
2.5000000000002061
 50
0.0
 51
18.999999999988109
  0
ARC
  5
1BFC7
  8
0
 10
771.75543782997318
 20
229.0998466953715
 30
0.0
 40
2.500000000000191
 50
180.0
 51
198.99999999998809
  0
ARC
  5
1BFC8
  8
0
 10
771.75543782997318
 20
336.2631336499644
 30
0.0
 40
2.500000000000199
 50
161.00000000001191
 51
180.0
  0
LINE
  5
1BFC9
  8
0
 10
775.45333486918707
 20
354.68149017266802
 30
0.0
 11
769.39164139097477
 21
337.07705403610731
 31
0.0
  0
LINE
  5
1BFCA
  8
0
 10
769.39164139097477
 20
228.2859263092287
 30
0.0
 11
775.45333486918707
 21
210.68149017266791
 31
0.0
  0
ARC
  5
1BFCB
  8
0
 10
776.20333486918696
 20
208.5033320144112
 30
0.0
 40
0.75
 50
180.0
 51
0.0
  0
ARC
  5
1BFCC
  8
0
 10
776.20333486918696
 20
356.85964833092481
 30
0.0
 40
0.7499999999999983
 50
0.0
 51
180.0
  0
ARC
  5
1BFCD
  8
0
 10
777.70333486918707
 20
204.1470156978971
 30
0.0
 40
0.75
 50
180.0
 51
0.0
  0
ARC
  5
1BFCE
  8
0
 10
777.70333486918707
 20
361.21596464743828
 30
0.0
 40
0.75
 50
0.0
 51
180.0
  0
ARC
  5
1BFCF
  8
0
 10
780.95333486918776
 20
202.3872140623443
 30
0.0
 40
2.500000000000655
 50
180.0
 51
198.99999999998809
  0
ARC
  5
1BFD0
  8
0
 10
780.95333486918776
 20
362.97576628299157
 30
0.0
 40
2.500000000000659
 50
161.00000000001191
 51
180.0
  0
LINE
  5
1BFD1
  8
0
 10
781.45771065198244
 20
372.11946363471537
 30
0.0
 11
778.58953843018878
 21
363.78968666913488
 31
0.0
  0
LINE
  5
1BFD2
  8
0
 10
778.58953843018878
 20
201.57329367620099
 30
0.0
 11
781.45771065198244
 21
193.2435167106205
 31
0.0
  0
ARC
  5
1BFD3
  8
0
 10
782.24564279831509
 20
193.51482350600139
 30
0.0
 40
0.8333333333333715
 50
198.9999999999882
 51
270.0
  0
ARC
  5
1BFD4
  8
0
 10
782.24564279831509
 20
371.84815683933448
 30
0.0
 40
0.8333333333333712
 50
90.0
 51
161.00000000001171
  0
LINE
  5
1BFD5
  8
0
 10
786.75543782997295
 20
372.68149017266802
 30
0.0
 11
782.24564279831509
 21
372.68149017266802
 31
0.0
  0
LINE
  5
1BFD6
  8
0
 10
782.24564279831509
 20
192.68149017266791
 30
0.0
 11
786.75543782997295
 21
192.68149017266791
 31
0.0
  0
ARC
  5
1BFD7
  8
0
 10
786.75543782997295
 20
192.93149017266791
 30
0.0
 40
0.25
 50
270.0
 51
0.0
  0
ARC
  5
1BFD8
  8
0
 10
786.75543782997295
 20
372.43149017266802
 30
0.0
 40
0.2499999999999947
 50
0.0
 51
90.0
  0
LINE
  5
1BFD9
  8
0
 10
789.00543782997306
 20
372.43149017266802
 30
0.0
 11
787.00543782997295
 21
372.43149017266802
 31
0.0
  0
LINE
  5
1BFDA
  8
0
 10
787.00543782997295
 20
192.93149017266791
 30
0.0
 11
789.00543782997306
 21
192.93149017266791
 31
0.0
  0
ARC
  5
1BFDB
  8
0
 10
789.25543782997295
 20
192.93149017266791
 30
0.0
 40
0.2499999999999978
 50
180.0
 51
270.0
  0
ARC
  5
1BFDC
  8
0
 10
789.25543782997295
 20
372.43149017266802
 30
0.0
 40
0.25
 50
90.0
 51
180.0
  0
LINE
  5
1BFDE
  8
0
 10
794.50543782997295
 20
192.93149017266791
 30
0.0
 11
794.50543782997295
 21
372.43149017266802
 31
0.0
  0
LINE
  5
1BFDF
  8
0
 10
796.50543782997295
 20
192.93149017266791
 30
0.0
 11
796.50543782997295
 21
372.43149017266802
 31
0.0
  0
LINE
  5
1BFE4
  8
0
 10
805.05754079075916
 20
202.3872140623439
 30
0.0
 11
805.05754079075916
 21
362.97576628299203
 31
0.0
  0
LINE
  5
1BFE5
  8
0
 10
806.55754079075905
 20
204.1470156978971
 30
0.0
 11
806.55754079075905
 21
361.21596464743828
 31
0.0
  0
LINE
  5
1BFE6
  8
0
 10
808.05754079075905
 20
208.5033320144112
 30
0.0
 11
808.05754079075905
 21
356.85964833092481
 31
0.0
  0
LINE
  5
1BFE8
  8
0
 10
814.25543782997306
 20
229.0998466953715
 30
0.0
 11
814.25543782997306
 21
336.2631336499644
 31
0.0
  0
LINE
  5
1BFEA
  8
0
 10
775.45333486918707
 20
208.5033320144112
 30
0.0
 11
775.45333486918707
 21
356.85964833092481
 31
0.0
  0
LINE
  5
1BFEB
  8
0
 10
776.95333486918696
 20
204.1470156978971
 30
0.0
 11
776.95333486918696
 21
361.21596464743828
 31
0.0
  0
LINE
  5
1BFEC
  8
0
 10
778.45333486918696
 20
202.3872140623439
 30
0.0
 11
778.45333486918696
 21
362.97576628299203
 31
0.0
  0
LINE
  5
1BFF1
  8
0
 10
787.00543782997295
 20
192.93149017266791
 30
0.0
 11
787.00543782997295
 21
372.43149017266802
 31
0.0
  0
LINE
  5
1BFF3
  8
0
 10
789.00543782997306
 20
192.93149017266791
 30
0.0
 11
789.00543782997306
 21
372.43149017266802
 31
0.0
  0
LINE
  5
1BFF4
  8
0
 10
769.25543782997295
 20
229.0998466953715
 30
0.0
 11
769.25543782997295
 21
336.2631336499644
 31
0.0
  0
LINE
  5
1BFFA
  8
0
 10
479.7720592374356
 20
279.06823973798959
 30
0.0
 11
486.03039257076898
 21
275.45498930331132
 31
0.0
  0
LINE
  5
1BFFB
  8
0
 10
486.03039257076898
 20
275.45498930331132
 30
0.0
 11
492.28872590410231
 21
279.06823973798959
 31
0.0
  0
LINE
  5
1BFFC
  8
0
 10
492.28872590410231
 20
279.06823973798959
 30
0.0
 11
492.28872590410231
 21
286.29474060734628
 31
0.0
  0
LINE
  5
1BFFD
  8
0
 10
486.03039257076898
 20
289.90799104202461
 30
0.0
 11
479.7720592374356
 21
286.29474060734628
 31
0.0
  0
LINE
  5
1BFFE
  8
0
 10
492.28872590410231
 20
286.29474060734628
 30
0.0
 11
486.03039257076898
 21
289.90799104202461
 31
0.0
  0
LINE
  5
1BFFF
  8
0
 10
479.7720592374356
 20
286.29474060734628
 30
0.0
 11
479.7720592374356
 21
279.06823973798959
 31
0.0
  0
CIRCLE
  5
1C001
  8
0
 10
486.03039257076898
 20
282.68149017266802
 30
0.0
 40
6.2583333333333391
  0
LINE
  5
1C02E
  8
0
 10
556.03039257076898
 20
411.68149017266791
 30
0.0
 11
556.03039257076898
 21
409.68149017266791
 31
0.0
  0
LINE
  5
1C02F
  8
0
 10
547.45601841297309
 20
411.68149017266791
 30
0.0
 11
547.45601841297309
 21
403.38656947764991
 31
0.0
  0
LINE
  5
1C031
  8
0
 10
508.7859460702341
 20
411.68149017266791
 30
0.0
 11
508.7859460702341
 21
286.28632698843148
 31
0.0
  0
LINE
  5
1C032
  8
0
 10
505.75485715698858
 20
411.68149017266791
 30
0.0
 11
505.75485715698858
 21
281.09655368212913
 31
0.0
  0
LINE
  5
1C035
  8
0
 10
466.30592798454933
 20
411.68149017266791
 30
0.0
 11
466.30592798454933
 21
281.09655368212913
 31
0.0
  0
LINE
  5
1C036
  8
0
 10
463.27483907130392
 20
411.68149017266791
 30
0.0
 11
463.27483907130392
 21
286.28632698843148
 31
0.0
  0
LINE
  5
1C038
  8
0
 10
424.60476672856493
 20
411.68149017266791
 30
0.0
 11
424.60476672856493
 21
403.38656947764991
 31
0.0
  0
LINE
  5
1C039
  8
0
 10
416.03039257076892
 20
411.68149017266791
 30
0.0
 11
416.03039257076892
 21
409.68149017266791
 31
0.0
  0
LINE
  5
1C03A
  8
0
 10
547.45601841297309
 20
409.68149017266791
 30
0.0
 11
556.03039257076898
 21
409.68149017266791
 31
0.0
  0
LINE
  5
1C03B
  8
0
 10
416.03039257076892
 20
409.68149017266791
 30
0.0
 11
424.60476672856493
 21
409.68149017266791
 31
0.0
  0
ARC
  5
1C03C
  8
0
 10
538.43039257076884
 20
347.75372694884618
 30
0.0
 40
19.99999999999978
 50
149.99999999999989
 51
180.0
  0
LINE
  5
1C03D
  8
0
 10
518.43039257076896
 20
300.3120830645189
 30
0.0
 11
518.43039257076896
 21
347.75372694884618
 31
0.0
  0
POLYLINE
  5
1C03E
  8
0
 66
     1
 10
0.0
 20
0.0
 30
0.0
  0
VERTEX
  5
273F0
  8
0
 10
515.50146038263438
 20
293.24101525265309
 30
0.0
  0
VERTEX
  5
273F1
  8
0
 10
515.56504758251015
 20
293.30517947852331
 30
0.0
  0
VERTEX
  5
273F2
  8
0
 10
515.69107392440355
 20
293.4358554445962
 30
0.0
  0
VERTEX
  5
273F3
  8
0
 10
515.81545807323823
 20
293.56962004836208
 30
0.0
  0
VERTEX
  5
273F4
  8
0
 10
515.87699306080924
 20
293.63764367669501
 30
0.0
  0
VERTEX
  5
273F5
  8
0
 10
515.93806832909866
 20
293.70641847208071
 30
0.0
  0
VERTEX
  5
273F6
  8
0
 10
516.0587759613328
 20
293.8461904852557
 30
0.0
  0
VERTEX
  5
273F7
  8
0
 10
516.17745583287785
 20
293.98887099999962
 30
0.0
  0
VERTEX
  5
273F8
  8
0
 10
516.29398693604799
 20
294.13439064271961
 30
0.0
  0
VERTEX
  5
273F9
  8
0
 10
516.4082528449585
 20
294.28267634034552
 30
0.0
  0
VERTEX
  5
273FA
  8
0
 10
516.52014208972662
 20
294.43365192002739
 30
0.0
  0
VERTEX
  5
273FB
  8
0
 10
516.57516205934746
 20
294.51012391454879
 30
0.0
  0
VERTEX
  5
273FC
  8
0
 10
516.62954845734112
 20
294.58723872185828
 30
0.0
  0
VERTEX
  5
273FD
  8
0
 10
516.73637139729215
 20
294.74335648357152
 30
0.0
  0
VERTEX
  5
273FE
  8
0
 10
516.84051656190809
 20
294.90192461455939
 30
0.0
  0
VERTEX
  5
273FF
  8
0
 10
516.94189163525152
 20
295.0628561047356
 30
0.0
  0
VERTEX
  5
27400
  8
0
 10
517.04040784654705
 20
295.22605937691469
 30
0.0
  0
VERTEX
  5
27401
  8
0
 10
517.13598077069923
 20
295.39143939796082
 30
0.0
  0
VERTEX
  5
27402
  8
0
 10
517.18263837732843
 20
295.4749151594774
 30
0.0
  0
VERTEX
  5
27403
  8
0
 10
517.22853061595458
 20
295.55889813882322
 30
0.0
  0
VERTEX
  5
27404
  8
0
 10
517.3179824630663
 20
295.72833504501159
 30
0.0
  0
VERTEX
  5
27405
  8
0
 10
517.40426645937282
 20
295.89964752035121
 30
0.0
  0
VERTEX
  5
27406
  8
0
 10
517.44620010807853
 20
295.98597459960592
 30
0.0
  0
SEQEND
  5
27407
  8
0
  0
ARC
  5
1C03F
  8
0
 10
508.4303925707689
 20
300.3120830645189
 30
0.0
 40
10.00000000000005
 50
334.36663451367372
 51
0.0
  0
LINE
  5
1C040
  8
0
 10
509.96131630881081
 20
287.70087117882991
 30
0.0
 11
515.50146038263438
 21
293.24101525265309
 31
0.0
  0
POLYLINE
  5
1C041
  8
0
 66
     1
 10
0.0
 20
0.0
 30
0.0
  0
VERTEX
  5
27408
  8
0
 10
508.37213008283197
 20
285.6298033669641
 30
0.0
  0
VERTEX
  5
27409
  8
0
 10
508.43754083581121
 20
285.74142433380121
 30
0.0
  0
VERTEX
  5
2740A
  8
0
 10
508.5726669174586
 20
285.96208100804603
 30
0.0
  0
VERTEX
  5
2740B
  8
0
 10
508.71345664660311
 20
286.17916780634908
 30
0.0
  0
VERTEX
  5
2740C
  8
0
 10
508.7859460702341
 20
286.28632698843148
 30
0.0
  0
SEQEND
  5
2740D
  8
0
  0
POLYLINE
  5
1C042
  8
0
 66
     1
 10
0.0
 20
0.0
 30
0.0
  0
VERTEX
  5
2740E
  8
0
 10
508.7859460702341
 20
286.28632698843148
 30
0.0
  0
VERTEX
  5
2740F
  8
0
 10
508.95435915678019
 20
286.52433580666371
 30
0.0
  0
VERTEX
  5
27410
  8
0
 10
509.32438096504723
 20
287.0005715586986
 30
0.0
  0
VERTEX
  5
27411
  8
0
 10
509.73826326892561
 20
287.47054901346019
 30
0.0
  0
VERTEX
  5
27412
  8
0
 10
509.96131630881081
 20
287.70087117882991
 30
0.0
  0
SEQEND
  5
27413
  8
0
  0
LINE
  5
1C043
  8
0
 10
502.91714391671701
 20
276.18149017266802
 30
0.0
 11
508.37213008283197
 21
285.6298033669641
 31
0.0
  0
POLYLINE
  5
1C044
  8
0
 66
     1
 10
0.0
 20
0.0
 30
0.0
  0
VERTEX
  5
27414
  8
0
 10
494.2568898788727
 20
271.18149017266791
 30
0.0
  0
VERTEX
  5
27415
  8
0
 10
494.30689140323938
 20
271.18161518107132
 30
0.0
  0
VERTEX
  5
27416
  8
0
 10
494.40699208042929
 20
271.1826167696745
 30
0.0
  0
VERTEX
  5
27417
  8
0
 10
494.50720773187248
 20
271.18462361496768
 30
0.0
  0
VERTEX
  5
27418
  8
0
 10
494.55735293187132
 20
271.18600509420457
 30
0.0
  0
VERTEX
  5
27419
  8
0
 10
494.60751996691818
 20
271.1876391360874
 30
0.0
  0
VERTEX
  5
2741A
  8
0
 10
494.70791025211707
 20
271.19166631922008
 30
0.0
  0
VERTEX
  5
2741B
  8
0
 10
494.80835994789498
 20
271.1967077131963
 30
0.0
  0
VERTEX
  5
2741C
  8
0
 10
494.90885034464048
 20
271.20276542693631
 30
0.0
  0
VERTEX
  5
2741D
  8
0
 10
495.00936269815742
 20
271.20984112869161
 30
0.0
  0
VERTEX
  5
2741E
  8
0
 10
495.10987826444313
 20
271.21793604705181
 30
0.0
  0
VERTEX
  5
2741F
  8
0
 10
495.16013140332359
 20
271.22236597681058
 30
0.0
  0
VERTEX
  5
27420
  8
0
 10
495.21037833374947
 20
271.2270509736764
 30
0.0
  0
VERTEX
  5
27421
  8
0
 10
495.31084426389322
 20
271.23718626770329
 30
0.0
  0
VERTEX
  5
27422
  8
0
 10
495.4112575127736
 20
271.24834186179493
 30
0.0
  0
VERTEX
  5
27423
  8
0
 10
495.5115996700722
 20
271.26051726977857
 30
0.0
  0
VERTEX
  5
27424
  8
0
 10
495.61185248809562
 20
271.27371159583208
 30
0.0
  0
VERTEX
  5
27425
  8
0
 10
495.71199791173899
 20
271.28792354517282
 30
0.0
  0
VERTEX
  5
27426
  8
0
 10
495.76202476827729
 20
271.29541061782447
 30
0.0
  0
VERTEX
  5
27427
  8
0
 10
495.81201810753782
 20
271.30315143619958
 30
0.0
  0
VERTEX
  5
27428
  8
0
 10
495.91189549178682
 20
271.31939321404798
 30
0.0
  0
VERTEX
  5
27429
  8
0
 10
496.01161275769999
 20
271.33664646550233
 30
0.0
  0
VERTEX
  5
2742A
  8
0
 10
496.06140602009327
 20
271.34565154568372
 30
0.0
  0
VERTEX
  5
2742B
  8
0
 10
496.35911978259708
 20
271.40495553958408
 30
0.0
  0
VERTEX
  5
2742C
  8
0
 10
496.94779499880332
 20
271.55034124662961
 30
0.0
  0
VERTEX
  5
2742D
  8
0
 10
497.52461736734023
 20
271.73046075460388
 30
0.0
  0
VERTEX
  5
2742E
  8
0
 10
498.08632429827912
 20
271.94377227118048
 30
0.0
  0
VERTEX
  5
2742F
  8
0
 10
498.63012404848757
 20
272.18844714498749
 30
0.0
  0
VERTEX
  5
27430
  8
0
 10
499.15377952509351
 20
272.46251822680551
 30
0.0
  0
VERTEX
  5
27431
  8
0
 10
499.4073002342036
 20
272.60983495493429
 30
0.0
  0
VERTEX
  5
27432
  8
0
 10
499.6549108096338
 20
272.76357059411021
 30
0.0
  0
VERTEX
  5
27433
  8
0
 10
500.13141006462462
 20
273.0889001924952
 30
0.0
  0
VERTEX
  5
27434
  8
0
 10
500.58149803827388
 20
273.43556662346867
 30
0.0
  0
VERTEX
  5
27435
  8
0
 10
501.00365248113019
 20
273.80035242915028
 30
0.0
  0
VERTEX
  5
27436
  8
0
 10
501.39662156189178
 20
274.1797595655612
 30
0.0
  0
VERTEX
  5
27437
  8
0
 10
501.7673638940841
 20
274.5790073012904
 30
0.0
  0
VERTEX
  5
27438
  8
0
 10
501.94688604102629
 20
274.78899777720432
 30
0.0
  0
VERTEX
  5
27439
  8
0
 10
502.12193698786609
 20
275.00564739833231
 30
0.0
  0
VERTEX
  5
2743A
  8
0
 10
502.45706472189431
 20
275.45810546221219
 30
0.0
  0
VERTEX
  5
2743B
  8
0
 10
502.76988736183853
 20
275.93469364001879
 30
0.0
  0
VERTEX
  5
2743C
  8
0
 10
502.91714391671701
 20
276.18149017266802
 30
0.0
  0
SEQEND
  5
2743D
  8
0
  0
LINE
  5
1C045
  8
0
 10
477.80389526266521
 20
271.18149017266791
 30
0.0
 11
494.2568898788727
 21
271.18149017266791
 31
0.0
  0
POLYLINE
  5
1C046
  8
0
 66
     1
 10
0.0
 20
0.0
 30
0.0
  0
VERTEX
  5
2743E
  8
0
 10
469.14364122482078
 20
276.18149017266802
 30
0.0
  0
VERTEX
  5
2743F
  8
0
 10
469.29089777969938
 20
275.93469364001879
 30
0.0
  0
VERTEX
  5
27440
  8
0
 10
469.60372041964371
 20
275.45810546221219
 30
0.0
  0
VERTEX
  5
27441
  8
0
 10
469.93884815367181
 20
275.00564739833231
 30
0.0
  0
VERTEX
  5
27442
  8
0
 10
470.11389910051162
 20
274.78899777720432
 30
0.0
  0
VERTEX
  5
27443
  8
0
 10
470.29342124745381
 20
274.5790073012904
 30
0.0
  0
VERTEX
  5
27444
  8
0
 10
470.66416357964619
 20
274.1797595655612
 30
0.0
  0
VERTEX
  5
27445
  8
0
 10
471.05713266040777
 20
273.80035242915028
 30
0.0
  0
VERTEX
  5
27446
  8
0
 10
471.47928710326403
 20
273.43556662346867
 30
0.0
  0
VERTEX
  5
27447
  8
0
 10
471.9293750769134
 20
273.0889001924952
 30
0.0
  0
VERTEX
  5
27448
  8
0
 10
472.40587433190422
 20
272.76357059411021
 30
0.0
  0
VERTEX
  5
27449
  8
0
 10
472.65348490733442
 20
272.60983495493429
 30
0.0
  0
VERTEX
  5
2744A
  8
0
 10
472.90700561644439
 20
272.46251822680551
 30
0.0
  0
VERTEX
  5
2744B
  8
0
 10
473.43066109305022
 20
272.18844714498749
 30
0.0
  0
VERTEX
  5
2744C
  8
0
 10
473.97446084325878
 20
271.94377227118048
 30
0.0
  0
VERTEX
  5
2744D
  8
0
 10
474.53616777419779
 20
271.73046075460388
 30
0.0
  0
VERTEX
  5
2744E
  8
0
 10
475.11299014273447
 20
271.55034124662961
 30
0.0
  0
VERTEX
  5
2744F
  8
0
 10
475.70166535894072
 20
271.40495553958408
 30
0.0
  0
VERTEX
  5
27450
  8
0
 10
475.99937912144452
 20
271.34565154568372
 30
0.0
  0
VERTEX
  5
27451
  8
0
 10
476.04917238383803
 20
271.33664646550233
 30
0.0
  0
VERTEX
  5
27452
  8
0
 10
476.14888964975108
 20
271.31939321404798
 30
0.0
  0
VERTEX
  5
27453
  8
0
 10
476.24876703400008
 20
271.30315143619958
 30
0.0
  0
VERTEX
  5
27454
  8
0
 10
476.29876037326068
 20
271.29541061782447
 30
0.0
  0
VERTEX
  5
27455
  8
0
 10
476.34878722979897
 20
271.28792354517282
 30
0.0
  0
VERTEX
  5
27456
  8
0
 10
476.44893265344228
 20
271.27371159583208
 30
0.0
  0
VERTEX
  5
27457
  8
0
 10
476.54918547146582
 20
271.26051726977857
 30
0.0
  0
VERTEX
  5
27458
  8
0
 10
476.64952762876442
 20
271.24834186179493
 30
0.0
  0
VERTEX
  5
27459
  8
0
 10
476.74994087764492
 20
271.23718626770329
 30
0.0
  0
VERTEX
  5
2745A
  8
0
 10
476.85040680778837
 20
271.2270509736764
 30
0.0
  0
VERTEX
  5
2745B
  8
0
 10
476.9006537382142
 20
271.22236597681058
 30
0.0
  0
VERTEX
  5
2745C
  8
0
 10
476.95090687709489
 20
271.21793604705181
 30
0.0
  0
VERTEX
  5
2745D
  8
0
 10
477.05142244338049
 20
271.20984112869161
 30
0.0
  0
VERTEX
  5
2745E
  8
0
 10
477.15193479689742
 20
271.20276542693631
 30
0.0
  0
VERTEX
  5
2745F
  8
0
 10
477.25242519364292
 20
271.1967077131963
 30
0.0
  0
VERTEX
  5
27460
  8
0
 10
477.35287488942089
 20
271.19166631922008
 30
0.0
  0
VERTEX
  5
27461
  8
0
 10
477.45326517461979
 20
271.1876391360874
 30
0.0
  0
VERTEX
  5
27462
  8
0
 10
477.5034322096667
 20
271.18600509420457
 30
0.0
  0
VERTEX
  5
27463
  8
0
 10
477.55357740966548
 20
271.18462361496768
 30
0.0
  0
VERTEX
  5
27464
  8
0
 10
477.65379306110867
 20
271.1826167696745
 30
0.0
  0
VERTEX
  5
27465
  8
0
 10
477.75389373829847
 20
271.18161518107132
 30
0.0
  0
VERTEX
  5
27466
  8
0
 10
477.80389526266521
 20
271.18149017266791
 30
0.0
  0
SEQEND
  5
27467
  8
0
  0
LINE
  5
1C047
  8
0
 10
463.68865505870599
 20
285.6298033669641
 30
0.0
 11
469.1436412248209
 21
276.18149017266802
 31
0.0
  0
POLYLINE
  5
1C048
  8
0
 66
     1
 10
0.0
 20
0.0
 30
0.0
  0
VERTEX
  5
27468
  8
0
 10
462.0994688327271
 20
287.70087117882991
 30
0.0
  0
VERTEX
  5
27469
  8
0
 10
462.32252187261213
 20
287.47054901346058
 30
0.0
  0
VERTEX
  5
2746A
  8
0
 10
462.73640417649227
 20
287.00057155869621
 30
0.0
  0
VERTEX
  5
2746B
  8
0
 10
463.10642598475891
 20
286.52433580666229
 30
0.0
  0
VERTEX
  5
2746C
  8
0
 10
463.27483907130392
 20
286.28632698843148
 30
0.0
  0
SEQEND
  5
2746D
  8
0
  0
POLYLINE
  5
1C049
  8
0
 66
     1
 10
0.0
 20
0.0
 30
0.0
  0
VERTEX
  5
2746E
  8
0
 10
463.27483907130392
 20
286.28632698843148
 30
0.0
  0
VERTEX
  5
2746F
  8
0
 10
463.3473284949348
 20
286.17916780634908
 30
0.0
  0
VERTEX
  5
27470
  8
0
 10
463.48811822407941
 20
285.96208100804603
 30
0.0
  0
VERTEX
  5
27471
  8
0
 10
463.6232443057267
 20
285.74142433380121
 30
0.0
  0
VERTEX
  5
27472
  8
0
 10
463.68865505870599
 20
285.6298033669641
 30
0.0
  0
SEQEND
  5
27473
  8
0
  0
LINE
  5
1C04A
  8
0
 10
456.55932475890359
 20
293.24101525265309
 30
0.0
 11
462.0994688327271
 21
287.70087117882991
 31
0.0
  0
ARC
  5
1C04B
  8
0
 10
463.63039257076889
 20
300.3120830645189
 30
0.0
 40
9.9999999999999218
 50
180.0
 51
205.63336548632631
  0
POLYLINE
  5
1C04C
  8
0
 66
     1
 10
0.0
 20
0.0
 30
0.0
  0
VERTEX
  5
27474
  8
0
 10
454.61458503345938
 20
295.98597459960592
 30
0.0
  0
VERTEX
  5
27475
  8
0
 10
454.65651868216509
 20
295.89964752035121
 30
0.0
  0
VERTEX
  5
27476
  8
0
 10
454.74280267847172
 20
295.72833504501159
 30
0.0
  0
VERTEX
  5
27477
  8
0
 10
454.83225452558338
 20
295.55889813882322
 30
0.0
  0
VERTEX
  5
27478
  8
0
 10
454.87814676420959
 20
295.4749151594774
 30
0.0
  0
VERTEX
  5
27479
  8
0
 10
454.92480437083879
 20
295.39143939796082
 30
0.0
  0
VERTEX
  5
2747A
  8
0
 10
455.02037729499102
 20
295.22605937691469
 30
0.0
  0
VERTEX
  5
2747B
  8
0
 10
455.11889350628661
 20
295.0628561047356
 30
0.0
  0
VERTEX
  5
2747C
  8
0
 10
455.22026857962999
 20
294.90192461455939
 30
0.0
  0
VERTEX
  5
2747D
  8
0
 10
455.32441374424559
 20
294.74335648357152
 30
0.0
  0
VERTEX
  5
2747E
  8
0
 10
455.43123668419679
 20
294.58723872185828
 30
0.0
  0
VERTEX
  5
2747F
  8
0
 10
455.48562308219039
 20
294.51012391454879
 30
0.0
  0
VERTEX
  5
27480
  8
0
 10
455.54064305181129
 20
294.43365192002739
 30
0.0
  0
VERTEX
  5
27481
  8
0
 10
455.6525322965793
 20
294.28267634034552
 30
0.0
  0
VERTEX
  5
27482
  8
0
 10
455.76679820548998
 20
294.13439064271961
 30
0.0
  0
VERTEX
  5
27483
  8
0
 10
455.88332930866022
 20
293.98887099999962
 30
0.0
  0
VERTEX
  5
27484
  8
0
 10
456.00200918020522
 20
293.8461904852557
 30
0.0
  0
VERTEX
  5
27485
  8
0
 10
456.12271681243931
 20
293.70641847208071
 30
0.0
  0
VERTEX
  5
27486
  8
0
 10
456.18379208072872
 20
293.63764367669501
 30
0.0
  0
VERTEX
  5
27487
  8
0
 10
456.24532706829967
 20
293.56962004836208
 30
0.0
  0
VERTEX
  5
27488
  8
0
 10
456.36971121713441
 20
293.4358554445962
 30
0.0
  0
VERTEX
  5
27489
  8
0
 10
456.49573755902782
 20
293.30517947852331
 30
0.0
  0
VERTEX
  5
2748A
  8
0
 10
456.55932475890359
 20
293.24101525265309
 30
0.0
  0
SEQEND
  5
2748B
  8
0
  0
LINE
  5
1C04D
  8
0
 10
453.630392570769
 20
347.75372694884618
 30
0.0
 11
453.630392570769
 21
300.3120830645189
 31
0.0
  0
ARC
  5
1C04E
  8
0
 10
433.63039257076838
 20
347.75372694884572
 30
0.0
 40
20.00000000000059
 50
0.0
 51
30.000000000000121
  0
LINE
  5
1C04F
  8
0
 10
424.60476672856493
 20
403.38656947764991
 30
0.0
 11
450.9509006464578
 21
357.75372694884618
 31
0.0
  0
LINE
  5
1C050
  8
0
 10
521.10988449508022
 20
357.75372694884618
 30
0.0
 11
547.45601841297309
 21
403.38656947764991
 31
0.0
  0
LINE
  5
1C051
  8
0
 10
416.03039257076892
 20
411.68149017266791
 30
0.0
 11
556.03039257076898
 21
411.68149017266791
 31
0.0
  0
LINE
  5
1C0A2
  8
1
 10
376.83838318214612
 20
282.68149017266802
 30
0.0
 11
595.2224019593923
 21
282.68149017266802
 31
0.0
  0
LINE
  5
1C0A3
  8
1
 10
486.0303925707687
 20
173.48948078404459
 30
0.0
 11
486.03039257076898
 21
430.87349956129128
 31
0.0
  0
ARC
  5
1C0A4
  8
0
 10
486.03039257076898
 20
282.68149017266802
 30
0.0
 40
74.928158158256963
 50
115.7453567222946
 51
64.254643277705327
  0
ARC
  5
1C0A5
  8
0
 10
486.03039257076898
 20
282.68149017266802
 30
0.0
 40
79.284474474770505
 50
115.05368253660539
 51
64.946317463394521
  0
ARC
  5
1C0A6
  8
0
 10
486.03039257076892
 20
282.9041230192488
 30
0.0
 40
54.216895338528339
 50
126.6981810393133
 51
53.301818960686681
  0
ARC
  5
1C0A7
  8
0
 10
486.03039257076898
 20
282.68149017266802
 30
0.0
 40
71.999999999999929
 50
116.7436839504052
 51
63.256316049594737
  0
ARC
  5
1C0AD
  8
0
 10
486.03039257076898
 20
282.68149017266802
 30
0.0
 40
90.000000000000071
 50
115.43928774975829
 51
64.560712250241693
  0
ARC
  5
1C0AE
  8
0
 10
486.03039257076898
 20
282.68149017266802
 30
0.0
 40
37.927459202426967
 50
345.40099870188021
 51
14.59900129811979
  0
ARC
  5
1C0AF
  8
0
 10
486.03039257077057
 20
282.68149017266842
 30
0.0
 40
37.927459202425403
 50
21.400998701901159
 51
31.321663552313449
  0
ARC
  5
1C0B0
  8
0
 10
486.03039257076898
 20
282.68149017266802
 30
0.0
 40
37.927459202427123
 50
309.40099870189249
 51
338.59900129809881
  0
ARC
  5
1C0B1
  8
0
 10
486.03039257076898
 20
282.68149017266751
 30
0.0
 40
37.927459202426689
 50
273.40099870189061
 51
302.59900129810279
  0
ARC
  5
1C0B2
  8
0
 10
486.03039257076898
 20
282.68149017266802
 30
0.0
 40
37.92745920242708
 50
237.40099870189721
 51
266.59900129810939
  0
ARC
  5
1C0B3
  8
0
 10
486.03039257076739
 20
282.68149017266882
 30
0.0
 40
37.927459202425268
 50
148.67833644768649
 51
158.59900129809881
  0
ARC
  5
1C0B4
  8
0
 10
486.03039257076898
 20
282.68149017266802
 30
0.0
 40
37.927459202427237
 50
201.40099870190119
 51
230.5990012981074
  0
ARC
  5
1C0B5
  8
0
 10
486.03039257076898
 20
282.68149017266802
 30
0.0
 40
37.927459202427023
 50
165.40099870188021
 51
194.59900129811979
  0
ARC
  5
1C0B6
  8
0
 10
486.03039257076898
 20
282.68149017266802
 30
0.0
 40
35.762395692965889
 50
345.60716058228883
 51
14.39283941771115
  0
ARC
  5
1C0B7
  8
0
 10
486.03039257077882
 20
282.681490172672
 30
0.0
 40
35.762395692955273
 50
21.60716058230032
 51
25.833946513054322
  0
ARC
  5
1C0B8
  8
0
 10
486.03039257076892
 20
282.68149017266802
 30
0.0
 40
35.76239569296613
 50
309.60716058229781
 51
338.39283941769958
  0
ARC
  5
1C0B9
  8
0
 10
486.03039257076898
 20
282.68149017266802
 30
0.0
 40
35.762395692965768
 50
273.60716058229769
 51
302.39283941770469
  0
ARC
  5
1C0BA
  8
0
 10
486.03039257076898
 20
282.68149017266842
 30
0.0
 40
35.76239569296623
 50
237.60716058229519
 51
266.39283941770231
  0
ARC
  5
1C0BB
  8
0
 10
486.03039257077199
 20
282.6814901726666
 30
0.0
 40
35.762395692969292
 50
154.1660534869456
 51
158.39283941769961
  0
ARC
  5
1C0BC
  8
0
 10
486.03039257076898
 20
282.68149017266802
 30
0.0
 40
35.762395692965981
 50
201.60716058230031
 51
230.39283941770219
  0
ARC
  5
1C0BD
  8
0
 10
486.03039257076892
 20
282.68149017266802
 30
0.0
 40
35.762395692965882
 50
165.6071605822888
 51
194.39283941771109
  0
ARC
  5
1C0C6
  8
0
 10
486.03039257076898
 20
282.68149017266802
 30
0.0
 40
44.999999999999957
 50
164.86598398260909
 51
195.13401601739079
  0
ARC
  5
1C0C8
  8
0
 10
486.03039257076858
 20
282.68149017266802
 30
0.0
 40
44.999999999999602
 50
136.0544804376899
 51
159.13401601740421
  0
ARC
  5
1C0C9
  8
0
 10
486.03039257076892
 20
282.68149017266802
 30
0.0
 40
44.999999999999822
 50
200.86598398259571
 51
231.13401601741171
  0
ARC
  5
1C0CA
  8
0
 10
486.03039257076688
 20
282.68149017265802
 30
0.0
 40
11.81379429159643
 50
256.76477091834113
 51
259.02064252388823
  0
ARC
  5
1C0CB
  8
0
 10
486.03039257076898
 20
282.68149017266802
 30
0.0
 40
45.000000000000007
 50
236.8659839826048
 51
267.13401601740082
  0
ARC
  5
1C0CD
  8
0
 10
486.03039257076898
 20
282.68149017266802
 30
0.0
 40
45.000000000000099
 50
272.86598398259918
 51
303.1340160173952
  0
ARC
  5
1C0CE
  8
0
 10
486.0303925707691
 20
282.68149017266802
 30
0.0
 40
44.999999999999758
 50
20.865983982595711
 51
43.945519562308903
  0
ARC
  5
1C0CF
  8
0
 10
486.03039257076892
 20
282.68149017266802
 30
0.0
 40
45.000000000000171
 50
308.86598398258798
 51
339.13401601740429
  0
ARC
  5
1C0D0
  8
0
 10
486.03039257076898
 20
282.68149017266802
 30
0.0
 40
44.999999999999893
 50
344.86598398260918
 51
15.13401601739084
  0
LINE
  5
1C0D1
  8
0
 10
467.49541763278569
 20
279.02490175066993
 30
0.0
 11
442.59109150662562
 21
270.93299567087303
 31
0.0
  0
LINE
  5
1C0D2
  8
0
 10
443.9816679813128
 20
266.65324134754468
 30
0.0
 11
469.88826064472329
 21
275.07080356616962
 31
0.0
  0
LINE
  5
1C0D3
  8
0
 10
442.59109150662539
 20
294.4299846744629
 30
0.0
 11
461.52108214500907
 21
288.2792578665476
 31
0.0
  0
LINE
  5
1C0D4
  8
0
 10
475.15378185811852
 20
271.53904846935711
 30
0.0
 11
457.79285159090148
 21
247.64377792699861
 31
0.0
  0
LINE
  5
1C0D5
  8
0
 10
455.0972968519423
 20
295.0980522417085
 30
0.0
 11
443.9816679813128
 21
298.70973899779119
 31
0.0
  0
LINE
  5
1C0D6
  8
0
 10
461.43342806558888
 20
244.9987442916827
 30
0.0
 11
480.45630644808188
 21
271.18149017266791
 31
0.0
  0
LINE
  5
1C0D7
  8
0
 10
483.78039257076898
 20
271.08393717367738
 30
0.0
 11
483.78039257076898
 21
237.73777537293199
 31
0.0
  0
LINE
  5
1C0D8
  8
0
 10
488.28039257076898
 20
237.73777537293199
 30
0.0
 11
488.28039257076898
 21
271.08393717367738
 31
0.0
  0
LINE
  5
1C0D9
  8
0
 10
491.60447869345609
 20
271.18149017266791
 30
0.0
 11
510.62735707594908
 21
244.9987442916827
 31
0.0
  0
LINE
  5
1C0DA
  8
0
 10
514.26793355063637
 20
247.64377792699861
 30
0.0
 11
496.90694073762933
 21
271.53913455625161
 31
0.0
  0
LINE
  5
1C0DB
  8
0
 10
502.17251655226789
 20
275.0708061475093
 30
0.0
 11
528.07911716022511
 21
266.65324134754468
 31
0.0
  0
LINE
  5
1C0DC
  8
0
 10
529.46969363491235
 20
270.93299567087303
 30
0.0
 11
504.5653675087521
 21
279.02490175066993
 31
0.0
  0
LINE
  5
1C0DD
  8
0
 10
528.07911716022511
 20
298.70973899779119
 30
0.0
 11
516.96348828959549
 21
295.0980522417085
 31
0.0
  0
LINE
  5
1C0DE
  8
0
 10
510.53970299652872
 20
288.2792578665476
 30
0.0
 11
529.46969363491235
 21
294.4299846744629
 31
0.0
  0
LINE
  5
2414E
  8
3
 10
840.75543782997295
 20
279.44849017266779
 30
0.0
 11
838.75543782997295
 21
279.44849017266779
 31
0.0
  0
ARC
  5
2414F
  8
0
 10
486.03039257077171
 20
282.68149017265802
 30
0.0
 40
11.81379429159643
 50
280.97935747610302
 51
283.23522908165182
  0
LINE
  5
24159
  8
1
 10
726.86235810415985
 20
282.68149017266802
 30
0.0
 11
856.64851755578627
 21
282.68149017266802
 31
0.0
  0
LINE
  5
2415A
  8
1
 10
791.75543782997306
 20
173.48948078404459
 30
0.0
 11
791.75543782997318
 21
430.87349956129128
 31
0.0
  0
LINE
  5
2415C
  8
0
 10
133.3053473115649
 20
278.68149017266802
 30
0.0
 11
132.07234731156481
 21
278.68149017266802
 31
0.0
  0
LINE
  5
2415D
  8
0
 10
132.07234731156481
 20
278.68149017266802
 30
0.0
 11
131.3053473115649
 21
279.44849017266779
 31
0.0
  0
LINE
  5
2415E
  8
0
 10
224.60534731156491
 20
276.42315683933481
 30
0.0
 11
224.34592760214929
 21
275.45498930331132
 31
0.0
  0
LINE
  5
2415F
  8
0
 10
135.8053473115649
 20
276.86649017266791
 30
0.0
 11
133.3053473115649
 21
276.86649017266791
 31
0.0
  0
LINE
  5
24160
  8
0
 10
136.06476702098041
 20
275.45498930331132
 30
0.0
 11
135.8053473115649
 21
276.42315683933481
 31
0.0
  0
LINE
  5
24161
  8
0
 10
143.3053473115649
 20
292.68149017266802
 30
0.0
 11
157.8053473115649
 21
292.68149017266802
 31
0.0
  0
LINE
  5
24162
  8
0
 10
202.8053473115649
 20
292.68149017266802
 30
0.0
 11
217.3053473115649
 21
292.68149017266802
 31
0.0
  0
LINE
  5
24163
  8
0
 10
217.3053473115649
 20
272.68149017266802
 30
0.0
 11
202.8053473115649
 21
272.68149017266802
 31
0.0
  0
LINE
  5
24164
  8
0
 10
157.8053473115649
 20
272.68149017266802
 30
0.0
 11
143.3053473115649
 21
272.68149017266802
 31
0.0
  0
LINE
  5
24165
  8
0
 10
132.07234731156481
 20
278.68149017266802
 30
0.0
 11
132.07234731156481
 21
282.57940083554871
 31
0.0
  0
LINE
  5
24166
  8
0
 10
131.3053473115649
 20
279.44849017266779
 30
0.0
 11
131.3053473115649
 21
283.34690976324742
 31
0.0
  0
LINE
  5
24167
  8
0
 10
224.60534731156491
 20
276.42315683933481
 30
0.0
 11
224.60534731156491
 21
278.05721806209613
 31
0.0
  0
LINE
  5
24168
  8
0
 10
224.34592760214929
 20
275.45498930331132
 30
0.0
 11
223.0679673574451
 21
275.45498930331132
 31
0.0
  0
POLYLINE
  5
24169
  8
0
 66
     1
 10
0.0
 20
0.0
 30
0.0
  0
VERTEX
  5
2748C
  8
0
 10
224.34592760214929
 20
275.45498930331132
 30
0.0
  0
VERTEX
  5
2748D
  8
0
 10
224.42677225540751
 20
275.7795631989834
 30
0.0
  0
VERTEX
  5
2748E
  8
0
 10
224.54138259416061
 20
276.38912377775517
 30
0.0
  0
VERTEX
  5
2748F
  8
0
 10
224.5981571779449
 20
276.97153194933071
 30
0.0
  0
VERTEX
  5
27490
  8
0
 10
224.60534731156491
 20
277.26161452065031
 30
0.0
  0
SEQEND
  5
27491
  8
0
  0
POLYLINE
  5
2416A
  8
0
 66
     1
 10
0.0
 20
0.0
 30
0.0
  0
VERTEX
  5
27492
  8
0
 10
224.60534731156491
 20
277.26161452065031
 30
0.0
  0
VERTEX
  5
27493
  8
0
 10
224.60407713145
 20
277.38343014618158
 30
0.0
  0
VERTEX
  5
27494
  8
0
 10
224.59401792101761
 20
277.6259686470616
 30
0.0
  0
VERTEX
  5
27495
  8
0
 10
224.57406484023309
 20
277.8688465589853
 30
0.0
  0
VERTEX
  5
27496
  8
0
 10
224.5603857649148
 20
277.99107284395041
 30
0.0
  0
SEQEND
  5
27497
  8
0
  0
LINE
  5
2416B
  8
0
 10
133.3053473115649
 20
276.86649017266791
 30
0.0
 11
133.3053473115649
 21
281.34500939830468
 31
0.0
  0
LINE
  5
2416C
  8
0
 10
135.8053473115649
 20
276.42315683933481
 30
0.0
 11
135.8053473115649
 21
278.35902211905892
 31
0.0
  0
LINE
  5
2416D
  8
0
 10
137.54273360100271
 20
275.45498930331132
 30
0.0
 11
136.06476702098041
 21
275.45498930331132
 31
0.0
  0
POLYLINE
  5
2416E
  8
0
 66
     1
 10
0.0
 20
0.0
 30
0.0
  0
VERTEX
  5
27498
  8
0
 10
135.88519521612821
 20
278.2386922993378
 30
0.0
  0
VERTEX
  5
27499
  8
0
 10
135.8608384214715
 20
278.07325417561151
 30
0.0
  0
VERTEX
  5
2749A
  8
0
 10
135.8254317942455
 20
277.74736692486698
 30
0.0
  0
VERTEX
  5
2749B
  8
0
 10
135.80760279897561
 20
277.42396527462779
 30
0.0
  0
VERTEX
  5
2749C
  8
0
 10
135.8053473115649
 20
277.26161452065031
 30
0.0
  0
SEQEND
  5
2749D
  8
0
  0
POLYLINE
  5
2416F
  8
0
 66
     1
 10
0.0
 20
0.0
 30
0.0
  0
VERTEX
  5
2749E
  8
0
 10
135.8053473115649
 20
277.26161452065031
 30
0.0
  0
VERTEX
  5
2749F
  8
0
 10
135.8125374451848
 20
276.97153194933071
 30
0.0
  0
VERTEX
  5
274A0
  8
0
 10
135.86931202896909
 20
276.38912377775517
 30
0.0
  0
VERTEX
  5
274A1
  8
0
 10
135.98392236772219
 20
275.7795631989834
 30
0.0
  0
VERTEX
  5
274A2
  8
0
 10
136.06476702098041
 20
275.45498930331132
 30
0.0
  0
SEQEND
  5
274A3
  8
0
  0
LINE
  5
24170
  8
0
 10
235.3053473115649
 20
409.68149017266791
 30
0.0
 11
125.3053473115648
 21
409.68149017266791
 31
0.0
  0
LINE
  5
24171
  8
0
 10
125.3053473115649
 20
409.68149017266791
 30
0.0
 11
125.3053473115649
 21
295.98597459960592
 31
0.0
  0
LINE
  5
24172
  8
0
 10
143.3053473115649
 20
409.68149017266791
 30
0.0
 11
143.3053473115649
 21
271.18149017266791
 31
0.0
  0
LINE
  5
24173
  8
0
 10
217.3053473115649
 20
409.68149017266791
 30
0.0
 11
217.3053473115649
 21
271.18149017266791
 31
0.0
  0
LINE
  5
24174
  8
0
 10
235.3053473115649
 20
409.68149017266791
 30
0.0
 11
235.3053473115649
 21
295.98597459960553
 31
0.0
  0
POLYLINE
  5
24175
  8
0
 66
     1
 10
0.0
 20
0.0
 30
0.0
  0
VERTEX
  5
274A4
  8
0
 10
235.3053473115649
 20
295.98597459960553
 30
0.0
  0
VERTEX
  5
274A5
  8
0
 10
235.30523605780471
 20
295.89912495376569
 30
0.0
  0
VERTEX
  5
274A6
  8
0
 10
235.3043076844246
 20
295.72687888172231
 30
0.0
  0
VERTEX
  5
274A7
  8
0
 10
235.30235258757691
 20
295.55666594364811
 30
0.0
  0
VERTEX
  5
274A8
  8
0
 10
235.3009578407468
 20
295.47235715159968
 30
0.0
  0
VERTEX
  5
274A9
  8
0
 10
235.29926779919171
 20
295.3885985923875
 30
0.0
  0
VERTEX
  5
274AA
  8
0
 10
235.29495049693901
 20
295.22278628299858
 30
0.0
  0
VERTEX
  5
274AB
  8
0
 10
235.28929852056001
 20
295.05933489074232
 30
0.0
  0
VERTEX
  5
274AC
  8
0
 10
235.28221079932291
 20
294.89834465480999
 30
0.0
  0
VERTEX
  5
274AD
  8
0
 10
235.27358776453161
 20
294.73990991216579
 30
0.0
  0
VERTEX
  5
274AE
  8
0
 10
235.2633321161195
 20
294.5841242641668
 30
0.0
  0
VERTEX
  5
274AF
  8
0
 10
235.2575624190122
 20
294.50725351811298
 30
0.0
  0
VERTEX
  5
274B0
  8
0
 10
235.2513494057703
 20
294.431079102345
 30
0.0
  0
VERTEX
  5
274B1
  8
0
 10
235.2375486288399
 20
294.28086283957242
 30
0.0
  0
VERTEX
  5
274B2
  8
0
 10
235.221842795291
 20
294.13356016561238
 30
0.0
  0
VERTEX
  5
274B3
  8
0
 10
235.2041494670257
 20
293.98925130810949
 30
0.0
  0
VERTEX
  5
274B4
  8
0
 10
235.1843912479647
 20
293.84801129823518
 30
0.0
  0
VERTEX
  5
274B5
  8
0
 10
235.1624962113502
 20
293.70990924129961
 30
0.0
  0
VERTEX
  5
274B6
  8
0
 10
235.15072649222361
 20
293.64205474217943
 30
0.0
  0
VERTEX
  5
274B7
  8
0
 10
235.1383844746907
 20
293.57493481346643
 30
0.0
  0
VERTEX
  5
274B8
  8
0
 10
235.11153407677401
 20
293.44098582903189
 30
0.0
  0
VERTEX
  5
274B9
  8
0
 10
235.08157292743701
 20
293.30746026399578
 30
0.0
  0
VERTEX
  5
274BA
  8
0
 10
235.065372272883
 20
293.24101525265309
 30
0.0
  0
SEQEND
  5
274BB
  8
0
  0
POLYLINE
  5
24176
  8
0
 66
     1
 10
0.0
 20
0.0
 30
0.0
  0
VERTEX
  5
274BC
  8
0
 10
237.11442409790311
 20
293.24101525265309
 30
0.0
  0
VERTEX
  5
274BD
  8
0
 10
237.1268169152213
 20
293.30517947852331
 30
0.0
  0
VERTEX
  5
274BE
  8
0
 10
237.1501191260549
 20
293.4358554445962
 30
0.0
  0
VERTEX
  5
274BF
  8
0
 10
237.17148538153961
 20
293.56962004836208
 30
0.0
  0
VERTEX
  5
274C0
  8
0
 10
237.1814593625088
 20
293.63764367669501
 30
0.0
  0
VERTEX
  5
274C1
  8
0
 10
237.19097013145989
 20
293.70641847208071
 30
0.0
  0
VERTEX
  5
274C2
  8
0
 10
237.20863233407269
 20
293.8461904852557
 30
0.0
  0
VERTEX
  5
274C3
  8
0
 10
237.2245351797396
 20
293.98887099999962
 30
0.0
  0
VERTEX
  5
274C4
  8
0
 10
237.23874576356499
 20
294.13439064271961
 30
0.0
  0
VERTEX
  5
274C5
  8
0
 10
237.25133471749811
 20
294.28267634034552
 30
0.0
  0
VERTEX
  5
274C6
  8
0
 10
237.26237581140589
 20
294.43365192002739
 30
0.0
  0
VERTEX
  5
274C7
  8
0
 10
237.2673397185919
 20
294.51012391454879
 30
0.0
  0
VERTEX
  5
274C8
  8
0
 10
237.27194553168741
 20
294.58723872185828
 30
0.0
  0
VERTEX
  5
274C9
  8
0
 10
237.28012265747341
 20
294.74335648357152
 30
0.0
  0
VERTEX
  5
274CA
  8
0
 10
237.28698783013189
 20
294.90192461455939
 30
0.0
  0
VERTEX
  5
274CB
  8
0
 10
237.29262286419859
 20
295.0628561047356
 30
0.0
  0
VERTEX
  5
274CC
  8
0
 10
237.29711055137801
 20
295.22605937691469
 30
0.0
  0
VERTEX
  5
274CD
  8
0
 10
237.3005343514715
 20
295.39143939796082
 30
0.0
  0
VERTEX
  5
274CE
  8
0
 10
237.30187346888991
 20
295.4749151594774
 30
0.0
  0
VERTEX
  5
274CF
  8
0
 10
237.30297803050021
 20
295.55889813882322
 30
0.0
  0
VERTEX
  5
274D0
  8
0
 10
237.30452528955431
 20
295.72833504501159
 30
0.0
  0
VERTEX
  5
274D1
  8
0
 10
237.30525938963359
 20
295.89964752035121
 30
0.0
  0
VERTEX
  5
274D2
  8
0
 10
237.3053473115649
 20
295.98597459960592
 30
0.0
  0
SEQEND
  5
274D3
  8
0
  0
LINE
  5
24177
  8
0
 10
237.3053473115649
 20
295.98597459960592
 30
0.0
 11
237.3053473115649
 21
411.68149017266791
 31
0.0
  0
POLYLINE
  5
24178
  8
0
 66
     1
 10
0.0
 20
0.0
 30
0.0
  0
VERTEX
  5
274D4
  8
0
 10
235.065372272883
 20
293.24101525265309
 30
0.0
  0
VERTEX
  5
274D5
  8
0
 10
235.0201466933425
 20
293.06871211152071
 30
0.0
  0
VERTEX
  5
274D6
  8
0
 10
234.91824394972821
 20
292.7273398836428
 30
0.0
  0
VERTEX
  5
274D7
  8
0
 10
234.80124397954049
 20
292.39084296820641
 30
0.0
  0
VERTEX
  5
274D8
  8
0
 10
234.7371538846632
 20
292.22463170135728
 30
0.0
  0
VERTEX
  5
274D9
  8
0
 10
234.66937880682241
 20
292.0598886762773
 30
0.0
  0
VERTEX
  5
274DA
  8
0
 10
234.5229099349788
 20
291.73513332727862
 30
0.0
  0
VERTEX
  5
274DB
  8
0
 10
234.36212782818481
 20
291.41722094743591
 30
0.0
  0
VERTEX
  5
274DC
  8
0
 10
234.18735133536379
 20
291.10678199260019
 30
0.0
  0
VERTEX
  5
274DD
  8
0
 10
233.99892705787349
 20
290.80443209798381
 30
0.0
  0
VERTEX
  5
274DE
  8
0
 10
233.79722866215721
 20
290.51077085728679
 30
0.0
  0
VERTEX
  5
274DF
  8
0
 10
233.6915256600534
 20
290.36738117552699
 30
0.0
  0
VERTEX
  5
274E0
  8
0
 10
233.58265613872081
 20
290.22638063363502
 30
0.0
  0
VERTEX
  5
274E1
  8
0
 10
233.3556350089078
 20
289.95182540469068
 30
0.0
  0
VERTEX
  5
274E2
  8
0
 10
233.1166154810418
 20
289.68764964421871
 30
0.0
  0
VERTEX
  5
274E3
  8
0
 10
232.86607155761331
 20
289.43437724233632
 30
0.0
  0
VERTEX
  5
274E4
  8
0
 10
232.60450009527989
 20
289.19251046657882
 30
0.0
  0
VERTEX
  5
274E5
  8
0
 10
232.33241981954421
 20
288.96252896584929
 30
0.0
  0
VERTEX
  5
274E6
  8
0
 10
232.19260670583421
 20
288.85213866408498
 30
0.0
  0
VERTEX
  5
274E7
  8
0
 10
232.0503702960618
 20
288.74488881921798
 30
0.0
  0
VERTEX
  5
274E8
  8
0
 10
231.7589108606237
 20
288.54002163146828
 30
0.0
  0
VERTEX
  5
274E9
  8
0
 10
231.4586195099298
 20
288.34833367717653
 30
0.0
  0
VERTEX
  5
274EA
  8
0
 10
231.3053473115649
 20
288.25755174782171
 30
0.0
  0
SEQEND
  5
274EB
  8
0
  0
LINE
  5
24179
  8
0
 10
231.3053473115649
 20
288.25755174782171
 30
0.0
 11
230.3411482824842
 21
287.70087117882991
 31
0.0
  0
POLYLINE
  5
2417A
  8
0
 66
     1
 10
0.0
 20
0.0
 30
0.0
  0
VERTEX
  5
274EC
  8
0
 10
233.9368263706784
 20
287.70087117882991
 30
0.0
  0
VERTEX
  5
274ED
  8
0
 10
234.0708938217229
 20
287.82183072408139
 30
0.0
  0
VERTEX
  5
274EE
  8
0
 10
234.33236795118401
 20
288.0709126797492
 30
0.0
  0
VERTEX
  5
274EF
  8
0
 10
234.58467810501159
 20
288.32927313975051
 30
0.0
  0
VERTEX
  5
274F0
  8
0
 10
234.7072933876938
 20
288.4618279792312
 30
0.0
  0
VERTEX
  5
274F1
  8
0
 10
234.82749524416889
 20
288.59657517481219
 30
0.0
  0
VERTEX
  5
274F2
  8
0
 10
235.06050270951141
 20
288.872470194904
 30
0.0
  0
VERTEX
  5
274F3
  8
0
 10
235.28339663474259
 20
289.15659840383751
 30
0.0
  0
VERTEX
  5
274F4
  8
0
 10
235.495886342689
 20
289.44858926847792
 30
0.0
  0
VERTEX
  5
274F5
  8
0
 10
235.6976947243727
 20
289.74806200195962
 30
0.0
  0
VERTEX
  5
274F6
  8
0
 10
235.88855860039121
 20
290.05462606026998
 30
0.0
  0
VERTEX
  5
274F7
  8
0
 10
235.9798079989238
 20
290.21044274835089
 30
0.0
  0
VERTEX
  5
274F8
  8
0
 10
236.06822906413149
 20
290.36788165156258
 30
0.0
  0
VERTEX
  5
274F9
  8
0
 10
236.23647180636959
 20
290.6874202575259
 30
0.0
  0
VERTEX
  5
274FA
  8
0
 10
236.39306742083511
 20
291.01282516613492
 30
0.0
  0
VERTEX
  5
274FB
  8
0
 10
236.53781169033999
 20
291.34367201508798
 30
0.0
  0
VERTEX
  5
274FC
  8
0
 10
236.67051585309949
 20
291.67952934521958
 30
0.0
  0
VERTEX
  5
274FD
  8
0
 10
236.79100684889681
 20
292.0199591631681
 30
0.0
  0
VERTEX
  5
274FE
  8
0
 10
236.8466226772299
 20
292.1917502358578
 30
0.0
  0
VERTEX
  5
274FF
  8
0
 10
236.8991275447724
 20
292.36451751256618
 30
0.0
  0
VERTEX
  5
27500
  8
0
 10
236.99473693994199
 20
292.71275505300667
 30
0.0
  0
VERTEX
  5
27501
  8
0
 10
237.0777103496759
 20
293.06421764602868
 30
0.0
  0
VERTEX
  5
27502
  8
0
 10
237.11442409790311
 20
293.24101525265309
 30
0.0
  0
SEQEND
  5
27503
  8
0
  0
POLYLINE
  5
2417B
  8
0
 66
     1
 10
0.0
 20
0.0
 30
0.0
  0
VERTEX
  5
27504
  8
0
 10
230.3411482824842
 20
287.70087117882991
 30
0.0
  0
VERTEX
  5
27505
  8
0
 10
230.25240695863971
 20
287.64926240006798
 30
0.0
  0
VERTEX
  5
27506
  8
0
 10
230.0768861579576
 20
287.54493392478707
 30
0.0
  0
VERTEX
  5
27507
  8
0
 10
229.90401203636341
 20
287.43914264944033
 30
0.0
  0
VERTEX
  5
27508
  8
0
 10
229.81857893015811
 20
287.38570544312103
 30
0.0
  0
VERTEX
  5
27509
  8
0
 10
229.73382116298239
 20
287.33191095270598
 30
0.0
  0
VERTEX
  5
2750A
  8
0
 10
229.56634953933619
 20
287.22326151796511
 30
0.0
  0
VERTEX
  5
2750B
  8
0
 10
229.4016325917265
 20
287.1132173284991
 30
0.0
  0
VERTEX
  5
2750C
  8
0
 10
229.2397051637416
 20
287.00180166263232
 30
0.0
  0
VERTEX
  5
2750D
  8
0
 10
229.08060150888551
 20
286.88903808880468
 30
0.0
  0
VERTEX
  5
2750E
  8
0
 10
228.9243552833322
 20
286.77495046058903
 30
0.0
  0
VERTEX
  5
2750F
  8
0
 10
228.84731405901121
 20
286.7174176570515
 30
0.0
  0
VERTEX
  5
27510
  8
0
 10
228.7709995388058
 20
286.65956291164139
 30
0.0
  0
VERTEX
  5
27511
  8
0
 10
228.6205667155896
 20
286.54289985060001
 30
0.0
  0
VERTEX
  5
27512
  8
0
 10
228.4730886356632
 20
286.424985955919
 30
0.0
  0
VERTEX
  5
27513
  8
0
 10
228.32859649597131
 20
286.30584617064869
 30
0.0
  0
VERTEX
  5
27514
  8
0
 10
228.1871208618241
 20
286.18550569716041
 30
0.0
  0
VERTEX
  5
27515
  8
0
 10
228.0486916604319
 20
286.0639899918142
 30
0.0
  0
VERTEX
  5
27516
  8
0
 10
227.98062864823109
 20
286.00279945043258
 30
0.0
  0
VERTEX
  5
27517
  8
0
 10
227.9133381745747
 20
285.94132475957349
 30
0.0
  0
VERTEX
  5
27518
  8
0
 10
227.78108903640711
 20
285.81753594856951
 30
0.0
  0
VERTEX
  5
27519
  8
0
 10
227.65197222140191
 20
285.69264974460981
 30
0.0
  0
VERTEX
  5
2751A
  8
0
 10
227.58859699640001
 20
285.6298033669641
 30
0.0
  0
SEQEND
  5
2751B
  8
0
  0
POLYLINE
  5
2417C
  8
0
 66
     1
 10
0.0
 20
0.0
 30
0.0
  0
VERTEX
  5
2751C
  8
0
 10
231.58859699640001
 20
285.6298033669641
 30
0.0
  0
VERTEX
  5
2751D
  8
0
 10
231.70189174392149
 20
285.74142433380121
 30
0.0
  0
VERTEX
  5
2751E
  8
0
 10
231.93593698276231
 20
285.96208100804603
 30
0.0
  0
VERTEX
  5
2751F
  8
0
 10
232.17979194682451
 20
286.17916780634908
 30
0.0
  0
VERTEX
  5
27520
  8
0
 10
232.3053473115649
 20
286.28632698843148
 30
0.0
  0
SEQEND
  5
27521
  8
0
  0
LINE
  5
2417D
  8
0
 10
227.58859699640001
 20
285.6298033669641
 30
0.0
 11
226.0553473115649
 21
284.09655368212913
 31
0.0
  0
POLYLINE
  5
2417E
  8
0
 66
     1
 10
0.0
 20
0.0
 30
0.0
  0
VERTEX
  5
27522
  8
0
 10
226.0553473115649
 20
284.09655368212913
 30
0.0
  0
VERTEX
  5
27523
  8
0
 10
225.88851669210371
 20
283.92758884393839
 30
0.0
  0
VERTEX
  5
27524
  8
0
 10
225.55813803220551
 20
283.5801379958462
 30
0.0
  0
VERTEX
  5
27525
  8
0
 10
225.2322702215709
 20
283.22013413674949
 30
0.0
  0
VERTEX
  5
27526
  8
0
 10
225.0710776479506
 20
283.03547947002471
 30
0.0
  0
VERTEX
  5
27527
  8
0
 10
224.91107222065239
 20
282.84775287888851
 30
0.0
  0
VERTEX
  5
27528
  8
0
 10
224.59470071193911
 20
282.46317587228032
 30
0.0
  0
VERTEX
  5
27529
  8
0
 10
224.2833100235255
 20
282.06659071610829
 30
0.0
  0
VERTEX
  5
2752A
  8
0
 10
223.9770520538292
 20
281.65819086720921
 30
0.0
  0
VERTEX
  5
2752B
  8
0
 10
223.6760761974941
 20
281.23817554570502
 30
0.0
  0
VERTEX
  5
2752C
  8
0
 10
223.38052927251451
 20
280.80674963782121
 30
0.0
  0
VERTEX
  5
2752D
  8
0
 10
223.23483681770259
 20
280.58682326571721
 30
0.0
  0
VERTEX
  5
2752E
  8
0
 10
223.09055544861681
 20
280.36412359594118
 30
0.0
  0
VERTEX
  5
2752F
  8
0
 10
222.8062961769314
 20
279.91051333594811
 30
0.0
  0
VERTEX
  5
27530
  8
0
 10
222.52789012099339
 20
279.44614013189857
 30
0.0
  0
VERTEX
  5
27531
  8
0
 10
222.25547308910069
 20
278.97123050808301
 30
0.0
  0
VERTEX
  5
27532
  8
0
 10
221.98917796806609
 20
278.48601612852741
 30
0.0
  0
VERTEX
  5
27533
  8
0
 10
221.7291346583938
 20
277.99073368398467
 30
0.0
  0
VERTEX
  5
27534
  8
0
 10
221.60149719453329
 20
277.73939224933429
 30
0.0
  0
VERTEX
  5
27535
  8
0
 10
221.47547001091411
 20
277.48562477647511
 30
0.0
  0
VERTEX
  5
27536
  8
0
 10
221.22830776490349
 20
276.97093580143382
 30
0.0
  0
VERTEX
  5
27537
  8
0
 10
220.98776848772491
 20
276.44691782751352
 30
0.0
  0
VERTEX
  5
27538
  8
0
 10
220.87001925792239
 20
276.18149017266802
 30
0.0
  0
SEQEND
  5
27539
  8
0
  0
POLYLINE
  5
2417F
  8
0
 66
     1
 10
0.0
 20
0.0
 30
0.0
  0
VERTEX
  5
2753A
  8
0
 10
223.4830963002758
 20
276.18149017266802
 30
0.0
  0
VERTEX
  5
2753B
  8
0
 10
223.57034022848609
 20
276.34179219179708
 30
0.0
  0
VERTEX
  5
2753C
  8
0
 10
223.74709166578671
 20
276.65864942443932
 30
0.0
  0
VERTEX
  5
2753D
  8
0
 10
223.926821455609
 20
276.97043993999802
 30
0.0
  0
VERTEX
  5
2753E
  8
0
 10
224.01778813646021
 20
277.1244088826133
 30
0.0
  0
VERTEX
  5
2753F
  8
0
 10
224.10948119080021
 20
277.27707976301599
 30
0.0
  0
VERTEX
  5
27540
  8
0
 10
224.29502167507641
 20
277.57848630528912
 30
0.0
  0
VERTEX
  5
27541
  8
0
 10
224.48339293627311
 20
277.87457838810542
 30
0.0
  0
VERTEX
  5
27542
  8
0
 10
224.6745442398047
 20
278.1652762641134
 30
0.0
  0
VERTEX
  5
27543
  8
0
 10
224.86842410232799
 20
278.45050163879978
 30
0.0
  0
VERTEX
  5
27544
  8
0
 10
225.06498030560951
 20
278.73017769157468
 30
0.0
  0
VERTEX
  5
27545
  8
0
 10
225.16424551934699
 20
278.86791112393757
 30
0.0
  0
VERTEX
  5
27546
  8
0
 10
225.26415991058889
 20
279.00422909646431
 30
0.0
  0
VERTEX
  5
27547
  8
0
 10
225.465909271637
 20
279.27258204239803
 30
0.0
  0
VERTEX
  5
27548
  8
0
 10
225.67017405100501
 20
279.5351642530868
 30
0.0
  0
VERTEX
  5
27549
  8
0
 10
225.87689923345911
 20
279.79190500649202
 30
0.0
  0
VERTEX
  5
2754A
  8
0
 10
226.08602914109781
 20
280.04273515387058
 30
0.0
  0
VERTEX
  5
2754B
  8
0
 10
226.297507448348
 20
280.28758713840222
 30
0.0
  0
VERTEX
  5
2754C
  8
0
 10
226.40410947671771
 20
280.40775064787113
 30
0.0
  0
VERTEX
  5
2754D
  8
0
 10
226.511277197135
 20
280.52639501338081
 30
0.0
  0
VERTEX
  5
2754E
  8
0
 10
226.7272808122234
 20
280.75909445997922
 30
0.0
  0
VERTEX
  5
2754F
  8
0
 10
226.9454601167244
 20
280.98562280457099
 30
0.0
  0
VERTEX
  5
27550
  8
0
 10
227.0553473115649
 20
281.09655368212913
 30
0.0
  0
SEQEND
  5
27551
  8
0
  0
LINE
  5
24180
  8
0
 10
227.0553473115649
 20
281.09655368212913
 30
0.0
 11
231.58859699640001
 21
285.6298033669641
 31
0.0
  0
POLYLINE
  5
24181
  8
0
 66
     1
 10
0.0
 20
0.0
 30
0.0
  0
VERTEX
  5
27552
  8
0
 10
220.87001925792239
 20
276.18149017266802
 30
0.0
  0
VERTEX
  5
27553
  8
0
 10
220.7579353586051
 20
275.93154881201099
 30
0.0
  0
VERTEX
  5
27554
  8
0
 10
220.52775828463069
 20
275.4491032923529
 30
0.0
  0
VERTEX
  5
27555
  8
0
 10
220.29280997799449
 20
274.99154472953518
 30
0.0
  0
VERTEX
  5
27556
  8
0
 10
220.17473025850299
 20
274.77267556165413
 30
0.0
  0
VERTEX
  5
27557
  8
0
 10
220.05685687683729
 20
274.56070135149372
 30
0.0
  0
VERTEX
  5
27558
  8
0
 10
219.8234654007166
 20
274.15820895837851
 30
0.0
  0
VERTEX
  5
27559
  8
0
 10
219.59036910620611
 20
273.776558081855
 30
0.0
  0
VERTEX
  5
2755A
  8
0
 10
219.355728257186
 20
273.41069003812032
 30
0.0
  0
VERTEX
  5
2755B
  8
0
 10
219.1226696949453
 20
273.06403579364718
 30
0.0
  0
VERTEX
  5
2755C
  8
0
 10
218.89423820595351
 20
272.73970986054837
 30
0.0
  0
VERTEX
  5
2755D
  8
0
 10
218.7826702133317
 20
272.58680669975729
 30
0.0
  0
VERTEX
  5
2755E
  8
0
 10
218.67333613453721
 20
272.44051739313448
 30
0.0
  0
VERTEX
  5
2755F
  8
0
 10
218.46270604823661
 20
272.1689993866753
 30
0.0
  0
VERTEX
  5
27560
  8
0
 10
218.26485679062179
 20
271.92738277594532
 30
0.0
  0
VERTEX
  5
27561
  8
0
 10
218.0818998508237
 20
271.71743044960249
 30
0.0
  0
VERTEX
  5
27562
  8
0
 10
217.91577412577479
 20
271.54074267573651
 30
0.0
  0
VERTEX
  5
27563
  8
0
 10
217.7681418748875
 20
271.39861572713698
 30
0.0
  0
VERTEX
  5
27564
  8
0
 10
217.7016717898191
 20
271.34079728868659
 30
0.0
  0
VERTEX
  5
27565
  8
0
 10
217.64026568308509
 20
271.29190325722129
 30
0.0
  0
VERTEX
  5
27566
  8
0
 10
217.53299971405161
 20
271.2210055450505
 30
0.0
  0
VERTEX
  5
27567
  8
0
 10
217.44678778904739
 20
271.18584315097308
 30
0.0
  0
VERTEX
  5
27568
  8
0
 10
217.4115917404404
 20
271.18149017266791
 30
0.0
  0
SEQEND
  5
27569
  8
0
  0
POLYLINE
  5
24182
  8
0
 66
     1
 10
0.0
 20
0.0
 30
0.0
  0
VERTEX
  5
2756A
  8
0
 10
219.42540150970899
 20
271.18149017266791
 30
0.0
  0
VERTEX
  5
2756B
  8
0
 10
219.431743823852
 20
271.18161518107132
 30
0.0
  0
VERTEX
  5
2756C
  8
0
 10
219.44493778936189
 20
271.1826167696745
 30
0.0
  0
VERTEX
  5
2756D
  8
0
 10
219.4588123086707
 20
271.18462361496768
 30
0.0
  0
VERTEX
  5
2756E
  8
0
 10
219.46600522057321
 20
271.18600509420457
 30
0.0
  0
VERTEX
  5
2756F
  8
0
 10
219.47336875377309
 20
271.1876391360874
 30
0.0
  0
VERTEX
  5
27570
  8
0
 10
219.488608090989
 20
271.19166631922008
 30
0.0
  0
VERTEX
  5
27571
  8
0
 10
219.50453087966321
 20
271.1967077131963
 30
0.0
  0
VERTEX
  5
27572
  8
0
 10
219.52113727214879
 20
271.20276542693631
 30
0.0
  0
VERTEX
  5
27573
  8
0
 10
219.53842701505511
 20
271.20984112869161
 30
0.0
  0
VERTEX
  5
27574
  8
0
 10
219.5563994517367
 20
271.21793604705181
 30
0.0
  0
VERTEX
  5
27575
  8
0
 10
219.56564136566411
 20
271.22236597681058
 30
0.0
  0
VERTEX
  5
27576
  8
0
 10
219.57505352599989
 20
271.2270509736764
 30
0.0
  0
VERTEX
  5
27577
  8
0
 10
219.59438778700121
 20
271.23718626770329
 30
0.0
  0
VERTEX
  5
27578
  8
0
 10
219.6144003953047
 20
271.24834186179493
 30
0.0
  0
VERTEX
  5
27579
  8
0
 10
219.63508913007209
 20
271.26051726977857
 30
0.0
  0
VERTEX
  5
2757A
  8
0
 10
219.65645139734909
 20
271.27371159583208
 30
0.0
  0
VERTEX
  5
2757B
  8
0
 10
219.67848423941251
 20
271.28792354517282
 30
0.0
  0
VERTEX
  5
2757C
  8
0
 10
219.68975110476489
 20
271.29541061782447
 30
0.0
  0
VERTEX
  5
2757D
  8
0
 10
219.7011843451437
 20
271.30315143619958
 30
0.0
  0
VERTEX
  5
2757E
  8
0
 10
219.72454806138771
 20
271.31939321404798
 30
0.0
  0
VERTEX
  5
2757F
  8
0
 10
219.7485714052585
 20
271.33664646550233
 30
0.0
  0
VERTEX
  5
27580
  8
0
 10
219.7608291059741
 20
271.34565154568372
 30
0.0
  0
VERTEX
  5
27581
  8
0
 10
219.83778291216211
 20
271.40495553958408
 30
0.0
  0
VERTEX
  5
27582
  8
0
 10
220.00874356089059
 20
271.55034124662961
 30
0.0
  0
VERTEX
  5
27583
  8
0
 10
220.20119886483411
 20
271.73046075460388
 30
0.0
  0
VERTEX
  5
27584
  8
0
 10
220.41328088515351
 20
271.94377227118048
 30
0.0
  0
VERTEX
  5
27585
  8
0
 10
220.64283079739431
 20
272.18844714498749
 30
0.0
  0
VERTEX
  5
27586
  8
0
 10
220.88751692509661
 20
272.46251822680551
 30
0.0
  0
VERTEX
  5
27587
  8
0
 10
221.01467897851839
 20
272.60983495493429
 30
0.0
  0
VERTEX
  5
27588
  8
0
 10
221.14455970565189
 20
272.76357059411021
 30
0.0
  0
VERTEX
  5
27589
  8
0
 10
221.41091443805519
 20
273.0889001924952
 30
0.0
  0
VERTEX
  5
2758A
  8
0
 10
221.6833456182361
 20
273.43556662346867
 30
0.0
  0
VERTEX
  5
2758B
  8
0
 10
221.95843575616919
 20
273.80035242915028
 30
0.0
  0
VERTEX
  5
2758C
  8
0
 10
222.2326424526411
 20
274.1797595655612
 30
0.0
  0
VERTEX
  5
2758D
  8
0
 10
222.50844600130699
 20
274.5790073012904
 30
0.0
  0
VERTEX
  5
2758E
  8
0
 10
222.64830624877669
 20
274.78899777720432
 30
0.0
  0
VERTEX
  5
2758F
  8
0
 10
222.7888325550895
 20
275.00564739833231
 30
0.0
  0
VERTEX
  5
27590
  8
0
 10
223.06983718902529
 20
275.45810546221219
 30
0.0
  0
VERTEX
  5
27591
  8
0
 10
223.34719278485119
 20
275.93469364001879
 30
0.0
  0
VERTEX
  5
27592
  8
0
 10
223.4830963002758
 20
276.18149017266802
 30
0.0
  0
SEQEND
  5
27593
  8
0
  0
LINE
  5
24183
  8
0
 10
217.3053473115649
 20
271.18149017266791
 30
0.0
 11
219.42540150970899
 21
271.18149017266791
 31
0.0
  0
LINE
  5
24184
  8
0
 10
233.9368263706784
 20
287.70087117882991
 30
0.0
 11
232.3053473115649
 21
286.28632698843148
 31
0.0
  0
POLYLINE
  5
24185
  8
0
 66
     1
 10
0.0
 20
0.0
 30
0.0
  0
VERTEX
  5
27594
  8
0
 10
237.11442409790311
 20
293.24101525265309
 30
0.0
  0
VERTEX
  5
27595
  8
0
 10
237.0777103496759
 20
293.06421764602868
 30
0.0
  0
VERTEX
  5
27596
  8
0
 10
236.99473693994199
 20
292.71275505300667
 30
0.0
  0
VERTEX
  5
27597
  8
0
 10
236.8991275447724
 20
292.36451751256618
 30
0.0
  0
VERTEX
  5
27598
  8
0
 10
236.8466226772299
 20
292.1917502358578
 30
0.0
  0
VERTEX
  5
27599
  8
0
 10
236.79100684889681
 20
292.0199591631681
 30
0.0
  0
VERTEX
  5
2759A
  8
0
 10
236.6705158530996
 20
291.67952934521958
 30
0.0
  0
VERTEX
  5
2759B
  8
0
 10
236.53781169033999
 20
291.34367201508798
 30
0.0
  0
VERTEX
  5
2759C
  8
0
 10
236.39306742083519
 20
291.01282516613492
 30
0.0
  0
VERTEX
  5
2759D
  8
0
 10
236.23647180636959
 20
290.6874202575259
 30
0.0
  0
VERTEX
  5
2759E
  8
0
 10
236.06822906413149
 20
290.36788165156258
 30
0.0
  0
VERTEX
  5
2759F
  8
0
 10
235.9798079989238
 20
290.21044274835089
 30
0.0
  0
VERTEX
  5
275A0
  8
0
 10
235.88855860039129
 20
290.05462606026998
 30
0.0
  0
VERTEX
  5
275A1
  8
0
 10
235.6976947243727
 20
289.74806200195962
 30
0.0
  0
VERTEX
  5
275A2
  8
0
 10
235.495886342689
 20
289.44858926847792
 30
0.0
  0
VERTEX
  5
275A3
  8
0
 10
235.28339663474259
 20
289.15659840383751
 30
0.0
  0
VERTEX
  5
275A4
  8
0
 10
235.06050270951141
 20
288.872470194904
 30
0.0
  0
VERTEX
  5
275A5
  8
0
 10
234.827495244169
 20
288.59657517481219
 30
0.0
  0
VERTEX
  5
275A6
  8
0
 10
234.7072933876938
 20
288.4618279792312
 30
0.0
  0
VERTEX
  5
275A7
  8
0
 10
234.58467810501159
 20
288.32927313975051
 30
0.0
  0
VERTEX
  5
275A8
  8
0
 10
234.33236795118401
 20
288.0709126797492
 30
0.0
  0
VERTEX
  5
275A9
  8
0
 10
234.0708938217229
 20
287.82183072408139
 30
0.0
  0
VERTEX
  5
275AA
  8
0
 10
233.9368263706784
 20
287.70087117882991
 30
0.0
  0
SEQEND
  5
275AB
  8
0
  0
POLYLINE
  5
24186
  8
0
 66
     1
 10
0.0
 20
0.0
 30
0.0
  0
VERTEX
  5
275AC
  8
0
 10
237.3053473115649
 20
295.98597459960592
 30
0.0
  0
VERTEX
  5
275AD
  8
0
 10
237.30525938963359
 20
295.89964752035121
 30
0.0
  0
VERTEX
  5
275AE
  8
0
 10
237.30452528955431
 20
295.72833504501159
 30
0.0
  0
VERTEX
  5
275AF
  8
0
 10
237.30297803050021
 20
295.55889813882322
 30
0.0
  0
VERTEX
  5
275B0
  8
0
 10
237.30187346888991
 20
295.4749151594774
 30
0.0
  0
VERTEX
  5
275B1
  8
0
 10
237.3005343514715
 20
295.39143939796082
 30
0.0
  0
VERTEX
  5
275B2
  8
0
 10
237.29711055137801
 20
295.22605937691469
 30
0.0
  0
VERTEX
  5
275B3
  8
0
 10
237.29262286419859
 20
295.0628561047356
 30
0.0
  0
VERTEX
  5
275B4
  8
0
 10
237.28698783013189
 20
294.90192461455939
 30
0.0
  0
VERTEX
  5
275B5
  8
0
 10
237.28012265747341
 20
294.74335648357192
 30
0.0
  0
VERTEX
  5
275B6
  8
0
 10
237.27194553168741
 20
294.58723872185828
 30
0.0
  0
VERTEX
  5
275B7
  8
0
 10
237.2673397185919
 20
294.51012391454879
 30
0.0
  0
VERTEX
  5
275B8
  8
0
 10
237.26237581140589
 20
294.43365192002739
 30
0.0
  0
VERTEX
  5
275B9
  8
0
 10
237.25133471749811
 20
294.28267634034552
 30
0.0
  0
VERTEX
  5
275BA
  8
0
 10
237.23874576356499
 20
294.13439064271961
 30
0.0
  0
VERTEX
  5
275BB
  8
0
 10
237.2245351797396
 20
293.98887099999962
 30
0.0
  0
VERTEX
  5
275BC
  8
0
 10
237.2086323340726
 20
293.8461904852557
 30
0.0
  0
VERTEX
  5
275BD
  8
0
 10
237.19097013145989
 20
293.70641847208071
 30
0.0
  0
VERTEX
  5
275BE
  8
0
 10
237.1814593625088
 20
293.63764367669501
 30
0.0
  0
VERTEX
  5
275BF
  8
0
 10
237.17148538153961
 20
293.56962004836208
 30
0.0
  0
VERTEX
  5
275C0
  8
0
 10
237.1501191260549
 20
293.4358554445962
 30
0.0
  0
VERTEX
  5
275C1
  8
0
 10
237.1268169152213
 20
293.30517947852331
 30
0.0
  0
VERTEX
  5
275C2
  8
0
 10
237.11442409790311
 20
293.24101525265309
 30
0.0
  0
SEQEND
  5
275C3
  8
0
  0
POLYLINE
  5
24187
  8
0
 66
     1
 10
0.0
 20
0.0
 30
0.0
  0
VERTEX
  5
275C4
  8
0
 10
123.3053473115649
 20
295.98597459960553
 30
0.0
  0
VERTEX
  5
275C5
  8
0
 10
123.305435233496
 20
295.89964752035121
 30
0.0
  0
VERTEX
  5
275C6
  8
0
 10
123.3061693335754
 20
295.72833504501159
 30
0.0
  0
VERTEX
  5
275C7
  8
0
 10
123.3077165926296
 20
295.55889813882322
 30
0.0
  0
VERTEX
  5
275C8
  8
0
 10
123.30882115423979
 20
295.4749151594774
 30
0.0
  0
VERTEX
  5
275C9
  8
0
 10
123.3101602716583
 20
295.39143939796082
 30
0.0
  0
VERTEX
  5
275CA
  8
0
 10
123.31358407175171
 20
295.22605937691469
 30
0.0
  0
VERTEX
  5
275CB
  8
0
 10
123.3180717589312
 20
295.0628561047356
 30
0.0
  0
VERTEX
  5
275CC
  8
0
 10
123.3237067929979
 20
294.90192461455939
 30
0.0
  0
VERTEX
  5
275CD
  8
0
 10
123.3305719656564
 20
294.74335648357152
 30
0.0
  0
VERTEX
  5
275CE
  8
0
 10
123.33874909144239
 20
294.58723872185828
 30
0.0
  0
VERTEX
  5
275CF
  8
0
 10
123.3433549045379
 20
294.51012391454879
 30
0.0
  0
VERTEX
  5
275D0
  8
0
 10
123.3483188117238
 20
294.43365192002739
 30
0.0
  0
VERTEX
  5
275D1
  8
0
 10
123.35935990563161
 20
294.28267634034552
 30
0.0
  0
VERTEX
  5
275D2
  8
0
 10
123.3719488595646
 20
294.13439064271961
 30
0.0
  0
VERTEX
  5
275D3
  8
0
 10
123.38615944339
 20
293.98887099999962
 30
0.0
  0
VERTEX
  5
275D4
  8
0
 10
123.4020622890571
 20
293.8461904852557
 30
0.0
  0
VERTEX
  5
275D5
  8
0
 10
123.4197244916697
 20
293.70641847208071
 30
0.0
  0
VERTEX
  5
275D6
  8
0
 10
123.4292352606209
 20
293.63764367669501
 30
0.0
  0
VERTEX
  5
275D7
  8
0
 10
123.43920924159011
 20
293.56962004836208
 30
0.0
  0
VERTEX
  5
275D8
  8
0
 10
123.4605754970747
 20
293.4358554445962
 30
0.0
  0
VERTEX
  5
275D9
  8
0
 10
123.48387770790841
 20
293.30517947852331
 30
0.0
  0
VERTEX
  5
275DA
  8
0
 10
123.49627052522661
 20
293.24101525265309
 30
0.0
  0
SEQEND
  5
275DB
  8
0
  0
POLYLINE
  5
24188
  8
0
 66
     1
 10
0.0
 20
0.0
 30
0.0
  0
VERTEX
  5
275DC
  8
0
 10
125.54532235024681
 20
293.24101525265309
 30
0.0
  0
VERTEX
  5
275DD
  8
0
 10
125.52912169569269
 20
293.30746026399578
 30
0.0
  0
VERTEX
  5
275DE
  8
0
 10
125.4991605463558
 20
293.44098582903189
 30
0.0
  0
VERTEX
  5
275DF
  8
0
 10
125.47231014843889
 20
293.57493481346643
 30
0.0
  0
VERTEX
  5
275E0
  8
0
 10
125.4599681309062
 20
293.64205474217943
 30
0.0
  0
VERTEX
  5
275E1
  8
0
 10
125.4481984117795
 20
293.70990924129961
 30
0.0
  0
VERTEX
  5
275E2
  8
0
 10
125.42630337516501
 20
293.84801129823518
 30
0.0
  0
VERTEX
  5
275E3
  8
0
 10
125.406545156104
 20
293.98925130810949
 30
0.0
  0
VERTEX
  5
275E4
  8
0
 10
125.38885182783871
 20
294.13356016561238
 30
0.0
  0
VERTEX
  5
275E5
  8
0
 10
125.3731459942897
 20
294.28086283957242
 30
0.0
  0
VERTEX
  5
275E6
  8
0
 10
125.3593452173594
 20
294.431079102345
 30
0.0
  0
VERTEX
  5
275E7
  8
0
 10
125.3531322041176
 20
294.50725351811298
 30
0.0
  0
VERTEX
  5
275E8
  8
0
 10
125.3473625070103
 20
294.5841242641668
 30
0.0
  0
VERTEX
  5
275E9
  8
0
 10
125.3371068585982
 20
294.73990991216618
 30
0.0
  0
VERTEX
  5
275EA
  8
0
 10
125.32848382380681
 20
294.89834465480999
 30
0.0
  0
VERTEX
  5
275EB
  8
0
 10
125.32139610256959
 20
295.05933489074232
 30
0.0
  0
VERTEX
  5
275EC
  8
0
 10
125.31574412619079
 20
295.22278628299858
 30
0.0
  0
VERTEX
  5
275ED
  8
0
 10
125.31142682393801
 20
295.3885985923875
 30
0.0
  0
VERTEX
  5
275EE
  8
0
 10
125.3097367823828
 20
295.47235715160019
 30
0.0
  0
VERTEX
  5
275EF
  8
0
 10
125.3083420355528
 20
295.55666594364811
 30
0.0
  0
VERTEX
  5
275F0
  8
0
 10
125.306386938705
 20
295.72687888172231
 30
0.0
  0
VERTEX
  5
275F1
  8
0
 10
125.305458565325
 20
295.89912495376569
 30
0.0
  0
VERTEX
  5
275F2
  8
0
 10
125.3053473115649
 20
295.98597459960592
 30
0.0
  0
SEQEND
  5
275F3
  8
0
  0
POLYLINE
  5
24189
  8
0
 66
     1
 10
0.0
 20
0.0
 30
0.0
  0
VERTEX
  5
275F4
  8
0
 10
129.3053473115649
 20
288.25755174782171
 30
0.0
  0
VERTEX
  5
275F5
  8
0
 10
129.1520751132
 20
288.34833367717653
 30
0.0
  0
VERTEX
  5
275F6
  8
0
 10
128.8517837625061
 20
288.54002163146828
 30
0.0
  0
VERTEX
  5
275F7
  8
0
 10
128.560324327068
 20
288.74488881921798
 30
0.0
  0
VERTEX
  5
275F8
  8
0
 10
128.4180879172954
 20
288.85213866408498
 30
0.0
  0
VERTEX
  5
275F9
  8
0
 10
128.27827480358559
 20
288.96252896584929
 30
0.0
  0
VERTEX
  5
275FA
  8
0
 10
128.00619452784969
 20
289.19251046657928
 30
0.0
  0
VERTEX
  5
275FB
  8
0
 10
127.74462306551651
 20
289.43437724233632
 30
0.0
  0
VERTEX
  5
275FC
  8
0
 10
127.494079142088
 20
289.68764964421871
 30
0.0
  0
VERTEX
  5
275FD
  8
0
 10
127.25505961422181
 20
289.95182540469068
 30
0.0
  0
VERTEX
  5
275FE
  8
0
 10
127.0280384844088
 20
290.22638063363547
 30
0.0
  0
VERTEX
  5
275FF
  8
0
 10
126.9191689630764
 20
290.36738117552699
 30
0.0
  0
VERTEX
  5
27600
  8
0
 10
126.81346596097259
 20
290.51077085728679
 30
0.0
  0
VERTEX
  5
27601
  8
0
 10
126.6117675652563
 20
290.80443209798381
 30
0.0
  0
VERTEX
  5
27602
  8
0
 10
126.423343287766
 20
291.10678199260019
 30
0.0
  0
VERTEX
  5
27603
  8
0
 10
126.24856679494491
 20
291.41722094743591
 30
0.0
  0
VERTEX
  5
27604
  8
0
 10
126.087784688151
 20
291.73513332727862
 30
0.0
  0
VERTEX
  5
27605
  8
0
 10
125.94131581630729
 20
292.0598886762773
 30
0.0
  0
VERTEX
  5
27606
  8
0
 10
125.8735407384664
 20
292.22463170135728
 30
0.0
  0
VERTEX
  5
27607
  8
0
 10
125.8094506435893
 20
292.39084296820641
 30
0.0
  0
VERTEX
  5
27608
  8
0
 10
125.6924506734015
 20
292.72733988364331
 30
0.0
  0
VERTEX
  5
27609
  8
0
 10
125.59054792978721
 20
293.06871211152071
 30
0.0
  0
VERTEX
  5
2760A
  8
0
 10
125.54532235024681
 20
293.24101525265309
 30
0.0
  0
SEQEND
  5
2760B
  8
0
  0
POLYLINE
  5
2418A
  8
0
 66
     1
 10
0.0
 20
0.0
 30
0.0
  0
VERTEX
  5
2760C
  8
0
 10
123.49627052522661
 20
293.24101525265309
 30
0.0
  0
VERTEX
  5
2760D
  8
0
 10
123.53298427345371
 20
293.06421764602868
 30
0.0
  0
VERTEX
  5
2760E
  8
0
 10
123.6159576831877
 20
292.71275505300667
 30
0.0
  0
VERTEX
  5
2760F
  8
0
 10
123.71156707835731
 20
292.36451751256618
 30
0.0
  0
VERTEX
  5
27610
  8
0
 10
123.7640719458999
 20
292.1917502358578
 30
0.0
  0
VERTEX
  5
27611
  8
0
 10
123.819687774233
 20
292.0199591631681
 30
0.0
  0
VERTEX
  5
27612
  8
0
 10
123.9401787700302
 20
291.67952934521958
 30
0.0
  0
VERTEX
  5
27613
  8
0
 10
124.0728829327896
 20
291.34367201508798
 30
0.0
  0
VERTEX
  5
27614
  8
0
 10
124.21762720229459
 20
291.01282516613492
 30
0.0
  0
VERTEX
  5
27615
  8
0
 10
124.3742228167601
 20
290.6874202575259
 30
0.0
  0
VERTEX
  5
27616
  8
0
 10
124.5424655589981
 20
290.36788165156258
 30
0.0
  0
VERTEX
  5
27617
  8
0
 10
124.6308866242059
 20
290.21044274835089
 30
0.0
  0
VERTEX
  5
27618
  8
0
 10
124.7221360227385
 20
290.05462606026998
 30
0.0
  0
VERTEX
  5
27619
  8
0
 10
124.91299989875711
 20
289.74806200195962
 30
0.0
  0
VERTEX
  5
2761A
  8
0
 10
125.1148082804408
 20
289.44858926847792
 30
0.0
  0
VERTEX
  5
2761B
  8
0
 10
125.327297988387
 20
289.15659840383751
 30
0.0
  0
VERTEX
  5
2761C
  8
0
 10
125.55019191361841
 20
288.872470194904
 30
0.0
  0
VERTEX
  5
2761D
  8
0
 10
125.7831993789608
 20
288.59657517481219
 30
0.0
  0
VERTEX
  5
2761E
  8
0
 10
125.90340123543589
 20
288.4618279792312
 30
0.0
  0
VERTEX
  5
2761F
  8
0
 10
126.0260165181182
 20
288.32927313975051
 30
0.0
  0
VERTEX
  5
27620
  8
0
 10
126.27832667194571
 20
288.0709126797492
 30
0.0
  0
VERTEX
  5
27621
  8
0
 10
126.5398008014067
 20
287.82183072408139
 30
0.0
  0
VERTEX
  5
27622
  8
0
 10
126.6738682524512
 20
287.70087117882991
 30
0.0
  0
SEQEND
  5
27623
  8
0
  0
LINE
  5
2418B
  8
0
 10
130.26954634064549
 20
287.70087117882991
 30
0.0
 11
129.30534731156479
 21
288.25755174782171
 31
0.0
  0
POLYLINE
  5
2418C
  8
0
 66
     1
 10
0.0
 20
0.0
 30
0.0
  0
VERTEX
  5
27624
  8
0
 10
128.3053473115649
 20
286.28632698843148
 30
0.0
  0
VERTEX
  5
27625
  8
0
 10
128.43090267630521
 20
286.17916780634908
 30
0.0
  0
VERTEX
  5
27626
  8
0
 10
128.67475764036729
 20
285.96208100804603
 30
0.0
  0
VERTEX
  5
27627
  8
0
 10
128.9088028792082
 20
285.74142433380121
 30
0.0
  0
VERTEX
  5
27628
  8
0
 10
129.02209762672959
 20
285.6298033669641
 30
0.0
  0
SEQEND
  5
27629
  8
0
  0
POLYLINE
  5
2418D
  8
0
 66
     1
 10
0.0
 20
0.0
 30
0.0
  0
VERTEX
  5
2762A
  8
0
 10
133.02209762672959
 20
285.6298033669641
 30
0.0
  0
VERTEX
  5
2762B
  8
0
 10
132.9587224017277
 20
285.69264974460981
 30
0.0
  0
VERTEX
  5
2762C
  8
0
 10
132.82960558672261
 20
285.81753594856951
 30
0.0
  0
VERTEX
  5
2762D
  8
0
 10
132.6973564485549
 20
285.94132475957349
 30
0.0
  0
VERTEX
  5
2762E
  8
0
 10
132.63006597489851
 20
286.00279945043258
 30
0.0
  0
VERTEX
  5
2762F
  8
0
 10
132.5620029626977
 20
286.0639899918142
 30
0.0
  0
VERTEX
  5
27630
  8
0
 10
132.42357376130559
 20
286.18550569716041
 30
0.0
  0
VERTEX
  5
27631
  8
0
 10
132.28209812715849
 20
286.30584617064869
 30
0.0
  0
VERTEX
  5
27632
  8
0
 10
132.1376059874666
 20
286.4249859559186
 30
0.0
  0
VERTEX
  5
27633
  8
0
 10
131.9901279075402
 20
286.54289985060001
 30
0.0
  0
VERTEX
  5
27634
  8
0
 10
131.83969508432401
 20
286.65956291164139
 30
0.0
  0
VERTEX
  5
27635
  8
0
 10
131.76338056411859
 20
286.7174176570515
 30
0.0
  0
VERTEX
  5
27636
  8
0
 10
131.6863393397976
 20
286.77495046058903
 30
0.0
  0
VERTEX
  5
27637
  8
0
 10
131.53009311424421
 20
286.88903808880468
 30
0.0
  0
VERTEX
  5
27638
  8
0
 10
131.37098945938811
 20
287.00180166263232
 30
0.0
  0
VERTEX
  5
27639
  8
0
 10
131.20906203140311
 20
287.1132173284991
 30
0.0
  0
VERTEX
  5
2763A
  8
0
 10
131.04434508379359
 20
287.22326151796511
 30
0.0
  0
VERTEX
  5
2763B
  8
0
 10
130.87687346014729
 20
287.33191095270598
 30
0.0
  0
VERTEX
  5
2763C
  8
0
 10
130.79211569297169
 20
287.38570544312103
 30
0.0
  0
VERTEX
  5
2763D
  8
0
 10
130.70668258676639
 20
287.43914264944033
 30
0.0
  0
VERTEX
  5
2763E
  8
0
 10
130.53380846517209
 20
287.54493392478707
 30
0.0
  0
VERTEX
  5
2763F
  8
0
 10
130.35828766448989
 20
287.64926240006798
 30
0.0
  0
VERTEX
  5
27640
  8
0
 10
130.26954634064549
 20
287.70087117882991
 30
0.0
  0
SEQEND
  5
27641
  8
0
  0
LINE
  5
2418E
  8
0
 10
123.3053473115649
 20
411.68149017266791
 30
0.0
 11
123.31358407175181
 21
295.22605937691111
 31
0.0
  0
LINE
  5
2418F
  8
0
 10
134.5553473115649
 20
284.09655368212913
 30
0.0
 11
133.02209762672959
 21
285.6298033669641
 31
0.0
  0
LINE
  5
24190
  8
0
 10
129.02209762672959
 20
285.6298033669641
 30
0.0
 11
133.55534731156479
 21
281.09655368212913
 31
0.0
  0
POLYLINE
  5
24191
  8
0
 66
     1
 10
0.0
 20
0.0
 30
0.0
  0
VERTEX
  5
27642
  8
0
 10
133.5553473115649
 20
281.09655368212913
 30
0.0
  0
VERTEX
  5
27643
  8
0
 10
133.66523450640531
 20
280.98562280457099
 30
0.0
  0
VERTEX
  5
27644
  8
0
 10
133.88341381090629
 20
280.75909445997922
 30
0.0
  0
VERTEX
  5
27645
  8
0
 10
134.0994174259948
 20
280.52639501338081
 30
0.0
  0
VERTEX
  5
27646
  8
0
 10
134.2065851464119
 20
280.40775064787113
 30
0.0
  0
VERTEX
  5
27647
  8
0
 10
134.3131871747818
 20
280.28758713840222
 30
0.0
  0
VERTEX
  5
27648
  8
0
 10
134.52466548203191
 20
280.04273515387109
 30
0.0
  0
VERTEX
  5
27649
  8
0
 10
134.7337953896706
 20
279.79190500649202
 30
0.0
  0
VERTEX
  5
2764A
  8
0
 10
134.94052057212471
 20
279.5351642530868
 30
0.0
  0
VERTEX
  5
2764B
  8
0
 10
135.1447853514928
 20
279.27258204239803
 30
0.0
  0
VERTEX
  5
2764C
  8
0
 10
135.34653471254089
 20
279.00422909646431
 30
0.0
  0
VERTEX
  5
2764D
  8
0
 10
135.4464491037827
 20
278.86791112393757
 30
0.0
  0
VERTEX
  5
2764E
  8
0
 10
135.54571431752009
 20
278.73017769157468
 30
0.0
  0
VERTEX
  5
2764F
  8
0
 10
135.74227052080161
 20
278.45050163879978
 30
0.0
  0
VERTEX
  5
27650
  8
0
 10
135.93615038332501
 20
278.1652762641134
 30
0.0
  0
VERTEX
  5
27651
  8
0
 10
136.1273016868565
 20
277.87457838810542
 30
0.0
  0
VERTEX
  5
27652
  8
0
 10
136.3156729480533
 20
277.57848630528912
 30
0.0
  0
VERTEX
  5
27653
  8
0
 10
136.50121343232951
 20
277.27707976301599
 30
0.0
  0
VERTEX
  5
27654
  8
0
 10
136.59290648666939
 20
277.1244088826133
 30
0.0
  0
VERTEX
  5
27655
  8
0
 10
136.68387316752069
 20
276.97043993999802
 30
0.0
  0
VERTEX
  5
27656
  8
0
 10
136.86360295734309
 20
276.65864942443932
 30
0.0
  0
VERTEX
  5
27657
  8
0
 10
137.04035439464371
 20
276.34179219179708
 30
0.0
  0
VERTEX
  5
27658
  8
0
 10
137.1275983228538
 20
276.18149017266802
 30
0.0
  0
SEQEND
  5
27659
  8
0
  0
POLYLINE
  5
24192
  8
0
 66
     1
 10
0.0
 20
0.0
 30
0.0
  0
VERTEX
  5
2765A
  8
0
 10
139.74067536520741
 20
276.18149017266802
 30
0.0
  0
VERTEX
  5
2765B
  8
0
 10
139.62292613540481
 20
276.44691782751352
 30
0.0
  0
VERTEX
  5
2765C
  8
0
 10
139.38238685822611
 20
276.97093580143382
 30
0.0
  0
VERTEX
  5
2765D
  8
0
 10
139.13522461221561
 20
277.48562477647511
 30
0.0
  0
VERTEX
  5
2765E
  8
0
 10
139.00919742859651
 20
277.73939224933429
 30
0.0
  0
VERTEX
  5
2765F
  8
0
 10
138.8815599647358
 20
277.99073368398467
 30
0.0
  0
VERTEX
  5
27660
  8
0
 10
138.62151665506369
 20
278.48601612852741
 30
0.0
  0
VERTEX
  5
27661
  8
0
 10
138.35522153402891
 20
278.97123050808301
 30
0.0
  0
VERTEX
  5
27662
  8
0
 10
138.0828045021363
 20
279.44614013189857
 30
0.0
  0
VERTEX
  5
27663
  8
0
 10
137.80439844619829
 20
279.91051333594811
 30
0.0
  0
VERTEX
  5
27664
  8
0
 10
137.52013917451299
 20
280.36412359594118
 30
0.0
  0
VERTEX
  5
27665
  8
0
 10
137.37585780542719
 20
280.58682326571721
 30
0.0
  0
VERTEX
  5
27666
  8
0
 10
137.2301653506151
 20
280.80674963782121
 30
0.0
  0
VERTEX
  5
27667
  8
0
 10
136.9346184256357
 20
281.23817554570502
 30
0.0
  0
VERTEX
  5
27668
  8
0
 10
136.63364256930049
 20
281.65819086720921
 30
0.0
  0
VERTEX
  5
27669
  8
0
 10
136.32738459960419
 20
282.06659071610829
 30
0.0
  0
VERTEX
  5
2766A
  8
0
 10
136.01599391119061
 20
282.46317587228032
 30
0.0
  0
VERTEX
  5
2766B
  8
0
 10
135.69962240247739
 20
282.84775287888851
 30
0.0
  0
VERTEX
  5
2766C
  8
0
 10
135.5396169751792
 20
283.03547947002471
 30
0.0
  0
VERTEX
  5
2766D
  8
0
 10
135.3784244015589
 20
283.22013413674949
 30
0.0
  0
VERTEX
  5
2766E
  8
0
 10
135.0525565909241
 20
283.5801379958462
 30
0.0
  0
VERTEX
  5
2766F
  8
0
 10
134.7221779310259
 20
283.92758884393839
 30
0.0
  0
VERTEX
  5
27670
  8
0
 10
134.5553473115649
 20
284.09655368212913
 30
0.0
  0
SEQEND
  5
27671
  8
0
  0
POLYLINE
  5
24193
  8
0
 66
     1
 10
0.0
 20
0.0
 30
0.0
  0
VERTEX
  5
27672
  8
0
 10
137.12759832285391
 20
276.18149017266802
 30
0.0
  0
VERTEX
  5
27673
  8
0
 10
137.26350183827839
 20
275.93469364001879
 30
0.0
  0
VERTEX
  5
27674
  8
0
 10
137.5408574341044
 20
275.45810546221219
 30
0.0
  0
VERTEX
  5
27675
  8
0
 10
137.8218620680403
 20
275.00564739833231
 30
0.0
  0
VERTEX
  5
27676
  8
0
 10
137.962388374353
 20
274.78899777720432
 30
0.0
  0
VERTEX
  5
27677
  8
0
 10
138.10224862182281
 20
274.5790073012904
 30
0.0
  0
VERTEX
  5
27678
  8
0
 10
138.3780521704887
 20
274.1797595655612
 30
0.0
  0
VERTEX
  5
27679
  8
0
 10
138.65225886696049
 20
273.80035242915028
 30
0.0
  0
VERTEX
  5
2767A
  8
0
 10
138.92734900489361
 20
273.43556662346867
 30
0.0
  0
VERTEX
  5
2767B
  8
0
 10
139.1997801850745
 20
273.0889001924952
 30
0.0
  0
VERTEX
  5
2767C
  8
0
 10
139.4661349174778
 20
272.76357059411021
 30
0.0
  0
VERTEX
  5
2767D
  8
0
 10
139.59601564461141
 20
272.60983495493429
 30
0.0
  0
VERTEX
  5
2767E
  8
0
 10
139.72317769803311
 20
272.46251822680551
 30
0.0
  0
VERTEX
  5
2767F
  8
0
 10
139.96786382573541
 20
272.18844714498749
 30
0.0
  0
VERTEX
  5
27680
  8
0
 10
140.19741373797609
 20
271.94377227118048
 30
0.0
  0
VERTEX
  5
27681
  8
0
 10
140.40949575829569
 20
271.73046075460388
 30
0.0
  0
VERTEX
  5
27682
  8
0
 10
140.60195106223921
 20
271.55034124662961
 30
0.0
  0
VERTEX
  5
27683
  8
0
 10
140.77291171096769
 20
271.40495553958408
 30
0.0
  0
VERTEX
  5
27684
  8
0
 10
140.84986551715559
 20
271.34565154568372
 30
0.0
  0
VERTEX
  5
27685
  8
0
 10
140.8621232178711
 20
271.33664646550233
 30
0.0
  0
VERTEX
  5
27686
  8
0
 10
140.8861465617419
 20
271.31939321404798
 30
0.0
  0
VERTEX
  5
27687
  8
0
 10
140.9095102779861
 20
271.30315143619958
 30
0.0
  0
VERTEX
  5
27688
  8
0
 10
140.92094351836471
 20
271.29541061782447
 30
0.0
  0
VERTEX
  5
27689
  8
0
 10
140.93221038371729
 20
271.28792354517282
 30
0.0
  0
VERTEX
  5
2768A
  8
0
 10
140.95424322578069
 20
271.27371159583208
 30
0.0
  0
VERTEX
  5
2768B
  8
0
 10
140.9756054930576
 20
271.26051726977857
 30
0.0
  0
VERTEX
  5
2768C
  8
0
 10
140.9962942278251
 20
271.24834186179493
 30
0.0
  0
VERTEX
  5
2768D
  8
0
 10
141.01630683612859
 20
271.23718626770329
 30
0.0
  0
VERTEX
  5
2768E
  8
0
 10
141.0356410971298
 20
271.2270509736764
 30
0.0
  0
VERTEX
  5
2768F
  8
0
 10
141.04505325746561
 20
271.22236597681058
 30
0.0
  0
VERTEX
  5
27690
  8
0
 10
141.05429517139311
 20
271.21793604705181
 30
0.0
  0
VERTEX
  5
27691
  8
0
 10
141.07226760807461
 20
271.20984112869161
 30
0.0
  0
VERTEX
  5
27692
  8
0
 10
141.0895573509809
 20
271.20276542693631
 30
0.0
  0
VERTEX
  5
27693
  8
0
 10
141.10616374346651
 20
271.1967077131963
 30
0.0
  0
VERTEX
  5
27694
  8
0
 10
141.1220865321406
 20
271.19166631922008
 30
0.0
  0
VERTEX
  5
27695
  8
0
 10
141.13732586935649
 20
271.1876391360874
 30
0.0
  0
VERTEX
  5
27696
  8
0
 10
141.14468940255651
 20
271.18600509420457
 30
0.0
  0
VERTEX
  5
27697
  8
0
 10
141.15188231445899
 20
271.18462361496768
 30
0.0
  0
VERTEX
  5
27698
  8
0
 10
141.1657568337678
 20
271.1826167696745
 30
0.0
  0
VERTEX
  5
27699
  8
0
 10
141.1789507992778
 20
271.18161518107132
 30
0.0
  0
VERTEX
  5
2769A
  8
0
 10
141.1852931134207
 20
271.18149017266791
 30
0.0
  0
SEQEND
  5
2769B
  8
0
  0
POLYLINE
  5
24194
  8
0
 66
     1
 10
0.0
 20
0.0
 30
0.0
  0
VERTEX
  5
2769C
  8
0
 10
143.19910288268929
 20
271.18149017266791
 30
0.0
  0
VERTEX
  5
2769D
  8
0
 10
143.16390683408221
 20
271.18584315097308
 30
0.0
  0
VERTEX
  5
2769E
  8
0
 10
143.0776949090781
 20
271.2210055450505
 30
0.0
  0
VERTEX
  5
2769F
  8
0
 10
142.9704289400446
 20
271.29190325722129
 30
0.0
  0
VERTEX
  5
276A0
  8
0
 10
142.90902283331059
 20
271.34079728868659
 30
0.0
  0
VERTEX
  5
276A1
  8
0
 10
142.84255274824221
 20
271.39861572713698
 30
0.0
  0
VERTEX
  5
276A2
  8
0
 10
142.6949204973549
 20
271.54074267573651
 30
0.0
  0
VERTEX
  5
276A3
  8
0
 10
142.5287947723061
 20
271.71743044960249
 30
0.0
  0
VERTEX
  5
276A4
  8
0
 10
142.34583783250781
 20
271.92738277594532
 30
0.0
  0
VERTEX
  5
276A5
  8
0
 10
142.14798857489311
 20
272.1689993866753
 30
0.0
  0
VERTEX
  5
276A6
  8
0
 10
141.93735848859251
 20
272.44051739313448
 30
0.0
  0
VERTEX
  5
276A7
  8
0
 10
141.82802440979799
 20
272.58680669975729
 30
0.0
  0
VERTEX
  5
276A8
  8
0
 10
141.71645641717629
 20
272.73970986054837
 30
0.0
  0
VERTEX
  5
276A9
  8
0
 10
141.4880249281843
 20
273.06403579364718
 30
0.0
  0
VERTEX
  5
276AA
  8
0
 10
141.25496636594369
 20
273.41069003812032
 30
0.0
  0
VERTEX
  5
276AB
  8
0
 10
141.02032551692361
 20
273.776558081855
 30
0.0
  0
VERTEX
  5
276AC
  8
0
 10
140.7872292224132
 20
274.15820895837851
 30
0.0
  0
VERTEX
  5
276AD
  8
0
 10
140.55383774629249
 20
274.56070135149372
 30
0.0
  0
VERTEX
  5
276AE
  8
0
 10
140.43596436462661
 20
274.77267556165413
 30
0.0
  0
VERTEX
  5
276AF
  8
0
 10
140.31788464513519
 20
274.99154472953518
 30
0.0
  0
VERTEX
  5
276B0
  8
0
 10
140.082936338499
 20
275.4491032923529
 30
0.0
  0
VERTEX
  5
276B1
  8
0
 10
139.85275926452471
 20
275.93154881201099
 30
0.0
  0
VERTEX
  5
276B2
  8
0
 10
139.74067536520741
 20
276.18149017266802
 30
0.0
  0
SEQEND
  5
276B3
  8
0
  0
LINE
  5
24195
  8
0
 10
143.3053473115649
 20
271.18149017266791
 30
0.0
 11
141.1852931134207
 21
271.18149017266791
 31
0.0
  0
LINE
  5
24197
  8
0
 10
128.3053473115649
 20
286.28632698843148
 30
0.0
 11
126.6738682524513
 21
287.70087117882991
 31
0.0
  0
POLYLINE
  5
24198
  8
0
 66
     1
 10
0.0
 20
0.0
 30
0.0
  0
VERTEX
  5
276B4
  8
0
 10
126.6738682524513
 20
287.70087117882991
 30
0.0
  0
VERTEX
  5
276B5
  8
0
 10
126.5398008014067
 20
287.82183072408139
 30
0.0
  0
VERTEX
  5
276B6
  8
0
 10
126.27832667194571
 20
288.0709126797492
 30
0.0
  0
VERTEX
  5
276B7
  8
0
 10
126.0260165181182
 20
288.32927313975051
 30
0.0
  0
VERTEX
  5
276B8
  8
0
 10
125.90340123543589
 20
288.4618279792312
 30
0.0
  0
VERTEX
  5
276B9
  8
0
 10
125.7831993789608
 20
288.59657517481219
 30
0.0
  0
VERTEX
  5
276BA
  8
0
 10
125.55019191361841
 20
288.872470194904
 30
0.0
  0
VERTEX
  5
276BB
  8
0
 10
125.327297988387
 20
289.15659840383751
 30
0.0
  0
VERTEX
  5
276BC
  8
0
 10
125.1148082804408
 20
289.44858926847792
 30
0.0
  0
VERTEX
  5
276BD
  8
0
 10
124.91299989875711
 20
289.74806200195962
 30
0.0
  0
VERTEX
  5
276BE
  8
0
 10
124.7221360227385
 20
290.05462606026998
 30
0.0
  0
VERTEX
  5
276BF
  8
0
 10
124.6308866242059
 20
290.21044274835089
 30
0.0
  0
VERTEX
  5
276C0
  8
0
 10
124.5424655589981
 20
290.36788165156258
 30
0.0
  0
VERTEX
  5
276C1
  8
0
 10
124.3742228167601
 20
290.6874202575259
 30
0.0
  0
VERTEX
  5
276C2
  8
0
 10
124.21762720229459
 20
291.01282516613492
 30
0.0
  0
VERTEX
  5
276C3
  8
0
 10
124.0728829327896
 20
291.34367201508798
 30
0.0
  0
VERTEX
  5
276C4
  8
0
 10
123.9401787700302
 20
291.67952934521958
 30
0.0
  0
VERTEX
  5
276C5
  8
0
 10
123.819687774233
 20
292.0199591631681
 30
0.0
  0
VERTEX
  5
276C6
  8
0
 10
123.7640719458999
 20
292.1917502358578
 30
0.0
  0
VERTEX
  5
276C7
  8
0
 10
123.71156707835731
 20
292.36451751256618
 30
0.0
  0
VERTEX
  5
276C8
  8
0
 10
123.6159576831877
 20
292.71275505300667
 30
0.0
  0
VERTEX
  5
276C9
  8
0
 10
123.53298427345371
 20
293.06421764602868
 30
0.0
  0
VERTEX
  5
276CA
  8
0
 10
123.49627052522661
 20
293.24101525265309
 30
0.0
  0
SEQEND
  5
276CB
  8
0
  0
POLYLINE
  5
24199
  8
0
 66
     1
 10
0.0
 20
0.0
 30
0.0
  0
VERTEX
  5
276CC
  8
0
 10
123.49627052522661
 20
293.24101525265309
 30
0.0
  0
VERTEX
  5
276CD
  8
0
 10
123.4778678576191
 20
293.33755613117143
 30
0.0
  0
VERTEX
  5
276CE
  8
0
 10
123.44437220843569
 20
293.53589223878322
 30
0.0
  0
VERTEX
  5
276CF
  8
0
 10
123.41514047560941
 20
293.74108516519118
 30
0.0
  0
VERTEX
  5
276D0
  8
0
 10
123.4020622890567
 20
293.84619048525838
 30
0.0
  0
SEQEND
  5
276D1
  8
0
  0
LINE
  5
2419A
  8
0
 10
187.31144779165359
 20
402.68149017266791
 30
0.0
 11
173.2992468314761
 21
402.68149017266791
 31
0.0
  0
POLYLINE
  5
2419B
  8
0
 66
     1
 10
0.0
 20
0.0
 30
0.0
  0
VERTEX
  5
276D2
  8
0
 10
168.20920360090861
 20
408.81541756527889
 30
0.0
  0
VERTEX
  5
276D3
  8
0
 10
168.2024172863683
 20
408.82977202045998
 30
0.0
  0
VERTEX
  5
276D4
  8
0
 10
168.18842812412359
 20
408.85818748154088
 30
0.0
  0
VERTEX
  5
276D5
  8
0
 10
168.17391213382149
 20
408.8861697067573
 30
0.0
  0
VERTEX
  5
276D6
  8
0
 10
168.16646805089661
 20
408.89998324650048
 30
0.0
  0
VERTEX
  5
276D7
  8
0
 10
168.1589063914233
 20
408.91367074307982
 30
0.0
  0
VERTEX
  5
276D8
  8
0
 10
168.1434507191704
 20
408.94064598267278
 30
0.0
  0
VERTEX
  5
276D9
  8
0
 10
168.12758715434879
 20
408.96705465630743
 30
0.0
  0
VERTEX
  5
276DA
  8
0
 10
168.11135941935319
 20
408.9928601784099
 30
0.0
  0
VERTEX
  5
276DB
  8
0
 10
168.09481239895149
 20
409.0180303709393
 30
0.0
  0
VERTEX
  5
276DC
  8
0
 10
168.0779913639164
 20
409.04253796715278
 30
0.0
  0
VERTEX
  5
276DD
  8
0
 10
168.06949161609441
 20
409.05453695247968
 30
0.0
  0
VERTEX
  5
276DE
  8
0
 10
168.0609398363865
 20
409.06636282350382
 30
0.0
  0
VERTEX
  5
276DF
  8
0
 10
168.04370342841679
 20
409.08948572181077
 30
0.0
  0
VERTEX
  5
276E0
  8
0
 10
168.02632925991671
 20
409.11188913675818
 30
0.0
  0
VERTEX
  5
276E1
  8
0
 10
168.00886517370051
 20
409.13355807127112
 30
0.0
  0
VERTEX
  5
276E2
  8
0
 10
167.99135936485209
 20
409.1544802088024
 30
0.0
  0
VERTEX
  5
276E3
  8
0
 10
167.9738600470038
 20
409.17464596977959
 30
0.0
  0
VERTEX
  5
276E4
  8
0
 10
167.96512782027429
 20
409.1844429603193
 30
0.0
  0
VERTEX
  5
276E5
  8
0
 10
167.9564151556169
 20
409.19404849214959
 30
0.0
  0
VERTEX
  5
276E6
  8
0
 10
167.9390720869919
 20
409.21268355319938
 30
0.0
  0
VERTEX
  5
276E7
  8
0
 10
167.92187747073359
 20
409.23054944726158
 30
0.0
  0
VERTEX
  5
276E8
  8
0
 10
167.9133501452697
 20
409.23919407447153
 30
0.0
  0
VERTEX
  5
276E9
  8
0
 10
167.90487697261051
 20
409.24764683165313
 30
0.0
  0
VERTEX
  5
276EA
  8
0
 10
167.8880954540939
 20
409.26399741928071
 30
0.0
  0
VERTEX
  5
276EB
  8
0
 10
167.8713719584475
 20
409.27979434969018
 30
0.0
  0
VERTEX
  5
276EC
  8
0
 10
167.86301647826281
 20
409.28750765457931
 30
0.0
  0
VERTEX
  5
276ED
  8
0
 10
167.85466618648061
 20
409.29510016694297
 30
0.0
  0
VERTEX
  5
276EE
  8
0
 10
167.83798404408381
 20
409.30993047010719
 30
0.0
  0
VERTEX
  5
276EF
  8
0
 10
167.82133105775381
 20
409.32430010790898
 30
0.0
  0
VERTEX
  5
276F0
  8
0
 10
167.8047124326576
 20
409.33822321042129
 30
0.0
  0
VERTEX
  5
276F1
  8
0
 10
167.7881331035544
 20
409.35171322289852
 30
0.0
  0
VERTEX
  5
276F2
  8
0
 10
167.77159777901599
 20
409.36478294111112
 30
0.0
  0
VERTEX
  5
276F3
  8
0
 10
167.76334803750811
 20
409.37116401986208
 30
0.0
  0
VERTEX
  5
276F4
  8
0
 10
167.75511097941521
 20
409.37744454758962
 30
0.0
  0
VERTEX
  5
276F5
  8
0
 10
167.73867706915831
 20
409.38970964826831
 30
0.0
  0
VERTEX
  5
276F6
  8
0
 10
167.72230028364601
 20
409.40158930906949
 30
0.0
  0
VERTEX
  5
276F7
  8
0
 10
167.66549023167579
 20
409.44028113727421
 30
0.0
  0
VERTEX
  5
276F8
  8
0
 10
167.57032305318239
 20
409.49707476934361
 30
0.0
  0
VERTEX
  5
276F9
  8
0
 10
167.478593531813
 20
409.54330721278927
 30
0.0
  0
VERTEX
  5
276FA
  8
0
 10
167.39095764087071
 20
409.58044890825113
 30
0.0
  0
VERTEX
  5
276FB
  8
0
 10
167.34886794488261
 20
409.59601242828552
 30
0.0
  0
VERTEX
  5
276FC
  8
0
 10
167.30802187759579
 20
409.6097686751981
 30
0.0
  0
VERTEX
  5
276FD
  8
0
 10
167.23030782882279
 20
409.63241042868179
 30
0.0
  0
VERTEX
  5
276FE
  8
0
 10
167.15826991482561
 20
409.64941744492222
 30
0.0
  0
VERTEX
  5
276FF
  8
0
 10
167.09229983758999
 20
409.66174881790039
 30
0.0
  0
VERTEX
  5
27700
  8
0
 10
167.03273666769141
 20
409.67028596875519
 30
0.0
  0
VERTEX
  5
27701
  8
0
 10
166.97985665818041
 20
409.6758362353321
 30
0.0
  0
VERTEX
  5
27702
  8
0
 10
166.9559892663317
 20
409.67772260831168
 30
0.0
  0
VERTEX
  5
27703
  8
0
 10
166.93386398442411
 20
409.67912947448161
 30
0.0
  0
VERTEX
  5
27704
  8
0
 10
166.89489527439241
 20
409.68081041018189
 30
0.0
  0
VERTEX
  5
27705
  8
0
 10
166.86301842168481
 20
409.68143141635483
 30
0.0
  0
VERTEX
  5
27706
  8
0
 10
166.84974192035361
 20
409.68149017266791
 30
0.0
  0
SEQEND
  5
27707
  8
0
  0
LINE
  5
2419C
  8
0
 10
170.12716957684779
 20
404.7023262565753
 30
0.0
 11
168.20920360090861
 21
408.81541756527889
 31
0.0
  0
POLYLINE
  5
2419D
  8
0
 66
     1
 10
0.0
 20
0.0
 30
0.0
  0
VERTEX
  5
27708
  8
0
 10
173.2992468314761
 20
402.68149017266791
 30
0.0
  0
VERTEX
  5
27709
  8
0
 10
173.18896997310159
 20
402.68322788768859
 30
0.0
  0
VERTEX
  5
2770A
  8
0
 10
172.96885415848311
 20
402.69711925647198
 30
0.0
  0
VERTEX
  5
2770B
  8
0
 10
172.75005031137599
 20
402.72484683232909
 30
0.0
  0
VERTEX
  5
2770C
  8
0
 10
172.64141219107569
 20
402.74386692602093
 30
0.0
  0
VERTEX
  5
2770D
  8
0
 10
172.53342728742439
 20
402.76630051088517
 30
0.0
  0
VERTEX
  5
2770E
  8
0
 10
172.3198452823676
 20
402.82131568231711
 30
0.0
  0
VERTEX
  5
2770F
  8
0
 10
172.1101524162595
 20
402.88967388500839
 30
0.0
  0
VERTEX
  5
27710
  8
0
 10
171.90518136563981
 20
402.97110367304458
 30
0.0
  0
VERTEX
  5
27711
  8
0
 10
171.70574605703041
 20
403.06528169410922
 30
0.0
  0
VERTEX
  5
27712
  8
0
 10
171.5126384348865
 20
403.17183397349248
 30
0.0
  0
VERTEX
  5
27713
  8
0
 10
171.41869820226219
 20
403.22962011232272
 30
0.0
  0
VERTEX
  5
27714
  8
0
 10
171.3266253168382
 20
403.2903373991212
 30
0.0
  0
VERTEX
  5
27715
  8
0
 10
171.1484453487075
 20
403.4203214017088
 30
0.0
  0
VERTEX
  5
27716
  8
0
 10
170.9788060713947
 20
403.56126982335479
 30
0.0
  0
VERTEX
  5
27717
  8
0
 10
170.81838111128039
 20
403.71262296717481
 30
0.0
  0
VERTEX
  5
27718
  8
0
 10
170.66780750529961
 20
403.87377981981763
 30
0.0
  0
VERTEX
  5
27719
  8
0
 10
170.52768317130929
 20
404.04410043805137
 30
0.0
  0
VERTEX
  5
2771A
  8
0
 10
170.46171504638039
 20
404.13248715447298
 30
0.0
  0
VERTEX
  5
2771B
  8
0
 10
170.3985645337971
 20
404.22290848993629
 30
0.0
  0
VERTEX
  5
2771C
  8
0
 10
170.3285335842738
 20
404.33085168746942
 30
0.0
  0
VERTEX
  5
2771D
  8
0
 10
170.30925817964999
 20
404.36215846515819
 30
0.0
  0
VERTEX
  5
2771E
  8
0
 10
170.2903126880679
 20
404.39366598650389
 30
0.0
  0
VERTEX
  5
2771F
  8
0
 10
170.28096431435571
 20
404.40949394049221
 30
0.0
  0
VERTEX
  5
27720
  8
0
 10
170.2716991999589
 20
404.42537077499168
 30
0.0
  0
VERTEX
  5
27721
  8
0
 10
170.25341976912051
 20
404.45726933233931
 30
0.0
  0
VERTEX
  5
27722
  8
0
 10
170.23547641249141
 20
404.489358138885
 30
0.0
  0
VERTEX
  5
27723
  8
0
 10
170.21787110992739
 20
404.52163365397422
 30
0.0
  0
VERTEX
  5
27724
  8
0
 10
170.2006058039841
 20
404.55409231635173
 30
0.0
  0
VERTEX
  5
27725
  8
0
 10
170.18368239970209
 20
404.58673054455312
 30
0.0
  0
VERTEX
  5
27726
  8
0
 10
170.17534949569941
 20
404.60311587120208
 30
0.0
  0
VERTEX
  5
27727
  8
0
 10
170.16710276439659
 20
404.61954473730242
 30
0.0
  0
VERTEX
  5
27728
  8
0
 10
170.15086872745209
 20
404.65253127390628
 30
0.0
  0
VERTEX
  5
27729
  8
0
 10
170.1349820801195
 20
404.68568651465603
 30
0.0
  0
VERTEX
  5
2772A
  8
0
 10
170.12716957684779
 20
404.7023262565753
 30
0.0
  0
SEQEND
  5
2772B
  8
0
  0
POLYLINE
  5
2419E
  8
0
 66
     1
 10
0.0
 20
0.0
 30
0.0
  0
VERTEX
  5
2772C
  8
0
 10
190.4835250462819
 20
404.7023262565753
 30
0.0
  0
VERTEX
  5
2772D
  8
0
 10
190.4757125430103
 20
404.68568651465603
 30
0.0
  0
VERTEX
  5
2772E
  8
0
 10
190.45982589567771
 20
404.65253127390628
 30
0.0
  0
VERTEX
  5
2772F
  8
0
 10
190.44359185873299
 20
404.61954473730242
 30
0.0
  0
VERTEX
  5
27730
  8
0
 10
190.43534512743031
 20
404.60311587120208
 30
0.0
  0
VERTEX
  5
27731
  8
0
 10
190.42701222342771
 20
404.58673054455312
 30
0.0
  0
VERTEX
  5
27732
  8
0
 10
190.41008881914561
 20
404.55409231635173
 30
0.0
  0
VERTEX
  5
27733
  8
0
 10
190.3928235132023
 20
404.52163365397422
 30
0.0
  0
VERTEX
  5
27734
  8
0
 10
190.37521821063831
 20
404.489358138885
 30
0.0
  0
VERTEX
  5
27735
  8
0
 10
190.35727485400909
 20
404.45726933233931
 30
0.0
  0
VERTEX
  5
27736
  8
0
 10
190.33899542317079
 20
404.42537077499168
 30
0.0
  0
VERTEX
  5
27737
  8
0
 10
190.32973030877389
 20
404.40949394049221
 30
0.0
  0
VERTEX
  5
27738
  8
0
 10
190.3203819350617
 20
404.39366598650389
 30
0.0
  0
VERTEX
  5
27739
  8
0
 10
190.30143644347979
 20
404.36215846515768
 30
0.0
  0
VERTEX
  5
2773A
  8
0
 10
190.282161038856
 20
404.33085168746942
 30
0.0
  0
VERTEX
  5
2773B
  8
0
 10
190.2121300893325
 20
404.22290848993629
 30
0.0
  0
VERTEX
  5
2773C
  8
0
 10
190.14897957674941
 20
404.13248715447298
 30
0.0
  0
VERTEX
  5
2773D
  8
0
 10
190.08301145182031
 20
404.04410043805137
 30
0.0
  0
VERTEX
  5
2773E
  8
0
 10
189.94288711783011
 20
403.87377981981763
 30
0.0
  0
VERTEX
  5
2773F
  8
0
 10
189.79231351184919
 20
403.71262296717481
 30
0.0
  0
VERTEX
  5
27740
  8
0
 10
189.63188855173499
 20
403.56126982335479
 30
0.0
  0
VERTEX
  5
27741
  8
0
 10
189.46224927442231
 20
403.4203214017088
 30
0.0
  0
VERTEX
  5
27742
  8
0
 10
189.28406930629151
 20
403.2903373991212
 30
0.0
  0
VERTEX
  5
27743
  8
0
 10
189.1919964208675
 20
403.22962011232272
 30
0.0
  0
VERTEX
  5
27744
  8
0
 10
189.09805618824311
 20
403.17183397349248
 30
0.0
  0
VERTEX
  5
27745
  8
0
 10
188.90494856609939
 20
403.06528169410922
 30
0.0
  0
VERTEX
  5
27746
  8
0
 10
188.7055132574898
 20
402.97110367304458
 30
0.0
  0
VERTEX
  5
27747
  8
0
 10
188.50054220687019
 20
402.88967388500839
 30
0.0
  0
VERTEX
  5
27748
  8
0
 10
188.29084934076221
 20
402.82131568231711
 30
0.0
  0
VERTEX
  5
27749
  8
0
 10
188.0772673357053
 20
402.76630051088517
 30
0.0
  0
VERTEX
  5
2774A
  8
0
 10
187.969282432054
 20
402.74386692602093
 30
0.0
  0
VERTEX
  5
2774B
  8
0
 10
187.8606443117537
 20
402.72484683232909
 30
0.0
  0
VERTEX
  5
2774C
  8
0
 10
187.64184046464649
 20
402.69711925647198
 30
0.0
  0
VERTEX
  5
2774D
  8
0
 10
187.42172465002821
 20
402.68322788768859
 30
0.0
  0
VERTEX
  5
2774E
  8
0
 10
187.31144779165359
 20
402.68149017266791
 30
0.0
  0
SEQEND
  5
2774F
  8
0
  0
LINE
  5
2419F
  8
0
 10
192.40149102222111
 20
408.81541756527889
 30
0.0
 11
190.4835250462819
 21
404.7023262565753
 31
0.0
  0
POLYLINE
  5
241A0
  8
0
 66
     1
 10
0.0
 20
0.0
 30
0.0
  0
VERTEX
  5
27750
  8
0
 10
193.76095270277611
 20
409.68149017266791
 30
0.0
  0
VERTEX
  5
27751
  8
0
 10
193.7476762014449
 20
409.68143141635483
 30
0.0
  0
VERTEX
  5
27752
  8
0
 10
193.71579934873731
 20
409.68081041018189
 30
0.0
  0
VERTEX
  5
27753
  8
0
 10
193.67683063870561
 20
409.67912947448161
 30
0.0
  0
VERTEX
  5
27754
  8
0
 10
193.6547053567981
 20
409.67772260831168
 30
0.0
  0
VERTEX
  5
27755
  8
0
 10
193.63083796494919
 20
409.6758362353321
 30
0.0
  0
VERTEX
  5
27756
  8
0
 10
193.57795795543839
 20
409.67028596875519
 30
0.0
  0
VERTEX
  5
27757
  8
0
 10
193.51839478553981
 20
409.66174881790039
 30
0.0
  0
VERTEX
  5
27758
  8
0
 10
193.45242470830411
 20
409.64941744492222
 30
0.0
  0
VERTEX
  5
27759
  8
0
 10
193.3803867943069
 20
409.63241042868179
 30
0.0
  0
VERTEX
  5
2775A
  8
0
 10
193.30267274553381
 20
409.6097686751981
 30
0.0
  0
VERTEX
  5
2775B
  8
0
 10
193.2618266782471
 20
409.59601242828552
 30
0.0
  0
VERTEX
  5
2775C
  8
0
 10
193.21973698225889
 20
409.58044890825113
 30
0.0
  0
VERTEX
  5
2775D
  8
0
 10
193.13210109131671
 20
409.54330721278927
 30
0.0
  0
VERTEX
  5
2775E
  8
0
 10
193.0403715699473
 20
409.49707476934361
 30
0.0
  0
VERTEX
  5
2775F
  8
0
 10
192.9452043914539
 20
409.44028113727421
 30
0.0
  0
VERTEX
  5
27760
  8
0
 10
192.8883943394836
 20
409.40158930906949
 30
0.0
  0
VERTEX
  5
27761
  8
0
 10
192.8720175539714
 20
409.38970964826831
 30
0.0
  0
VERTEX
  5
27762
  8
0
 10
192.8555836437146
 20
409.37744454758962
 30
0.0
  0
VERTEX
  5
27763
  8
0
 10
192.84734658562161
 20
409.37116401986208
 30
0.0
  0
VERTEX
  5
27764
  8
0
 10
192.83909684411361
 20
409.36478294111112
 30
0.0
  0
VERTEX
  5
27765
  8
0
 10
192.82256151957529
 20
409.35171322289852
 30
0.0
  0
VERTEX
  5
27766
  8
0
 10
192.80598219047201
 20
409.33822321042129
 30
0.0
  0
VERTEX
  5
27767
  8
0
 10
192.78936356537599
 20
409.32430010790898
 30
0.0
  0
VERTEX
  5
27768
  8
0
 10
192.77271057904591
 20
409.30993047010719
 30
0.0
  0
VERTEX
  5
27769
  8
0
 10
192.7560284366491
 20
409.29510016694297
 30
0.0
  0
VERTEX
  5
2776A
  8
0
 10
192.74767814486691
 20
409.28750765457931
 30
0.0
  0
VERTEX
  5
2776B
  8
0
 10
192.73932266468219
 20
409.27979434969018
 30
0.0
  0
VERTEX
  5
2776C
  8
0
 10
192.7225991690359
 20
409.26399741928071
 30
0.0
  0
VERTEX
  5
2776D
  8
0
 10
192.70581765051909
 20
409.24764683165313
 30
0.0
  0
VERTEX
  5
2776E
  8
0
 10
192.6973444778599
 20
409.23919407447153
 30
0.0
  0
VERTEX
  5
2776F
  8
0
 10
192.68881715239601
 20
409.23054944726158
 30
0.0
  0
VERTEX
  5
27770
  8
0
 10
192.6716225361377
 20
409.21268355319938
 30
0.0
  0
VERTEX
  5
27771
  8
0
 10
192.65427946751271
 20
409.19404849214959
 30
0.0
  0
VERTEX
  5
27772
  8
0
 10
192.64556680285531
 20
409.1844429603193
 30
0.0
  0
VERTEX
  5
27773
  8
0
 10
192.63683457612589
 20
409.17464596977959
 30
0.0
  0
VERTEX
  5
27774
  8
0
 10
192.6193352582776
 20
409.1544802088024
 30
0.0
  0
VERTEX
  5
27775
  8
0
 10
192.60182944942909
 20
409.13355807127112
 30
0.0
  0
VERTEX
  5
27776
  8
0
 10
192.5843653632131
 20
409.11188913675818
 30
0.0
  0
VERTEX
  5
27777
  8
0
 10
192.5669911947129
 20
409.08948572181077
 30
0.0
  0
VERTEX
  5
27778
  8
0
 10
192.54975478674311
 20
409.06636282350382
 30
0.0
  0
VERTEX
  5
27779
  8
0
 10
192.54120300703519
 20
409.05453695247968
 30
0.0
  0
VERTEX
  5
2777A
  8
0
 10
192.53270325921329
 20
409.04253796715278
 30
0.0
  0
VERTEX
  5
2777B
  8
0
 10
192.5158822241782
 20
409.0180303709393
 30
0.0
  0
VERTEX
  5
2777C
  8
0
 10
192.49933520377641
 20
408.9928601784099
 30
0.0
  0
VERTEX
  5
2777D
  8
0
 10
192.4831074687809
 20
408.96705465630743
 30
0.0
  0
VERTEX
  5
2777E
  8
0
 10
192.4672439039592
 20
408.94064598267278
 30
0.0
  0
VERTEX
  5
2777F
  8
0
 10
192.4517882317063
 20
408.91367074307982
 30
0.0
  0
VERTEX
  5
27780
  8
0
 10
192.44422657223319
 20
408.89998324650048
 30
0.0
  0
VERTEX
  5
27781
  8
0
 10
192.4367824893082
 20
408.8861697067573
 30
0.0
  0
VERTEX
  5
27782
  8
0
 10
192.42226649900601
 20
408.85818748154088
 30
0.0
  0
VERTEX
  5
27783
  8
0
 10
192.4082773367613
 20
408.82977202045998
 30
0.0
  0
VERTEX
  5
27784
  8
0
 10
192.40149102222111
 20
408.81541756527889
 30
0.0
  0
SEQEND
  5
27785
  8
0
  0
LINE
  5
241A1
  8
0
 10
237.3053473115649
 20
411.68149017266791
 30
0.0
 11
123.3053473115648
 21
411.68149017266791
 31
0.0
  0
LINE
  5
241A2
  8
0
 10
177.8053473115649
 20
372.68149017266802
 30
0.0
 11
182.8053473115649
 21
372.68149017266802
 31
0.0
  0
LINE
  5
241A3
  8
0
 10
182.8053473115649
 20
192.68149017266791
 30
0.0
 11
177.8053473115649
 21
192.68149017266791
 31
0.0
  0
ARC
  5
241A4
  8
0
 10
177.8053473115649
 20
192.93149017266791
 30
0.0
 40
0.25
 50
180.0
 51
270.0
  0
ARC
  5
241A5
  8
0
 10
177.8053473115649
 20
372.43149017266802
 30
0.0
 40
0.2499999999999951
 50
90.0
 51
180.0
  0
LINE
  5
241A6
  8
0
 10
175.5553473115649
 20
372.43149017266802
 30
0.0
 11
177.5553473115649
 21
372.43149017266802
 31
0.0
  0
LINE
  5
241A7
  8
0
 10
177.5553473115649
 20
192.93149017266791
 30
0.0
 11
175.5553473115649
 21
192.93149017266791
 31
0.0
  0
ARC
  5
241A8
  8
0
 10
175.3053473115649
 20
192.93149017266791
 30
0.0
 40
0.2499999999999973
 50
270.0
 51
0.0
  0
ARC
  5
241A9
  8
0
 10
175.3053473115649
 20
372.43149017266802
 30
0.0
 40
0.25
 50
0.0
 51
90.0
  0
LINE
  5
241AA
  8
0
 10
170.7955522799069
 20
372.68149017266802
 30
0.0
 11
175.3053473115649
 21
372.68149017266802
 31
0.0
  0
LINE
  5
241AB
  8
0
 10
175.3053473115649
 20
192.68149017266791
 30
0.0
 11
170.7955522799069
 21
192.68149017266791
 31
0.0
  0
ARC
  5
241AC
  8
0
 10
170.79555227990701
 20
193.51482350600139
 30
0.0
 40
0.8333333333333712
 50
198.9999999999882
 51
270.0
  0
ARC
  5
241AD
  8
0
 10
170.79555227990701
 20
371.84815683933448
 30
0.0
 40
0.8333333333333698
 50
90.0
 51
161.0000000000118
  0
LINE
  5
241AE
  8
0
 10
167.13944791178051
 20
363.78968666913488
 30
0.0
 11
170.00762013357411
 21
372.11946363471537
 31
0.0
  0
LINE
  5
241AF
  8
0
 10
170.00762013357411
 20
193.2435167106205
 30
0.0
 11
167.13944791178051
 21
201.57329367620099
 31
0.0
  0
ARC
  5
241B0
  8
0
 10
169.503244350779
 20
202.3872140623439
 30
0.0
 40
2.5000000000002358
 50
180.0
 51
198.99999999998801
  0
ARC
  5
241B1
  8
0
 10
169.503244350779
 20
362.97576628299203
 30
0.0
 40
2.5000000000002292
 50
161.00000000001191
 51
180.0
  0
ARC
  5
241B2
  8
0
 10
166.2532443507788
 20
204.1470156978971
 30
0.0
 40
0.75
 50
180.0
 51
0.0
  0
ARC
  5
241B3
  8
0
 10
166.2532443507788
 20
361.21596464743828
 30
0.0
 40
0.75
 50
0.0
 51
180.0
  0
ARC
  5
241B4
  8
0
 10
164.7532443507788
 20
208.5033320144112
 30
0.0
 40
0.7499999999999983
 50
180.0
 51
0.0
  0
ARC
  5
241B5
  8
0
 10
164.7532443507788
 20
356.85964833092481
 30
0.0
 40
0.75
 50
0.0
 51
180.0
  0
LINE
  5
241B6
  8
0
 10
157.94155087256661
 20
337.07705403610731
 30
0.0
 11
164.0032443507788
 21
354.68149017266802
 31
0.0
  0
LINE
  5
241B7
  8
0
 10
164.0032443507788
 20
210.68149017266791
 30
0.0
 11
157.94155087256661
 21
228.2859263092287
 31
0.0
  0
ARC
  5
241B8
  8
0
 10
160.30534731156499
 20
229.0998466953715
 30
0.0
 40
2.500000000000127
 50
179.99999914622629
 51
198.99999999998801
  0
ARC
  5
241B9
  8
0
 10
160.30534731156499
 20
336.2631336499644
 30
0.0
 40
2.5000000000002061
 50
161.00000000001191
 51
180.0
  0
ARC
  5
241BA
  8
0
 10
200.3053473115647
 20
229.0998466953715
 30
0.0
 40
2.500000000000191
 50
341.00000000001199
 51
0.0
  0
ARC
  5
241BB
  8
0
 10
200.3053473115647
 20
336.2631336499644
 30
0.0
 40
2.500000000000199
 50
0.0
 51
18.999999999988059
  0
LINE
  5
241BC
  8
0
 10
196.60745027235089
 20
354.68149017266802
 30
0.0
 11
202.66914375056319
 21
337.07705403610731
 31
0.0
  0
LINE
  5
241BD
  8
0
 10
202.66914375056319
 20
228.2859263092287
 30
0.0
 11
196.60745027235089
 21
210.68149017266791
 31
0.0
  0
ARC
  5
241BE
  8
0
 10
195.85745027235089
 20
208.5033320144112
 30
0.0
 40
0.75
 50
180.0
 51
0.0
  0
ARC
  5
241BF
  8
0
 10
195.85745027235089
 20
356.85964833092481
 30
0.0
 40
0.7499999999999983
 50
0.0
 51
180.0
  0
ARC
  5
241C0
  8
0
 10
194.35745027235089
 20
204.1470156978971
 30
0.0
 40
0.75
 50
180.0
 51
0.0
  0
ARC
  5
241C1
  8
0
 10
194.35745027235089
 20
361.21596464743828
 30
0.0
 40
0.75
 50
0.0
 51
180.0
  0
ARC
  5
241C2
  8
0
 10
191.10745027235021
 20
202.3872140623443
 30
0.0
 40
2.500000000000655
 50
341.00000000001199
 51
0.0
  0
ARC
  5
241C3
  8
0
 10
191.10745027235021
 20
362.97576628299157
 30
0.0
 40
2.500000000000659
 50
0.0
 51
18.999999999988059
  0
LINE
  5
241C4
  8
0
 10
190.6030744895555
 20
372.11946363471537
 30
0.0
 11
193.47124671134921
 21
363.78968666913488
 31
0.0
  0
LINE
  5
241C5
  8
0
 10
193.47124671134921
 20
201.57329367620099
 30
0.0
 11
190.6030744895555
 21
193.2435167106205
 31
0.0
  0
ARC
  5
241C6
  8
0
 10
189.8151423432227
 20
193.51482350600139
 30
0.0
 40
0.8333333333333715
 50
270.0
 51
341.00000000001182
  0
ARC
  5
241C7
  8
0
 10
189.8151423432227
 20
371.84815683933448
 30
0.0
 40
0.8333333333333712
 50
18.99999999998818
 51
90.0
  0
LINE
  5
241C8
  8
0
 10
185.3053473115649
 20
372.68149017266802
 30
0.0
 11
189.8151423432227
 21
372.68149017266802
 31
0.0
  0
LINE
  5
241C9
  8
0
 10
189.8151423432227
 20
192.68149017266791
 30
0.0
 11
185.3053473115649
 21
192.68149017266791
 31
0.0
  0
ARC
  5
241CA
  8
0
 10
185.3053473115649
 20
192.93149017266791
 30
0.0
 40
0.25
 50
180.0
 51
270.0
  0
ARC
  5
241CB
  8
0
 10
185.3053473115649
 20
372.43149017266802
 30
0.0
 40
0.2499999999999947
 50
90.0
 51
180.0
  0
LINE
  5
241CC
  8
0
 10
183.0553473115649
 20
372.43149017266802
 30
0.0
 11
185.0553473115649
 21
372.43149017266802
 31
0.0
  0
LINE
  5
241CD
  8
0
 10
185.0553473115649
 20
192.93149017266791
 30
0.0
 11
183.0553473115649
 21
192.93149017266791
 31
0.0
  0
ARC
  5
241CE
  8
0
 10
182.8053473115649
 20
192.93149017266791
 30
0.0
 40
0.2499999999999978
 50
270.0
 51
0.0
  0
ARC
  5
241CF
  8
0
 10
182.8053473115649
 20
372.43149017266802
 30
0.0
 40
0.25
 50
0.0
 51
90.0
  0
LINE
  5
241D0
  8
0
 10
177.5553473115649
 20
192.93149017266791
 30
0.0
 11
177.5553473115649
 21
372.43149017266802
 31
0.0
  0
LINE
  5
241D1
  8
0
 10
175.5553473115649
 20
192.93149017266791
 30
0.0
 11
175.5553473115649
 21
372.43149017266802
 31
0.0
  0
LINE
  5
241D2
  8
0
 10
167.0032443507788
 20
202.3872140623439
 30
0.0
 11
167.0032443507788
 21
362.97576628299203
 31
0.0
  0
LINE
  5
241D3
  8
0
 10
165.5032443507788
 20
204.1470156978971
 30
0.0
 11
165.5032443507788
 21
361.21596464743828
 31
0.0
  0
LINE
  5
241D4
  8
0
 10
164.0032443507788
 20
208.5033320144112
 30
0.0
 11
164.0032443507788
 21
356.85964833092481
 31
0.0
  0
LINE
  5
241D5
  8
0
 10
157.8053473115649
 20
229.0998466953715
 30
0.0
 11
157.8053473115649
 21
336.2631336499644
 31
0.0
  0
LINE
  5
241D6
  8
0
 10
196.60745027235089
 20
208.5033320144112
 30
0.0
 11
196.60745027235089
 21
356.85964833092481
 31
0.0
  0
LINE
  5
241D7
  8
0
 10
195.10745027235089
 20
204.1470156978971
 30
0.0
 11
195.10745027235089
 21
361.21596464743828
 31
0.0
  0
LINE
  5
241D8
  8
0
 10
193.60745027235089
 20
202.3872140623439
 30
0.0
 11
193.60745027235089
 21
362.97576628299203
 31
0.0
  0
LINE
  5
241D9
  8
0
 10
185.0553473115649
 20
192.93149017266791
 30
0.0
 11
185.0553473115649
 21
372.43149017266802
 31
0.0
  0
LINE
  5
241DA
  8
0
 10
183.0553473115649
 20
192.93149017266791
 30
0.0
 11
183.0553473115649
 21
372.43149017266802
 31
0.0
  0
LINE
  5
241DB
  8
0
 10
202.8053473115649
 20
229.0998466953715
 30
0.0
 11
202.8053473115649
 21
336.2631336499644
 31
0.0
  0
LINE
  5
241DC
  8
3
 10
131.3053473115649
 20
279.44849017266779
 30
0.0
 11
133.3053473115649
 21
279.44849017266779
 31
0.0
  0
LINE
  5
241DD
  8
1
 10
245.198427037378
 20
282.68149017266802
 30
0.0
 11
115.41226758575159
 21
282.68149017266802
 31
0.0
  0
LINE
  5
241DE
  8
1
 10
180.3053473115649
 20
173.48948078404459
 30
0.0
 11
180.30534731156459
 21
430.87349956129128
 31
0.0
  0
LINE
  5
241DF
  8
1
 10
376.838383182146
 20
628.54654207968395
 30
0.0
 11
595.22240195939219
 21
628.54654207968395
 31
0.0
  0
LINE
  5
242B1
  8
3
 10
489.26339257076887
 20
677.54654207968395
 30
0.0
 11
489.26339257076887
 21
675.54654207968395
 31
0.0
  0
LINE
  5
242B2
  8
3
 10
482.79739257076892
 20
677.54654207968395
 30
0.0
 11
482.79739257076892
 21
675.54654207968395
 31
0.0
  0
ARC
  5
25A5A
  8
0
 10
486.03039257076853
 20
282.681490172672
 30
0.0
 40
13.70750502032087
 50
279.44749137513628
 51
296.55250862483922
  0
ARC
  5
25A5B
  8
0
 10
486.03039257076853
 20
282.68149017267251
 30
0.0
 40
13.707505020321079
 50
243.44749137516081
 51
260.55250862486372
  0
TEXT
  5
27035
  8
0
 62
     3
 10
0.0
 20
0.0
 30
0.0
 40
10.0
  1
CAE2-180PBL
  7
STANDARD1
  0
ENDSEC
  0
EOF
